ISO-10303-21;
HEADER;
FILE_DESCRIPTION (( 'STEP AP214' ),
    '1' );
FILE_NAME ('Micro_GEM-078-3X.STEP',
    '2021-09-01T19:09:54',
    ( '' ),
    ( '' ),
    'SwSTEP 2.0',
    'SolidWorks 2020',
    '' );
FILE_SCHEMA (( 'AUTOMOTIVE_DESIGN' ));
ENDSEC;

DATA;
#1 = EDGE_CURVE ( 'NONE', #240, #153, #133, .T. ) ;
#2 =( LENGTH_UNIT ( ) NAMED_UNIT ( * ) SI_UNIT ( $, .METRE. ) );
#3 = ORIENTED_EDGE ( 'NONE', *, *, #247, .T. ) ;
#4 = PRODUCT_DEFINITION_FORMATION_WITH_SPECIFIED_SOURCE ( 'ANY', '', #155, .NOT_KNOWN. ) ;
#5 = AXIS2_PLACEMENT_3D ( 'NONE', #292, #76, #177 ) ;
#6 = EDGE_LOOP ( 'NONE', ( #212, #279, #176, #120 ) ) ;
#7 = FACE_OUTER_BOUND ( 'NONE', #270, .T. ) ;
#8 = EDGE_CURVE ( 'NONE', #153, #144, #199, .T. ) ;
#9 = EDGE_LOOP ( 'NONE', ( #284, #48, #73, #195 ) ) ;
#10 = DIRECTION ( 'NONE',  ( 0.0000000000000000000, 0.0000000000000000000, 1.000000000000000000 ) ) ;
#11 = CARTESIAN_POINT ( 'NONE',  ( 2.302335982397025094E-17, 0.0000000000000000000, 0.1880000000000000282 ) ) ;
#12 = PRODUCT_DEFINITION ( 'UNKNOWN', '', #4, #80 ) ;
#13 = CARTESIAN_POINT ( 'NONE',  ( 3.933724995124051744E-17, 0.0000000000000000000, 0.3212130222250907940 ) ) ;
#14 = FACE_OUTER_BOUND ( 'NONE', #6, .T. ) ;
#15 = AXIS2_PLACEMENT_3D ( 'NONE', #194, #64, #88 ) ;
#16 = DIRECTION ( 'NONE',  ( -1.224646799147353700E-16, -0.0000000000000000000, -1.000000000000000000 ) ) ;
#17 = CARTESIAN_POINT ( 'NONE',  ( -0.04750000000000064587, 0.0000000000000000000, 1.500000000000000222 ) ) ;
#18 = CARTESIAN_POINT ( 'NONE',  ( 0.04750000000000064587, 6.735557395310483192E-18, 1.500000000000000222 ) ) ;
#19 = STYLED_ITEM ( 'NONE', ( #89 ), #278 ) ;
#20 = CARTESIAN_POINT ( 'NONE',  ( -0.03901094999999998175, 4.777463504919744426E-18, 0.1880000000000000282 ) ) ;
#21 = PRODUCT_RELATED_PRODUCT_CATEGORY ( 'part', '', ( #155 ) ) ;
#22 = LINE ( 'NONE', #52, #45 ) ;
#23 =( NAMED_UNIT ( * ) SI_UNIT ( $, .STERADIAN. ) SOLID_ANGLE_UNIT ( ) );
#24 = CIRCLE ( 'NONE', #75, 0.04750000000000064587 ) ;
#25 = DIMENSIONAL_EXPONENTS ( 1.000000000000000000, 0.0000000000000000000, 0.0000000000000000000, 0.0000000000000000000, 0.0000000000000000000, 0.0000000000000000000, 0.0000000000000000000 ) ;
#26 =( LENGTH_UNIT ( ) NAMED_UNIT ( * ) SI_UNIT ( $, .METRE. ) );
#27 = ORIENTED_EDGE ( 'NONE', *, *, #95, .T. ) ;
#28 =( GEOMETRIC_REPRESENTATION_CONTEXT ( 3 ) GLOBAL_UNCERTAINTY_ASSIGNED_CONTEXT ( ( #77 ) ) GLOBAL_UNIT_ASSIGNED_CONTEXT ( ( #148, #119, #190 ) ) REPRESENTATION_CONTEXT ( 'NONE', 'WORKASPACE' ) );
#29 = EDGE_CURVE ( 'NONE', #222, #156, #24, .T. ) ;
#30 = CARTESIAN_POINT ( 'NONE',  ( 0.06250000000000006939, 7.654042494670963708E-18, 0.3212130222250907940 ) ) ;
#31 = EDGE_LOOP ( 'NONE', ( #121, #280, #38, #237 ) ) ;
#32 = DIRECTION ( 'NONE',  ( 1.000000000000000000, 0.0000000000000000000, 0.0000000000000000000 ) ) ;
#33 = ORIENTED_EDGE ( 'NONE', *, *, #113, .F. ) ;
#34 = DIRECTION ( 'NONE',  ( -1.224646799147353700E-16, -0.0000000000000000000, -1.000000000000000000 ) ) ;
#35 = ADVANCED_FACE ( 'NONE', ( #267 ), #266, .T. ) ;
#36 = PRESENTATION_LAYER_ASSIGNMENT (  '', '', ( #260 ) ) ;
#37 = DIRECTION ( 'NONE',  ( -0.0000000000000000000, -0.0000000000000000000, -1.000000000000000000 ) ) ;
#38 = ORIENTED_EDGE ( 'NONE', *, *, #252, .T. ) ;
#39 = CYLINDRICAL_SURFACE ( 'NONE', #299, 0.03901095000000000257 ) ;
#40 = CIRCLE ( 'NONE', #207, 0.06250000000000002776 ) ;
#41 = EDGE_CURVE ( 'NONE', #242, #144, #287, .T. ) ;
#42 = DIRECTION ( 'NONE',  ( 0.0000000000000000000, 0.0000000000000000000, -1.000000000000000000 ) ) ;
#43 = CARTESIAN_POINT ( 'NONE',  ( -0.03901094999999998175, 6.215752999795353296E-18, 0.1880000000000000282 ) ) ;
#44 = LINE ( 'NONE', #83, #295 ) ;
#45 = VECTOR ( 'NONE', #298, 39.37007874015748143 ) ;
#46 = DIRECTION ( 'NONE',  ( -1.224646799147353700E-16, -0.0000000000000000000, -1.000000000000000000 ) ) ;
#47 = SHAPE_DEFINITION_REPRESENTATION ( #191, #50 ) ;
#48 = ORIENTED_EDGE ( 'NONE', *, *, #193, .T. ) ;
#49 = MECHANICAL_DESIGN_GEOMETRIC_PRESENTATION_REPRESENTATION (  '', ( #260 ), #28 ) ;
#50 = ADVANCED_BREP_SHAPE_REPRESENTATION ( 'Micro_GEM-078-3X', ( #278, #202 ), #145 ) ;
#51 = VERTEX_POINT ( 'NONE', #152 ) ;
#52 = CARTESIAN_POINT ( 'NONE',  ( -0.03901095000000000257, 0.0000000000000000000, 4.777463504919746737E-18 ) ) ;
#53 = ORIENTED_EDGE ( 'NONE', *, *, #8, .T. ) ;
#54 = CARTESIAN_POINT ( 'NONE',  ( 0.0000000000000000000, 0.0000000000000000000, 1.500000000000000222 ) ) ;
#55 = AXIS2_PLACEMENT_3D ( 'NONE', #54, #132, #60 ) ;
#56 = AXIS2_PLACEMENT_3D ( 'NONE', #11, #34, #128 ) ;
#57 = CARTESIAN_POINT ( 'NONE',  ( 0.0000000000000000000, 0.0000000000000000000, 1.500000000000000222 ) ) ;
#58 = ADVANCED_FACE ( 'NONE', ( #224 ), #78, .T. ) ;
#59 = CARTESIAN_POINT ( 'NONE',  ( 0.0000000000000000000, 0.0000000000000000000, 1.485000000000000764 ) ) ;
#60 = DIRECTION ( 'NONE',  ( -1.000000000000000000, 0.0000000000000000000, 0.0000000000000000000 ) ) ;
#61 = CARTESIAN_POINT ( 'NONE',  ( 0.0000000000000000000, 0.0000000000000000000, 1.500000000000000222 ) ) ;
#62 = DIRECTION ( 'NONE',  ( -1.000000000000000000, 0.0000000000000000000, 1.224646799147353947E-16 ) ) ;
#63 = COLOUR_RGB ( '',0.7921568627450980005, 0.8196078431372548767, 0.9333333333333333481 ) ;
#64 = DIRECTION ( 'NONE',  ( 1.224646799147353700E-16, 0.0000000000000000000, 1.000000000000000000 ) ) ;
#65 = FILL_AREA_STYLE_COLOUR ( '', #63 ) ;
#66 = ADVANCED_FACE ( 'NONE', ( #14 ), #187, .T. ) ;
#67 = FACE_OUTER_BOUND ( 'NONE', #99, .T. ) ;
#68 = APPLICATION_PROTOCOL_DEFINITION ( 'draft international standard', 'automotive_design', 1998, #149 ) ;
#69 = FILL_AREA_STYLE ('',( #141 ) ) ;
#70 = EDGE_CURVE ( 'NONE', #156, #222, #227, .T. ) ;
#71 = ORIENTED_EDGE ( 'NONE', *, *, #8, .F. ) ;
#72 = EDGE_CURVE ( 'NONE', #156, #242, #126, .T. ) ;
#73 = ORIENTED_EDGE ( 'NONE', *, *, #204, .F. ) ;
#74 = ORIENTED_EDGE ( 'NONE', *, *, #204, .T. ) ;
#75 = AXIS2_PLACEMENT_3D ( 'NONE', #158, #201, #102 ) ;
#76 = DIRECTION ( 'NONE',  ( -1.224646799147353700E-16, -0.0000000000000000000, -1.000000000000000000 ) ) ;
#77 = UNCERTAINTY_MEASURE_WITH_UNIT (LENGTH_MEASURE( 1.000000000000000082E-05 ), #148, 'distance_accuracy_value', 'NONE');
#78 = PLANE ( 'NONE',  #101 ) ;
#79 = FACE_OUTER_BOUND ( 'NONE', #31, .T. ) ;
#80 = PRODUCT_DEFINITION_CONTEXT ( 'detailed design', #149, 'design' ) ;
#81 = FACE_OUTER_BOUND ( 'NONE', #264, .T. ) ;
#82 = VECTOR ( 'NONE', #241, 39.37007874015748143 ) ;
#83 = CARTESIAN_POINT ( 'NONE',  ( 0.03901095000000000257, 4.777463504919744426E-18, -4.777463504919746737E-18 ) ) ;
#84 = DIRECTION ( 'NONE',  ( -0.0000000000000000000, -0.0000000000000000000, -1.000000000000000000 ) ) ;
#85 = CARTESIAN_POINT ( 'NONE',  ( 2.302335982397025094E-17, 0.0000000000000000000, 0.1880000000000000282 ) ) ;
#86 = AXIS2_PLACEMENT_3D ( 'NONE', #157, #107, #172 ) ;
#87 = ADVANCED_FACE ( 'NONE', ( #79 ), #182, .T. ) ;
#88 = DIRECTION ( 'NONE',  ( 1.000000000000000000, 0.0000000000000000000, 0.0000000000000000000 ) ) ;
#89 = PRESENTATION_STYLE_ASSIGNMENT (( #205 ) ) ;
#90 = PRODUCT_CONTEXT ( 'NONE', #91, 'mechanical' ) ;
#91 = APPLICATION_CONTEXT ( 'automotive_design' ) ;
#92 = CIRCLE ( 'NONE', #188, 0.06250000000000002776 ) ;
#93 = LENGTH_MEASURE_WITH_UNIT ( LENGTH_MEASURE( 0.02539999999999999897 ), #2 );
#94 = DIMENSIONAL_EXPONENTS ( 1.000000000000000000, 0.0000000000000000000, 0.0000000000000000000, 0.0000000000000000000, 0.0000000000000000000, 0.0000000000000000000, 0.0000000000000000000 ) ;
#95 = EDGE_CURVE ( 'NONE', #129, #144, #167, .T. ) ;
#96 =( CONVERSION_BASED_UNIT ( 'INCH', #93 ) LENGTH_UNIT ( ) NAMED_UNIT ( #94 ) );
#97 = EDGE_LOOP ( 'NONE', ( #220, #3, #258, #289 ) ) ;
#98 = APPLICATION_PROTOCOL_DEFINITION ( 'draft international standard', 'automotive_design', 1998, #91 ) ;
#99 = EDGE_LOOP ( 'NONE', ( #261, #127, #104, #142 ) ) ;
#100 = DIRECTION ( 'NONE',  ( 0.0000000000000000000, 0.0000000000000000000, 1.000000000000000000 ) ) ;
#101 = AXIS2_PLACEMENT_3D ( 'NONE', #61, #10, #246 ) ;
#102 = DIRECTION ( 'NONE',  ( 1.000000000000000000, 0.0000000000000000000, 0.0000000000000000000 ) ) ;
#103 = EDGE_CURVE ( 'NONE', #159, #242, #92, .T. ) ;
#104 = ORIENTED_EDGE ( 'NONE', *, *, #95, .F. ) ;
#105 = DIRECTION ( 'NONE',  ( 0.7071067811865462405, 8.659560562354916834E-17, -0.7071067811865486830 ) ) ;
#106 = UNCERTAINTY_MEASURE_WITH_UNIT (LENGTH_MEASURE( 1.000000000000000082E-05 ), #214, 'distance_accuracy_value', 'NONE');
#107 = DIRECTION ( 'NONE',  ( 0.0000000000000000000, 0.0000000000000000000, -1.000000000000000000 ) ) ;
#108 = AXIS2_PLACEMENT_3D ( 'NONE', #197, #225, #154 ) ;
#109 = DIRECTION ( 'NONE',  ( 1.224646799147353700E-16, 0.0000000000000000000, 1.000000000000000000 ) ) ;
#110 = SURFACE_SIDE_STYLE ('',( #165 ) ) ;
#111 = CARTESIAN_POINT ( 'NONE',  ( 3.933724995124051744E-17, 0.0000000000000000000, 0.3212130222250907940 ) ) ;
#112 = DIRECTION ( 'NONE',  ( -1.224646799147353700E-16, -0.0000000000000000000, -1.000000000000000000 ) ) ;
#113 = EDGE_CURVE ( 'NONE', #153, #240, #257, .T. ) ;
#114 = ORIENTED_EDGE ( 'NONE', *, *, #29, .T. ) ;
#115 = DIMENSIONAL_EXPONENTS ( 1.000000000000000000, 0.0000000000000000000, 0.0000000000000000000, 0.0000000000000000000, 0.0000000000000000000, 0.0000000000000000000, 0.0000000000000000000 ) ;
#116 = AXIS2_PLACEMENT_3D ( 'NONE', #134, #136, #228 ) ;
#117 = LENGTH_MEASURE_WITH_UNIT ( LENGTH_MEASURE( 0.02539999999999999897 ), #179 );
#118 = ORIENTED_EDGE ( 'NONE', *, *, #286, .T. ) ;
#119 =( NAMED_UNIT ( * ) PLANE_ANGLE_UNIT ( ) SI_UNIT ( $, .RADIAN. ) );
#120 = ORIENTED_EDGE ( 'NONE', *, *, #252, .F. ) ;
#121 = ORIENTED_EDGE ( 'NONE', *, *, #72, .F. ) ;
#122 = VECTOR ( 'NONE', #105, 39.37007874015748854 ) ;
#123 =( NAMED_UNIT ( * ) PLANE_ANGLE_UNIT ( ) SI_UNIT ( $, .RADIAN. ) );
#124 = AXIS2_PLACEMENT_3D ( 'NONE', #293, #84, #164 ) ;
#125 = ORIENTED_EDGE ( 'NONE', *, *, #234, .F. ) ;
#126 = LINE ( 'NONE', #288, #122 ) ;
#127 = ORIENTED_EDGE ( 'NONE', *, *, #41, .T. ) ;
#128 = DIRECTION ( 'NONE',  ( -1.000000000000000000, 0.0000000000000000000, 0.0000000000000000000 ) ) ;
#129 = VERTEX_POINT ( 'NONE', #290 ) ;
#130 = AXIS2_PLACEMENT_3D ( 'NONE', #13, #200, #243 ) ;
#131 = DIRECTION ( 'NONE',  ( 1.000000000000000000, 0.0000000000000000000, 0.0000000000000000000 ) ) ;
#132 = DIRECTION ( 'NONE',  ( -0.0000000000000000000, -0.0000000000000000000, -1.000000000000000000 ) ) ;
#133 = CIRCLE ( 'NONE', #5, 0.03901095000000000257 ) ;
#134 = CARTESIAN_POINT ( 'NONE',  ( 0.0000000000000000000, 0.0000000000000000000, 0.0000000000000000000 ) ) ;
#135 = LINE ( 'NONE', #17, #169 ) ;
#136 = DIRECTION ( 'NONE',  ( -1.224646799147353700E-16, -0.0000000000000000000, -1.000000000000000000 ) ) ;
#137 = DIRECTION ( 'NONE',  ( -1.000000000000000000, 0.0000000000000000000, 1.224646799147353947E-16 ) ) ;
#138 = MECHANICAL_DESIGN_GEOMETRIC_PRESENTATION_REPRESENTATION (  '', ( #19 ), #217 ) ;
#139 = CYLINDRICAL_SURFACE ( 'NONE', #124, 0.06250000000000002776 ) ;
#140 = ADVANCED_FACE ( 'NONE', ( #81 ), #178, .F. ) ;
#141 = FILL_AREA_STYLE_COLOUR ( '', #183 ) ;
#142 = ORIENTED_EDGE ( 'NONE', *, *, #213, .F. ) ;
#143 = DIRECTION ( 'NONE',  ( 1.000000000000000000, 0.0000000000000000000, 0.0000000000000000000 ) ) ;
#144 = VERTEX_POINT ( 'NONE', #30 ) ;
#145 =( GEOMETRIC_REPRESENTATION_CONTEXT ( 3 ) GLOBAL_UNCERTAINTY_ASSIGNED_CONTEXT ( ( #223 ) ) GLOBAL_UNIT_ASSIGNED_CONTEXT ( ( #96, #192, #23 ) ) REPRESENTATION_CONTEXT ( 'NONE', 'WORKASPACE' ) );
#146 = SURFACE_STYLE_FILL_AREA ( #69 ) ;
#147 = ADVANCED_FACE ( 'NONE', ( #7 ), #249, .T. ) ;
#148 =( CONVERSION_BASED_UNIT ( 'INCH', #189 ) LENGTH_UNIT ( ) NAMED_UNIT ( #115 ) );
#149 = APPLICATION_CONTEXT ( 'automotive_design' ) ;
#150 = SURFACE_SIDE_STYLE ('',( #146 ) ) ;
#151 = AXIS2_PLACEMENT_3D ( 'NONE', #221, #226, #263 ) ;
#152 = CARTESIAN_POINT ( 'NONE',  ( -0.03901095000000000257, 0.0000000000000000000, 9.554927009839493473E-18 ) ) ;
#153 = VERTEX_POINT ( 'NONE', #160 ) ;
#154 = DIRECTION ( 'NONE',  ( -1.000000000000000000, 0.0000000000000000000, 0.0000000000000000000 ) ) ;
#155 = PRODUCT ( 'Micro_GEM-078-3X', 'Micro_GEM-078-3X', '', ( #90 ) ) ;
#156 = VERTEX_POINT ( 'NONE', #18 ) ;
#157 = CARTESIAN_POINT ( 'NONE',  ( 0.0000000000000000000, 0.0000000000000000000, 1.500000000000000222 ) ) ;
#158 = CARTESIAN_POINT ( 'NONE',  ( 0.0000000000000000000, 0.0000000000000000000, 1.500000000000000222 ) ) ;
#159 = VERTEX_POINT ( 'NONE', #181 ) ;
#160 = CARTESIAN_POINT ( 'NONE',  ( 0.03901095000000003032, 0.0000000000000000000, 0.1880000000000000282 ) ) ;
#161 = DIRECTION ( 'NONE',  ( 1.000000000000000000, 0.0000000000000000000, 0.0000000000000000000 ) ) ;
#162 = AXIS2_PLACEMENT_3D ( 'NONE', #85, #109, #274 ) ;
#163 = ADVANCED_FACE ( 'NONE', ( #232 ), #269, .T. ) ;
#164 = DIRECTION ( 'NONE',  ( -1.000000000000000000, 0.0000000000000000000, 0.0000000000000000000 ) ) ;
#165 = SURFACE_STYLE_FILL_AREA ( #294 ) ;
#166 = DIRECTION ( 'NONE',  ( -0.1736481776669311916, 2.126576849575783316E-17, 0.9848077530122080203 ) ) ;
#167 = CIRCLE ( 'NONE', #130, 0.06250000000000002776 ) ;
#168 = ADVANCED_FACE ( 'NONE', ( #203 ), #253, .T. ) ;
#169 = VECTOR ( 'NONE', #209, 39.37007874015748854 ) ;
#170 = AXIS2_PLACEMENT_3D ( 'NONE', #250, #42, #255 ) ;
#171 = ORIENTED_EDGE ( 'NONE', *, *, #208, .T. ) ;
#172 = DIRECTION ( 'NONE',  ( -1.000000000000000000, 0.0000000000000000000, 0.0000000000000000000 ) ) ;
#173 = CIRCLE ( 'NONE', #170, 0.06250000000000002776 ) ;
#174 = CARTESIAN_POINT ( 'NONE',  ( 0.03901095000000003032, 0.0000000000000000000, 0.1880000000000000282 ) ) ;
#175 = ORIENTED_EDGE ( 'NONE', *, *, #234, .T. ) ;
#176 = ORIENTED_EDGE ( 'NONE', *, *, #103, .F. ) ;
#177 = DIRECTION ( 'NONE',  ( -1.000000000000000000, 0.0000000000000000000, 0.0000000000000000000 ) ) ;
#178 = PLANE ( 'NONE',  #151 ) ;
#179 =( LENGTH_UNIT ( ) NAMED_UNIT ( * ) SI_UNIT ( $, .METRE. ) );
#180 = CARTESIAN_POINT ( 'NONE',  ( 5.850705389343265247E-34, 0.0000000000000000000, 4.777463504919746737E-18 ) ) ;
#181 = CARTESIAN_POINT ( 'NONE',  ( -0.06250000000000002776, 0.0000000000000000000, 1.485000000000000764 ) ) ;
#182 = CONICAL_SURFACE ( 'NONE', #108, 0.04750000000000064587, 0.7853981633974466137 ) ;
#183 = COLOUR_RGB ( '',0.7921568627450980005, 0.8196078431372548767, 0.9333333333333333481 ) ;
#184 = CARTESIAN_POINT ( 'NONE',  ( -0.04750000000000064587, 0.0000000000000000000, 1.500000000000000222 ) ) ;
#185 = DIRECTION ( 'NONE',  ( -1.224646799147353700E-16, -0.0000000000000000000, -1.000000000000000000 ) ) ;
#186 =( NAMED_UNIT ( * ) SI_UNIT ( $, .STERADIAN. ) SOLID_ANGLE_UNIT ( ) );
#187 = CONICAL_SURFACE ( 'NONE', #86, 0.04750000000000064587, 0.7853981633974466137 ) ;
#188 = AXIS2_PLACEMENT_3D ( 'NONE', #59, #239, #32 ) ;
#189 = LENGTH_MEASURE_WITH_UNIT ( LENGTH_MEASURE( 0.02539999999999999897 ), #26 );
#190 =( NAMED_UNIT ( * ) SI_UNIT ( $, .STERADIAN. ) SOLID_ANGLE_UNIT ( ) );
#191 = PRODUCT_DEFINITION_SHAPE ( 'NONE', 'NONE',  #12 ) ;
#192 =( NAMED_UNIT ( * ) PLANE_ANGLE_UNIT ( ) SI_UNIT ( $, .RADIAN. ) );
#193 = EDGE_CURVE ( 'NONE', #153, #268, #44, .T. ) ;
#194 = CARTESIAN_POINT ( 'NONE',  ( 2.302335982397025094E-17, 0.0000000000000000000, 0.1880000000000000282 ) ) ;
#195 = ORIENTED_EDGE ( 'NONE', *, *, #286, .F. ) ;
#196 = CIRCLE ( 'NONE', #285, 0.03901095000000000257 ) ;
#197 = CARTESIAN_POINT ( 'NONE',  ( 0.0000000000000000000, 0.0000000000000000000, 1.500000000000000222 ) ) ;
#198 = ADVANCED_FACE ( 'NONE', ( #67 ), #139, .T. ) ;
#199 = LINE ( 'NONE', #174, #82 ) ;
#200 = DIRECTION ( 'NONE',  ( -1.224646799147353700E-16, -0.0000000000000000000, -1.000000000000000000 ) ) ;
#201 = DIRECTION ( 'NONE',  ( 0.0000000000000000000, 0.0000000000000000000, 1.000000000000000000 ) ) ;
#202 = AXIS2_PLACEMENT_3D ( 'NONE', #235, #259, #143 ) ;
#203 = FACE_OUTER_BOUND ( 'NONE', #9, .T. ) ;
#204 = EDGE_CURVE ( 'NONE', #51, #268, #196, .T. ) ;
#205 = SURFACE_STYLE_USAGE ( .BOTH. , #110 ) ;
#206 = LINE ( 'NONE', #229, #265 ) ;
#207 = AXIS2_PLACEMENT_3D ( 'NONE', #111, #16, #161 ) ;
#208 = EDGE_CURVE ( 'NONE', #144, #129, #40, .T. ) ;
#209 = DIRECTION ( 'NONE',  ( -0.7071067811865462405, 0.0000000000000000000, -0.7071067811865486830 ) ) ;
#210 = PRESENTATION_STYLE_ASSIGNMENT (( #233 ) ) ;
#211 = PRESENTATION_LAYER_ASSIGNMENT (  '', '', ( #19 ) ) ;
#212 = ORIENTED_EDGE ( 'NONE', *, *, #70, .F. ) ;
#213 = EDGE_CURVE ( 'NONE', #159, #129, #206, .T. ) ;
#214 =( CONVERSION_BASED_UNIT ( 'INCH', #117 ) LENGTH_UNIT ( ) NAMED_UNIT ( #25 ) );
#215 = EDGE_LOOP ( 'NONE', ( #262, #282, #118, #125 ) ) ;
#216 = ORIENTED_EDGE ( 'NONE', *, *, #1, .F. ) ;
#217 =( GEOMETRIC_REPRESENTATION_CONTEXT ( 3 ) GLOBAL_UNCERTAINTY_ASSIGNED_CONTEXT ( ( #106 ) ) GLOBAL_UNIT_ASSIGNED_CONTEXT ( ( #214, #123, #186 ) ) REPRESENTATION_CONTEXT ( 'NONE', 'WORKASPACE' ) );
#218 = ADVANCED_FACE ( 'NONE', ( #248 ), #39, .T. ) ;
#219 = ORIENTED_EDGE ( 'NONE', *, *, #244, .T. ) ;
#220 = ORIENTED_EDGE ( 'NONE', *, *, #41, .F. ) ;
#221 = CARTESIAN_POINT ( 'NONE',  ( 0.0000000000000000000, 0.0000000000000000000, 0.0000000000000000000 ) ) ;
#222 = VERTEX_POINT ( 'NONE', #184 ) ;
#223 = UNCERTAINTY_MEASURE_WITH_UNIT (LENGTH_MEASURE( 1.000000000000000082E-05 ), #96, 'distance_accuracy_value', 'NONE');
#224 = FACE_OUTER_BOUND ( 'NONE', #283, .T. ) ;
#225 = DIRECTION ( 'NONE',  ( 0.0000000000000000000, 0.0000000000000000000, -1.000000000000000000 ) ) ;
#226 = DIRECTION ( 'NONE',  ( 0.0000000000000000000, 0.0000000000000000000, 1.000000000000000000 ) ) ;
#227 = CIRCLE ( 'NONE', #272, 0.04750000000000064587 ) ;
#228 = DIRECTION ( 'NONE',  ( -1.000000000000000000, 0.0000000000000000000, 1.224646799147353947E-16 ) ) ;
#229 = CARTESIAN_POINT ( 'NONE',  ( -0.06250000000000002776, 0.0000000000000000000, 1.500000000000000222 ) ) ;
#230 = DIRECTION ( 'NONE',  ( -1.224646799147353700E-16, -0.0000000000000000000, -1.000000000000000000 ) ) ;
#231 = CARTESIAN_POINT ( 'NONE',  ( 0.06250000000000002776, 7.654042494670959086E-18, 1.485000000000000764 ) ) ;
#232 = FACE_OUTER_BOUND ( 'NONE', #236, .T. ) ;
#233 = SURFACE_STYLE_USAGE ( .BOTH. , #150 ) ;
#234 = EDGE_CURVE ( 'NONE', #268, #51, #273, .T. ) ;
#235 = CARTESIAN_POINT ( 'NONE',  ( 0.0000000000000000000, 0.0000000000000000000, 0.0000000000000000000 ) ) ;
#236 = EDGE_LOOP ( 'NONE', ( #277, #33, #53, #171 ) ) ;
#237 = ORIENTED_EDGE ( 'NONE', *, *, #247, .F. ) ;
#238 = AXIS2_PLACEMENT_3D ( 'NONE', #275, #185, #296 ) ;
#239 = DIRECTION ( 'NONE',  ( 0.0000000000000000000, 0.0000000000000000000, -1.000000000000000000 ) ) ;
#240 = VERTEX_POINT ( 'NONE', #43 ) ;
#241 = DIRECTION ( 'NONE',  ( 0.1736481776669313859, 0.0000000000000000000, 0.9848077530122077983 ) ) ;
#242 = VERTEX_POINT ( 'NONE', #231 ) ;
#243 = DIRECTION ( 'NONE',  ( 1.000000000000000000, 0.0000000000000000000, 0.0000000000000000000 ) ) ;
#244 = EDGE_CURVE ( 'NONE', #240, #129, #276, .T. ) ;
#245 = CARTESIAN_POINT ( 'NONE',  ( 0.06250000000000002776, 7.654042494670959086E-18, 1.500000000000000222 ) ) ;
#246 = DIRECTION ( 'NONE',  ( 1.000000000000000000, 0.0000000000000000000, -0.0000000000000000000 ) ) ;
#247 = EDGE_CURVE ( 'NONE', #242, #159, #173, .T. ) ;
#248 = FACE_OUTER_BOUND ( 'NONE', #215, .T. ) ;
#249 = CONICAL_SURFACE ( 'NONE', #15, 0.03901095000000000257, 0.1745329251994338915 ) ;
#250 = CARTESIAN_POINT ( 'NONE',  ( 0.0000000000000000000, 0.0000000000000000000, 1.485000000000000764 ) ) ;
#251 = DIRECTION ( 'NONE',  ( -0.0000000000000000000, -0.0000000000000000000, -1.000000000000000000 ) ) ;
#252 = EDGE_CURVE ( 'NONE', #222, #159, #135, .T. ) ;
#253 = CYLINDRICAL_SURFACE ( 'NONE', #116, 0.03901095000000000257 ) ;
#254 = CLOSED_SHELL ( 'NONE', ( #168, #147, #66, #198, #35, #58, #87, #163, #218, #140 ) ) ;
#255 = DIRECTION ( 'NONE',  ( 1.000000000000000000, 0.0000000000000000000, 0.0000000000000000000 ) ) ;
#256 = VECTOR ( 'NONE', #37, 39.37007874015748143 ) ;
#257 = CIRCLE ( 'NONE', #56, 0.03901095000000000257 ) ;
#258 = ORIENTED_EDGE ( 'NONE', *, *, #213, .T. ) ;
#259 = DIRECTION ( 'NONE',  ( 0.0000000000000000000, 0.0000000000000000000, 1.000000000000000000 ) ) ;
#260 = STYLED_ITEM ( 'NONE', ( #210 ), #50 ) ;
#261 = ORIENTED_EDGE ( 'NONE', *, *, #103, .T. ) ;
#262 = ORIENTED_EDGE ( 'NONE', *, *, #193, .F. ) ;
#263 = DIRECTION ( 'NONE',  ( 1.000000000000000000, 0.0000000000000000000, -0.0000000000000000000 ) ) ;
#264 = EDGE_LOOP ( 'NONE', ( #74, #175 ) ) ;
#265 = VECTOR ( 'NONE', #251, 39.37007874015748143 ) ;
#266 = CYLINDRICAL_SURFACE ( 'NONE', #55, 0.06250000000000002776 ) ;
#267 = FACE_OUTER_BOUND ( 'NONE', #97, .T. ) ;
#268 = VERTEX_POINT ( 'NONE', #297 ) ;
#269 = CONICAL_SURFACE ( 'NONE', #162, 0.03901095000000000257, 0.1745329251994338915 ) ;
#270 = EDGE_LOOP ( 'NONE', ( #216, #219, #27, #71 ) ) ;
#271 = CARTESIAN_POINT ( 'NONE',  ( 0.0000000000000000000, 0.0000000000000000000, 0.0000000000000000000 ) ) ;
#272 = AXIS2_PLACEMENT_3D ( 'NONE', #57, #100, #131 ) ;
#273 = CIRCLE ( 'NONE', #238, 0.03901095000000000257 ) ;
#274 = DIRECTION ( 'NONE',  ( 1.000000000000000000, 0.0000000000000000000, 0.0000000000000000000 ) ) ;
#275 = CARTESIAN_POINT ( 'NONE',  ( 5.850705389343265247E-34, 0.0000000000000000000, 4.777463504919746737E-18 ) ) ;
#276 = LINE ( 'NONE', #20, #291 ) ;
#277 = ORIENTED_EDGE ( 'NONE', *, *, #244, .F. ) ;
#278 = MANIFOLD_SOLID_BREP ( 'Cut-Revolve1', #254 ) ;
#279 = ORIENTED_EDGE ( 'NONE', *, *, #72, .T. ) ;
#280 = ORIENTED_EDGE ( 'NONE', *, *, #29, .F. ) ;
#281 = ORIENTED_EDGE ( 'NONE', *, *, #70, .T. ) ;
#282 = ORIENTED_EDGE ( 'NONE', *, *, #113, .T. ) ;
#283 = EDGE_LOOP ( 'NONE', ( #114, #281 ) ) ;
#284 = ORIENTED_EDGE ( 'NONE', *, *, #1, .T. ) ;
#285 = AXIS2_PLACEMENT_3D ( 'NONE', #180, #112, #137 ) ;
#286 = EDGE_CURVE ( 'NONE', #240, #51, #22, .T. ) ;
#287 = LINE ( 'NONE', #245, #256 ) ;
#288 = CARTESIAN_POINT ( 'NONE',  ( 0.04750000000000064587, 5.817072295950006528E-18, 1.500000000000000222 ) ) ;
#289 = ORIENTED_EDGE ( 'NONE', *, *, #208, .F. ) ;
#290 = CARTESIAN_POINT ( 'NONE',  ( -0.06249999999999997918, 0.0000000000000000000, 0.3212130222250907940 ) ) ;
#291 = VECTOR ( 'NONE', #166, 39.37007874015747433 ) ;
#292 = CARTESIAN_POINT ( 'NONE',  ( 2.302335982397025094E-17, 0.0000000000000000000, 0.1880000000000000282 ) ) ;
#293 = CARTESIAN_POINT ( 'NONE',  ( 0.0000000000000000000, 0.0000000000000000000, 1.500000000000000222 ) ) ;
#294 = FILL_AREA_STYLE ('',( #65 ) ) ;
#295 = VECTOR ( 'NONE', #230, 39.37007874015748143 ) ;
#296 = DIRECTION ( 'NONE',  ( -1.000000000000000000, 0.0000000000000000000, 1.224646799147353947E-16 ) ) ;
#297 = CARTESIAN_POINT ( 'NONE',  ( 0.03901095000000000257, 4.777463504919744426E-18, 0.0000000000000000000 ) ) ;
#298 = DIRECTION ( 'NONE',  ( -1.224646799147353700E-16, -0.0000000000000000000, -1.000000000000000000 ) ) ;
#299 = AXIS2_PLACEMENT_3D ( 'NONE', #271, #46, #62 ) ;
ENDSEC;
END-ISO-10303-21;
