ISO-10303-21;
HEADER;
FILE_DESCRIPTION (( 'STEP AP214' ),
    '1' );
FILE_NAME ('59850.STEP',
    '2023-06-22T23:33:13',
    ( '' ),
    ( '' ),
    'SwSTEP 2.0',
    'SolidWorks 2023',
    '' );
FILE_SCHEMA (( 'AUTOMOTIVE_DESIGN' ));
ENDSEC;

DATA;
#1 = EDGE_LOOP ( 'NONE', ( #168, #68 ) ) ;
#2 =( NAMED_UNIT ( * ) PLANE_ANGLE_UNIT ( ) SI_UNIT ( $, .RADIAN. ) );
#3 = CARTESIAN_POINT ( 'NONE',  ( 0.000000000000000000, 0.000000000000000000, 0.000000000000000000 ) ) ;
#4 = VERTEX_POINT ( 'NONE', #132 ) ;
#5 = FILL_AREA_STYLE ('',( #133 ) ) ;
#6 = AXIS2_PLACEMENT_3D ( 'NONE', #162, #141, #230 ) ;
#7 = FILL_AREA_STYLE ('',( #223 ) ) ;
#8 = CYLINDRICAL_SURFACE ( 'NONE', #76, 0.3125000000000000000 ) ;
#9 =( NAMED_UNIT ( * ) SI_UNIT ( $, .STERADIAN. ) SOLID_ANGLE_UNIT ( ) );
#10 = CIRCLE ( 'NONE', #247, 0.3125000000000000000 ) ;
#11 = DIRECTION ( 'NONE',  ( 0.000000000000000000, 0.000000000000000000, -1.000000000000000000 ) ) ;
#12 = FACE_OUTER_BOUND ( 'NONE', #1, .T. ) ;
#13 = CARTESIAN_POINT ( 'NONE',  ( 0.000000000000000000, 0.000000000000000000, 0.000000000000000000 ) ) ;
#14 = PRODUCT_CONTEXT ( 'NONE', #135, 'mechanical' ) ;
#15 =( NAMED_UNIT ( * ) SI_UNIT ( $, .STERADIAN. ) SOLID_ANGLE_UNIT ( ) );
#16 = CARTESIAN_POINT ( 'NONE',  ( 0.000000000000000000, 0.000000000000000000, -0.3125000000000000000 ) ) ;
#17 = AXIS2_PLACEMENT_3D ( 'NONE', #179, #57, #33 ) ;
#18 = ADVANCED_FACE ( 'NONE', ( #45 ), #259, .F. ) ;
#19 = ORIENTED_EDGE ( 'NONE', *, *, #278, .F. ) ;
#20 = ORIENTED_EDGE ( 'NONE', *, *, #221, .F. ) ;
#21 = AXIS2_PLACEMENT_3D ( 'NONE', #90, #142, #116 ) ;
#22 = SURFACE_STYLE_USAGE ( .BOTH. , #94 ) ;
#23 = ADVANCED_FACE ( 'NONE', ( #99 ), #174, .T. ) ;
#24 = DIRECTION ( 'NONE',  ( -0.000000000000000000, -1.000000000000000000, -0.000000000000000000 ) ) ;
#25 = PRODUCT_DEFINITION_CONTEXT ( 'detailed design', #304, 'design' ) ;
#26 = DIRECTION ( 'NONE',  ( -2.721437331438560697E-17, 1.000000000000000000, -0.000000000000000000 ) ) ;
#27 = UNCERTAINTY_MEASURE_WITH_UNIT (LENGTH_MEASURE( 1.000000000000000082E-05 ), #112, 'distance_accuracy_value', 'NONE');
#28 = SURFACE_STYLE_FILL_AREA ( #147 ) ;
#29 = MECHANICAL_DESIGN_GEOMETRIC_PRESENTATION_REPRESENTATION (  '', ( #154 ), #305 ) ;
#30 = DIRECTION ( 'NONE',  ( -2.721437331438560389E-17, 1.000000000000000000, -0.000000000000000000 ) ) ;
#31 = EDGE_CURVE ( 'NONE', #124, #81, #10, .T. ) ;
#32 = EDGE_LOOP ( 'NONE', ( #88, #84, #182, #83 ) ) ;
#33 = DIRECTION ( 'NONE',  ( 0.000000000000000000, 0.000000000000000000, -1.000000000000000000 ) ) ;
#34 =( LENGTH_UNIT ( ) NAMED_UNIT ( * ) SI_UNIT ( $, .METRE. ) );
#35 =( GEOMETRIC_REPRESENTATION_CONTEXT ( 3 ) GLOBAL_UNCERTAINTY_ASSIGNED_CONTEXT ( ( #27 ) ) GLOBAL_UNIT_ASSIGNED_CONTEXT ( ( #112, #267, #59 ) ) REPRESENTATION_CONTEXT ( 'NONE', 'WORKASPACE' ) );
#36 = CIRCLE ( 'NONE', #271, 0.3125000000000000000 ) ;
#37 = SURFACE_STYLE_FILL_AREA ( #5 ) ;
#38 = DIMENSIONAL_EXPONENTS ( 1.000000000000000000, 0.000000000000000000, 0.000000000000000000, 0.000000000000000000, 0.000000000000000000, 0.000000000000000000, 0.000000000000000000 ) ;
#39 = DIRECTION ( 'NONE',  ( -2.721437331438560389E-17, 1.000000000000000000, -0.000000000000000000 ) ) ;
#40 =( CONVERSION_BASED_UNIT ( 'INCH', #171 ) LENGTH_UNIT ( ) NAMED_UNIT ( #111 ) );
#41 = DIMENSIONAL_EXPONENTS ( 1.000000000000000000, 0.000000000000000000, 0.000000000000000000, 0.000000000000000000, 0.000000000000000000, 0.000000000000000000, 0.000000000000000000 ) ;
#42 = COLOUR_RGB ( '',1.000000000000000000, 0.000000000000000000, 0.000000000000000000 ) ;
#43 = SURFACE_STYLE_FILL_AREA ( #244 ) ;
#44 = ORIENTED_EDGE ( 'NONE', *, *, #278, .T. ) ;
#45 = FACE_OUTER_BOUND ( 'NONE', #208, .T. ) ;
#46 = COLOUR_RGB ( '',0.7921568627450980005, 0.8196078431372548767, 0.9333333333333333481 ) ;
#47 = AXIS2_PLACEMENT_3D ( 'NONE', #235, #207, #234 ) ;
#48 = CARTESIAN_POINT ( 'NONE',  ( 0.000000000000000000, 0.000000000000000000, 0.000000000000000000 ) ) ;
#49 = EDGE_CURVE ( 'NONE', #114, #4, #222, .T. ) ;
#50 = ORIENTED_EDGE ( 'NONE', *, *, #184, .F. ) ;
#51 = EDGE_CURVE ( 'NONE', #124, #148, #225, .T. ) ;
#52 = CIRCLE ( 'NONE', #214, 0.3125000000000000000 ) ;
#53 = ADVANCED_FACE ( 'NONE', ( #261 ), #241, .T. ) ;
#54 =( CONVERSION_BASED_UNIT ( 'INCH', #213 ) LENGTH_UNIT ( ) NAMED_UNIT ( #123 ) );
#55 = PRODUCT_DEFINITION_SHAPE ( 'NONE', 'NONE',  #70 ) ;
#56 =( GEOMETRIC_REPRESENTATION_CONTEXT ( 3 ) GLOBAL_UNCERTAINTY_ASSIGNED_CONTEXT ( ( #92 ) ) GLOBAL_UNIT_ASSIGNED_CONTEXT ( ( #40, #236, #15 ) ) REPRESENTATION_CONTEXT ( 'NONE', 'WORKASPACE' ) );
#57 = DIRECTION ( 'NONE',  ( -0.000000000000000000, -1.000000000000000000, -0.000000000000000000 ) ) ;
#58 = SURFACE_STYLE_FILL_AREA ( #180 ) ;
#59 =( NAMED_UNIT ( * ) SI_UNIT ( $, .STERADIAN. ) SOLID_ANGLE_UNIT ( ) );
#60 =( NAMED_UNIT ( * ) SI_UNIT ( $, .STERADIAN. ) SOLID_ANGLE_UNIT ( ) );
#61 = MECHANICAL_DESIGN_GEOMETRIC_PRESENTATION_REPRESENTATION (  '', ( #204 ), #137 ) ;
#62 = CARTESIAN_POINT ( 'NONE',  ( -6.123233995736759873E-17, 3.500000000000000000, 0.000000000000000000 ) ) ;
#63 = CARTESIAN_POINT ( 'NONE',  ( 3.827021247335478926E-17, 1.250000000000000000, 0.3125000000000000000 ) ) ;
#64 = DIMENSIONAL_EXPONENTS ( 1.000000000000000000, 0.000000000000000000, 0.000000000000000000, 0.000000000000000000, 0.000000000000000000, 0.000000000000000000, 0.000000000000000000 ) ;
#65 = MANIFOLD_SOLID_BREP ( 'Revolve - Cutting Edge', #158 ) ;
#66 = MECHANICAL_DESIGN_GEOMETRIC_PRESENTATION_REPRESENTATION (  '', ( #159 ), #113 ) ;
#67 = LINE ( 'NONE', #80, #243 ) ;
#68 = ORIENTED_EDGE ( 'NONE', *, *, #184, .T. ) ;
#69 = AXIS2_PLACEMENT_3D ( 'NONE', #187, #87, #185 ) ;
#70 = PRODUCT_DEFINITION ( 'UNKNOWN', '', #289, #25 ) ;
#71 = FILL_AREA_STYLE ('',( #156 ) ) ;
#72 = MANIFOLD_SOLID_BREP ( 'Revolve - Tool Body (Straight Shanked)', #203 ) ;
#73 = PRESENTATION_STYLE_ASSIGNMENT (( #169 ) ) ;
#74 =( NAMED_UNIT ( * ) PLANE_ANGLE_UNIT ( ) SI_UNIT ( $, .RADIAN. ) );
#75 = PRESENTATION_LAYER_ASSIGNMENT (  '', '', ( #227 ) ) ;
#76 = AXIS2_PLACEMENT_3D ( 'NONE', #295, #272, #193 ) ;
#77 = EDGE_CURVE ( 'NONE', #114, #303, #258, .T. ) ;
#78 =( CONVERSION_BASED_UNIT ( 'INCH', #215 ) LENGTH_UNIT ( ) NAMED_UNIT ( #64 ) );
#79 = PRESENTATION_LAYER_ASSIGNMENT (  '', '', ( #154 ) ) ;
#80 = CARTESIAN_POINT ( 'NONE',  ( 0.3124999999999999445, 3.500000000000000000, 3.827021247335478926E-17 ) ) ;
#81 = VERTEX_POINT ( 'NONE', #151 ) ;
#82 = LINE ( 'NONE', #16, #86 ) ;
#83 = ORIENTED_EDGE ( 'NONE', *, *, #250, .F. ) ;
#84 = ORIENTED_EDGE ( 'NONE', *, *, #49, .T. ) ;
#85 = PRESENTATION_STYLE_ASSIGNMENT (( #117 ) ) ;
#86 = VECTOR ( 'NONE', #220, 39.37007874015748143 ) ;
#87 = DIRECTION ( 'NONE',  ( 0.000000000000000000, 1.000000000000000000, 0.000000000000000000 ) ) ;
#88 = ORIENTED_EDGE ( 'NONE', *, *, #221, .T. ) ;
#89 = DIMENSIONAL_EXPONENTS ( 1.000000000000000000, 0.000000000000000000, 0.000000000000000000, 0.000000000000000000, 0.000000000000000000, 0.000000000000000000, 0.000000000000000000 ) ;
#90 = CARTESIAN_POINT ( 'NONE',  ( 0.3125000000000000000, 3.500000000000000000, 0.000000000000000000 ) ) ;
#91 = ORIENTED_EDGE ( 'NONE', *, *, #140, .T. ) ;
#92 = UNCERTAINTY_MEASURE_WITH_UNIT (LENGTH_MEASURE( 1.000000000000000082E-05 ), #40, 'distance_accuracy_value', 'NONE');
#93 = CARTESIAN_POINT ( 'NONE',  ( 0.000000000000000000, 1.250000000000000000, -0.3125000000000000000 ) ) ;
#94 = SURFACE_SIDE_STYLE ('',( #246 ) ) ;
#95 = SURFACE_STYLE_USAGE ( .BOTH. , #307 ) ;
#96 = DIRECTION ( 'NONE',  ( -1.000000000000000000, 0.000000000000000000, 0.000000000000000000 ) ) ;
#97 = COLOUR_RGB ( '',1.000000000000000000, 0.000000000000000000, 0.000000000000000000 ) ;
#98 = PRESENTATION_STYLE_ASSIGNMENT (( #126 ) ) ;
#99 = FACE_OUTER_BOUND ( 'NONE', #32, .T. ) ;
#100 = EDGE_CURVE ( 'NONE', #81, #124, #52, .T. ) ;
#101 = DIRECTION ( 'NONE',  ( -0.000000000000000000, -1.000000000000000000, -0.000000000000000000 ) ) ;
#102 =( LENGTH_UNIT ( ) NAMED_UNIT ( * ) SI_UNIT ( $, .METRE. ) );
#103 = CARTESIAN_POINT ( 'NONE',  ( -0.3125000000000000555, 3.500000000000000000, 0.000000000000000000 ) ) ;
#104 = SURFACE_SIDE_STYLE ('',( #266 ) ) ;
#105 = ADVANCED_FACE ( 'NONE', ( #12 ), #200, .T. ) ;
#106 = CARTESIAN_POINT ( 'NONE',  ( -0.3125000000000001665, 3.500000000000000000, 0.000000000000000000 ) ) ;
#107 = PRODUCT ( '59850', '59850', '', ( #14 ) ) ;
#108 = FACE_OUTER_BOUND ( 'NONE', #163, .T. ) ;
#109 = DIRECTION ( 'NONE',  ( -0.000000000000000000, -1.000000000000000000, -0.000000000000000000 ) ) ;
#110 =( NAMED_UNIT ( * ) PLANE_ANGLE_UNIT ( ) SI_UNIT ( $, .RADIAN. ) );
#111 = DIMENSIONAL_EXPONENTS ( 1.000000000000000000, 0.000000000000000000, 0.000000000000000000, 0.000000000000000000, 0.000000000000000000, 0.000000000000000000, 0.000000000000000000 ) ;
#112 =( CONVERSION_BASED_UNIT ( 'INCH', #198 ) LENGTH_UNIT ( ) NAMED_UNIT ( #38 ) );
#113 =( GEOMETRIC_REPRESENTATION_CONTEXT ( 3 ) GLOBAL_UNCERTAINTY_ASSIGNED_CONTEXT ( ( #129 ) ) GLOBAL_UNIT_ASSIGNED_CONTEXT ( ( #78, #74, #9 ) ) REPRESENTATION_CONTEXT ( 'NONE', 'WORKASPACE' ) );
#114 = VERTEX_POINT ( 'NONE', #63 ) ;
#115 = APPLICATION_PROTOCOL_DEFINITION ( 'draft international standard', 'automotive_design', 1998, #135 ) ;
#116 = DIRECTION ( 'NONE',  ( 1.000000000000000000, 2.721437331438560697E-17, 0.000000000000000000 ) ) ;
#117 = SURFACE_STYLE_USAGE ( .BOTH. , #165 ) ;
#118 = DIRECTION ( 'NONE',  ( -0.000000000000000000, -1.000000000000000000, -0.000000000000000000 ) ) ;
#119 = EDGE_LOOP ( 'NONE', ( #20, #255 ) ) ;
#120 = DIRECTION ( 'NONE',  ( 0.000000000000000000, 0.000000000000000000, 1.000000000000000000 ) ) ;
#121 = PRESENTATION_STYLE_ASSIGNMENT (( #297 ) ) ;
#122 = CIRCLE ( 'NONE', #17, 0.3125000000000000000 ) ;
#123 = DIMENSIONAL_EXPONENTS ( 1.000000000000000000, 0.000000000000000000, 0.000000000000000000, 0.000000000000000000, 0.000000000000000000, 0.000000000000000000, 0.000000000000000000 ) ;
#124 = VERTEX_POINT ( 'NONE', #285 ) ;
#125 = AXIS2_PLACEMENT_3D ( 'NONE', #139, #120, #149 ) ;
#126 = SURFACE_STYLE_USAGE ( .BOTH. , #288 ) ;
#127 = VERTEX_POINT ( 'NONE', #212 ) ;
#128 = ADVANCED_FACE ( 'NONE', ( #190 ), #192, .T. ) ;
#129 = UNCERTAINTY_MEASURE_WITH_UNIT (LENGTH_MEASURE( 1.000000000000000082E-05 ), #78, 'distance_accuracy_value', 'NONE');
#130 =( CONVERSION_BASED_UNIT ( 'INCH', #155 ) LENGTH_UNIT ( ) NAMED_UNIT ( #183 ) );
#131 = ORIENTED_EDGE ( 'NONE', *, *, #77, .T. ) ;
#132 = CARTESIAN_POINT ( 'NONE',  ( 3.827021247335478926E-17, 0.000000000000000000, 0.3125000000000000000 ) ) ;
#133 = FILL_AREA_STYLE_COLOUR ( '', #175 ) ;
#134 = DIRECTION ( 'NONE',  ( -2.721437331438560389E-17, 1.000000000000000000, -0.000000000000000000 ) ) ;
#135 = APPLICATION_CONTEXT ( 'automotive_design' ) ;
#136 = MECHANICAL_DESIGN_GEOMETRIC_PRESENTATION_REPRESENTATION (  '', ( #188 ), #189 ) ;
#137 =( GEOMETRIC_REPRESENTATION_CONTEXT ( 3 ) GLOBAL_UNCERTAINTY_ASSIGNED_CONTEXT ( ( #268 ) ) GLOBAL_UNIT_ASSIGNED_CONTEXT ( ( #54, #191, #167 ) ) REPRESENTATION_CONTEXT ( 'NONE', 'WORKASPACE' ) );
#138 = FILL_AREA_STYLE_COLOUR ( '', #46 ) ;
#139 = CARTESIAN_POINT ( 'NONE',  ( 0.000000000000000000, 0.000000000000000000, 0.000000000000000000 ) ) ;
#140 = EDGE_CURVE ( 'NONE', #81, #291, #67, .T. ) ;
#141 = DIRECTION ( 'NONE',  ( -0.000000000000000000, -1.000000000000000000, -0.000000000000000000 ) ) ;
#142 = DIRECTION ( 'NONE',  ( 2.721437331438560697E-17, -1.000000000000000000, 0.000000000000000000 ) ) ;
#143 = ORIENTED_EDGE ( 'NONE', *, *, #100, .F. ) ;
#144 = LENGTH_MEASURE_WITH_UNIT ( LENGTH_MEASURE( 0.02539999999999999897 ), #34 );
#145 = ORIENTED_EDGE ( 'NONE', *, *, #250, .T. ) ;
#146 = COLOUR_RGB ( '',0.7921568627450980005, 0.8196078431372548767, 0.9333333333333333481 ) ;
#147 = FILL_AREA_STYLE ('',( #138 ) ) ;
#148 = VERTEX_POINT ( 'NONE', #106 ) ;
#149 = DIRECTION ( 'NONE',  ( 1.000000000000000000, 0.000000000000000000, 0.000000000000000000 ) ) ;
#150 = ADVANCED_FACE ( 'NONE', ( #108 ), #274, .T. ) ;
#151 = CARTESIAN_POINT ( 'NONE',  ( 0.3125000000000000000, 1.250000000000000000, 3.827021247335478926E-17 ) ) ;
#152 = AXIS2_PLACEMENT_3D ( 'NONE', #3, #101, #197 ) ;
#153 = CARTESIAN_POINT ( 'NONE',  ( 1.157222054523036369E-34, 1.250000000000000000, 0.000000000000000000 ) ) ;
#154 = STYLED_ITEM ( 'NONE', ( #121 ), #105 ) ;
#155 = LENGTH_MEASURE_WITH_UNIT ( LENGTH_MEASURE( 0.02539999999999999897 ), #102 );
#156 = FILL_AREA_STYLE_COLOUR ( '', #42 ) ;
#157 = DIRECTION ( 'NONE',  ( -1.000000000000000000, 0.000000000000000000, 0.000000000000000000 ) ) ;
#158 = CLOSED_SHELL ( 'NONE', ( #23, #128, #53, #105 ) ) ;
#159 = STYLED_ITEM ( 'NONE', ( #98 ), #53 ) ;
#160 = COLOUR_RGB ( '',1.000000000000000000, 0.000000000000000000, 0.000000000000000000 ) ;
#161 =( NAMED_UNIT ( * ) PLANE_ANGLE_UNIT ( ) SI_UNIT ( $, .RADIAN. ) );
#162 = CARTESIAN_POINT ( 'NONE',  ( 0.000000000000000000, 1.250000000000000000, 0.000000000000000000 ) ) ;
#163 = EDGE_LOOP ( 'NONE', ( #232, #91, #280, #262 ) ) ;
#164 = AXIS2_PLACEMENT_3D ( 'NONE', #253, #118, #282 ) ;
#165 = SURFACE_SIDE_STYLE ('',( #58 ) ) ;
#166 = CARTESIAN_POINT ( 'NONE',  ( 0.000000000000000000, 1.250000000000000000, 0.000000000000000000 ) ) ;
#167 =( NAMED_UNIT ( * ) SI_UNIT ( $, .STERADIAN. ) SOLID_ANGLE_UNIT ( ) );
#168 = ORIENTED_EDGE ( 'NONE', *, *, #233, .T. ) ;
#169 = SURFACE_STYLE_USAGE ( .BOTH. , #237 ) ;
#170 = DIRECTION ( 'NONE',  ( -1.000000000000000000, -2.721437331438560697E-17, 0.000000000000000000 ) ) ;
#171 = LENGTH_MEASURE_WITH_UNIT ( LENGTH_MEASURE( 0.02539999999999999897 ), #286 );
#172 = CARTESIAN_POINT ( 'NONE',  ( 0.3125000000000000000, 3.500000000000000000, 3.827021247335478926E-17 ) ) ;
#173 =( LENGTH_UNIT ( ) NAMED_UNIT ( * ) SI_UNIT ( $, .METRE. ) );
#174 = CYLINDRICAL_SURFACE ( 'NONE', #296, 0.3125000000000000000 ) ;
#175 = COLOUR_RGB ( '',1.000000000000000000, 0.000000000000000000, 0.000000000000000000 ) ;
#176 =( GEOMETRIC_REPRESENTATION_CONTEXT ( 3 ) GLOBAL_UNCERTAINTY_ASSIGNED_CONTEXT ( ( #264 ) ) GLOBAL_UNIT_ASSIGNED_CONTEXT ( ( #130, #161, #60 ) ) REPRESENTATION_CONTEXT ( 'NONE', 'WORKASPACE' ) );
#177 = PRESENTATION_STYLE_ASSIGNMENT (( #95 ) ) ;
#178 = CARTESIAN_POINT ( 'NONE',  ( 3.827021247335478926E-17, 0.000000000000000000, 0.3125000000000000000 ) ) ;
#179 = CARTESIAN_POINT ( 'NONE',  ( 0.000000000000000000, 0.000000000000000000, 0.000000000000000000 ) ) ;
#180 = FILL_AREA_STYLE ('',( #224 ) ) ;
#181 = PRESENTATION_LAYER_ASSIGNMENT (  '', '', ( #159 ) ) ;
#182 = ORIENTED_EDGE ( 'NONE', *, *, #233, .F. ) ;
#183 = DIMENSIONAL_EXPONENTS ( 1.000000000000000000, 0.000000000000000000, 0.000000000000000000, 0.000000000000000000, 0.000000000000000000, 0.000000000000000000, 0.000000000000000000 ) ;
#184 = EDGE_CURVE ( 'NONE', #4, #127, #122, .T. ) ;
#185 = DIRECTION ( 'NONE',  ( 0.000000000000000000, -0.000000000000000000, 1.000000000000000000 ) ) ;
#186 = EDGE_LOOP ( 'NONE', ( #242, #290, #210, #19 ) ) ;
#187 = CARTESIAN_POINT ( 'NONE',  ( 0.000000000000000000, 1.250000000000000000, 0.000000000000000000 ) ) ;
#188 = STYLED_ITEM ( 'NONE', ( #217 ), #23 ) ;
#189 =( GEOMETRIC_REPRESENTATION_CONTEXT ( 3 ) GLOBAL_UNCERTAINTY_ASSIGNED_CONTEXT ( ( #211 ) ) GLOBAL_UNIT_ASSIGNED_CONTEXT ( ( #308, #2, #239 ) ) REPRESENTATION_CONTEXT ( 'NONE', 'WORKASPACE' ) );
#190 = FACE_OUTER_BOUND ( 'NONE', #119, .T. ) ;
#191 =( NAMED_UNIT ( * ) PLANE_ANGLE_UNIT ( ) SI_UNIT ( $, .RADIAN. ) );
#192 = PLANE ( 'NONE',  #69 ) ;
#193 = DIRECTION ( 'NONE',  ( -1.000000000000000000, 0.000000000000000000, 0.000000000000000000 ) ) ;
#194 = EDGE_LOOP ( 'NONE', ( #240, #131, #145, #50 ) ) ;
#195 = VECTOR ( 'NONE', #300, 39.37007874015748143 ) ;
#196 =( LENGTH_UNIT ( ) NAMED_UNIT ( * ) SI_UNIT ( $, .METRE. ) );
#197 = DIRECTION ( 'NONE',  ( 0.000000000000000000, 0.000000000000000000, -1.000000000000000000 ) ) ;
#198 = LENGTH_MEASURE_WITH_UNIT ( LENGTH_MEASURE( 0.02539999999999999897 ), #256 );
#199 = PRESENTATION_LAYER_ASSIGNMENT (  '', '', ( #204 ) ) ;
#200 = PLANE ( 'NONE',  #254 ) ;
#201 = FACE_OUTER_BOUND ( 'NONE', #265, .T. ) ;
#202 = DIRECTION ( 'NONE',  ( 0.000000000000000000, 0.000000000000000000, -1.000000000000000000 ) ) ;
#203 = CLOSED_SHELL ( 'NONE', ( #150, #18, #298, #275 ) ) ;
#204 = STYLED_ITEM ( 'NONE', ( #177 ), #128 ) ;
#205 = ORIENTED_EDGE ( 'NONE', *, *, #31, .F. ) ;
#206 = APPLICATION_PROTOCOL_DEFINITION ( 'draft international standard', 'automotive_design', 1998, #304 ) ;
#207 = DIRECTION ( 'NONE',  ( -2.721437331438560389E-17, 1.000000000000000000, -0.000000000000000000 ) ) ;
#208 = EDGE_LOOP ( 'NONE', ( #205, #143 ) ) ;
#209 = CIRCLE ( 'NONE', #47, 0.3125000000000000555 ) ;
#210 = ORIENTED_EDGE ( 'NONE', *, *, #51, .T. ) ;
#211 = UNCERTAINTY_MEASURE_WITH_UNIT (LENGTH_MEASURE( 1.000000000000000082E-05 ), #308, 'distance_accuracy_value', 'NONE');
#212 = CARTESIAN_POINT ( 'NONE',  ( 0.000000000000000000, 0.000000000000000000, -0.3125000000000000000 ) ) ;
#213 = LENGTH_MEASURE_WITH_UNIT ( LENGTH_MEASURE( 0.02539999999999999897 ), #257 );
#214 = AXIS2_PLACEMENT_3D ( 'NONE', #166, #134, #157 ) ;
#215 = LENGTH_MEASURE_WITH_UNIT ( LENGTH_MEASURE( 0.02539999999999999897 ), #173 );
#216 = DIRECTION ( 'NONE',  ( -2.721437331438560697E-17, 1.000000000000000000, 0.000000000000000000 ) ) ;
#217 = PRESENTATION_STYLE_ASSIGNMENT (( #22 ) ) ;
#218 = FACE_OUTER_BOUND ( 'NONE', #186, .T. ) ;
#219 = PRESENTATION_LAYER_ASSIGNMENT (  '', '', ( #188 ) ) ;
#220 = DIRECTION ( 'NONE',  ( -0.000000000000000000, -1.000000000000000000, -0.000000000000000000 ) ) ;
#221 = EDGE_CURVE ( 'NONE', #303, #114, #277, .T. ) ;
#222 = LINE ( 'NONE', #178, #195 ) ;
#223 = FILL_AREA_STYLE_COLOUR ( '', #97 ) ;
#224 = FILL_AREA_STYLE_COLOUR ( '', #146 ) ;
#225 = LINE ( 'NONE', #103, #270 ) ;
#226 = AXIS2_PLACEMENT_3D ( 'NONE', #153, #216, #170 ) ;
#227 = STYLED_ITEM ( 'NONE', ( #73 ), #72 ) ;
#228 = DIRECTION ( 'NONE',  ( -1.000000000000000000, 0.000000000000000000, 0.000000000000000000 ) ) ;
#229 = DIRECTION ( 'NONE',  ( 0.000000000000000000, -1.000000000000000000, -0.000000000000000000 ) ) ;
#230 = DIRECTION ( 'NONE',  ( 0.000000000000000000, 0.000000000000000000, -1.000000000000000000 ) ) ;
#231 = PRESENTATION_LAYER_ASSIGNMENT (  '', '', ( #263 ) ) ;
#232 = ORIENTED_EDGE ( 'NONE', *, *, #31, .T. ) ;
#233 = EDGE_CURVE ( 'NONE', #127, #4, #36, .T. ) ;
#234 = DIRECTION ( 'NONE',  ( -1.000000000000000000, 0.000000000000000000, 0.000000000000000000 ) ) ;
#235 = CARTESIAN_POINT ( 'NONE',  ( -6.123233995736759873E-17, 3.500000000000000000, 0.000000000000000000 ) ) ;
#236 =( NAMED_UNIT ( * ) PLANE_ANGLE_UNIT ( ) SI_UNIT ( $, .RADIAN. ) );
#237 = SURFACE_SIDE_STYLE ('',( #28 ) ) ;
#238 = MECHANICAL_DESIGN_GEOMETRIC_PRESENTATION_REPRESENTATION (  '', ( #227 ), #35 ) ;
#239 =( NAMED_UNIT ( * ) SI_UNIT ( $, .STERADIAN. ) SOLID_ANGLE_UNIT ( ) );
#240 = ORIENTED_EDGE ( 'NONE', *, *, #49, .F. ) ;
#241 = CYLINDRICAL_SURFACE ( 'NONE', #152, 0.3125000000000000000 ) ;
#242 = ORIENTED_EDGE ( 'NONE', *, *, #140, .F. ) ;
#243 = VECTOR ( 'NONE', #26, 39.37007874015748143 ) ;
#244 = FILL_AREA_STYLE ('',( #260 ) ) ;
#245 = DIRECTION ( 'NONE',  ( -2.721437331438560389E-17, 1.000000000000000000, -0.000000000000000000 ) ) ;
#246 = SURFACE_STYLE_FILL_AREA ( #71 ) ;
#247 = AXIS2_PLACEMENT_3D ( 'NONE', #249, #245, #273 ) ;
#248 = AXIS2_PLACEMENT_3D ( 'NONE', #62, #39, #96 ) ;
#249 = CARTESIAN_POINT ( 'NONE',  ( 0.000000000000000000, 1.250000000000000000, 0.000000000000000000 ) ) ;
#250 = EDGE_CURVE ( 'NONE', #303, #127, #82, .T. ) ;
#251 = CARTESIAN_POINT ( 'NONE',  ( -6.123233995736759873E-17, 3.500000000000000000, 0.000000000000000000 ) ) ;
#252 = CARTESIAN_POINT ( 'NONE',  ( 0.000000000000000000, 0.000000000000000000, 0.000000000000000000 ) ) ;
#253 = CARTESIAN_POINT ( 'NONE',  ( 0.000000000000000000, 1.250000000000000000, 0.000000000000000000 ) ) ;
#254 = AXIS2_PLACEMENT_3D ( 'NONE', #252, #229, #11 ) ;
#255 = ORIENTED_EDGE ( 'NONE', *, *, #77, .F. ) ;
#256 =( LENGTH_UNIT ( ) NAMED_UNIT ( * ) SI_UNIT ( $, .METRE. ) );
#257 =( LENGTH_UNIT ( ) NAMED_UNIT ( * ) SI_UNIT ( $, .METRE. ) );
#258 = CIRCLE ( 'NONE', #164, 0.3125000000000000000 ) ;
#259 = PLANE ( 'NONE',  #226 ) ;
#260 = FILL_AREA_STYLE_COLOUR ( '', #160 ) ;
#261 = FACE_OUTER_BOUND ( 'NONE', #194, .T. ) ;
#262 = ORIENTED_EDGE ( 'NONE', *, *, #51, .F. ) ;
#263 = STYLED_ITEM ( 'NONE', ( #85 ), #65 ) ;
#264 = UNCERTAINTY_MEASURE_WITH_UNIT (LENGTH_MEASURE( 1.000000000000000082E-05 ), #130, 'distance_accuracy_value', 'NONE');
#265 = EDGE_LOOP ( 'NONE', ( #283, #44 ) ) ;
#266 = SURFACE_STYLE_FILL_AREA ( #7 ) ;
#267 =( NAMED_UNIT ( * ) PLANE_ANGLE_UNIT ( ) SI_UNIT ( $, .RADIAN. ) );
#268 = UNCERTAINTY_MEASURE_WITH_UNIT (LENGTH_MEASURE( 1.000000000000000082E-05 ), #54, 'distance_accuracy_value', 'NONE');
#269 = DIRECTION ( 'NONE',  ( 0.000000000000000000, 0.000000000000000000, -1.000000000000000000 ) ) ;
#270 = VECTOR ( 'NONE', #294, 39.37007874015748143 ) ;
#271 = AXIS2_PLACEMENT_3D ( 'NONE', #13, #109, #202 ) ;
#272 = DIRECTION ( 'NONE',  ( -2.721437331438560389E-17, 1.000000000000000000, -0.000000000000000000 ) ) ;
#273 = DIRECTION ( 'NONE',  ( -1.000000000000000000, 0.000000000000000000, 0.000000000000000000 ) ) ;
#274 = CYLINDRICAL_SURFACE ( 'NONE', #292, 0.3125000000000000000 ) ;
#275 = ADVANCED_FACE ( 'NONE', ( #201 ), #301, .F. ) ;
#276 = SHAPE_DEFINITION_REPRESENTATION ( #55, #302 ) ;
#277 = CIRCLE ( 'NONE', #6, 0.3125000000000000000 ) ;
#278 = EDGE_CURVE ( 'NONE', #291, #148, #209, .T. ) ;
#279 =( CONVERSION_BASED_UNIT ( 'INCH', #144 ) LENGTH_UNIT ( ) NAMED_UNIT ( #89 ) );
#280 = ORIENTED_EDGE ( 'NONE', *, *, #284, .F. ) ;
#281 = MECHANICAL_DESIGN_GEOMETRIC_PRESENTATION_REPRESENTATION (  '', ( #263 ), #56 ) ;
#282 = DIRECTION ( 'NONE',  ( 0.000000000000000000, 0.000000000000000000, -1.000000000000000000 ) ) ;
#283 = ORIENTED_EDGE ( 'NONE', *, *, #284, .T. ) ;
#284 = EDGE_CURVE ( 'NONE', #148, #291, #309, .T. ) ;
#285 = CARTESIAN_POINT ( 'NONE',  ( -0.3125000000000000000, 1.250000000000000000, 0.000000000000000000 ) ) ;
#286 =( LENGTH_UNIT ( ) NAMED_UNIT ( * ) SI_UNIT ( $, .METRE. ) );
#287 = UNCERTAINTY_MEASURE_WITH_UNIT (LENGTH_MEASURE( 1.000000000000000082E-05 ), #279, 'distance_accuracy_value', 'NONE');
#288 = SURFACE_SIDE_STYLE ('',( #37 ) ) ;
#289 = PRODUCT_DEFINITION_FORMATION_WITH_SPECIFIED_SOURCE ( 'ANY', '', #107, .NOT_KNOWN. ) ;
#290 = ORIENTED_EDGE ( 'NONE', *, *, #100, .T. ) ;
#291 = VERTEX_POINT ( 'NONE', #172 ) ;
#292 = AXIS2_PLACEMENT_3D ( 'NONE', #251, #30, #228 ) ;
#293 = PRODUCT_RELATED_PRODUCT_CATEGORY ( 'part', '', ( #107 ) ) ;
#294 = DIRECTION ( 'NONE',  ( -2.721437331438560697E-17, 1.000000000000000000, -0.000000000000000000 ) ) ;
#295 = CARTESIAN_POINT ( 'NONE',  ( -6.123233995736759873E-17, 3.500000000000000000, 0.000000000000000000 ) ) ;
#296 = AXIS2_PLACEMENT_3D ( 'NONE', #48, #24, #269 ) ;
#297 = SURFACE_STYLE_USAGE ( .BOTH. , #104 ) ;
#298 = ADVANCED_FACE ( 'NONE', ( #218 ), #8, .T. ) ;
#299 =( NAMED_UNIT ( * ) SI_UNIT ( $, .STERADIAN. ) SOLID_ANGLE_UNIT ( ) );
#300 = DIRECTION ( 'NONE',  ( -0.000000000000000000, -1.000000000000000000, -0.000000000000000000 ) ) ;
#301 = PLANE ( 'NONE',  #21 ) ;
#302 = ADVANCED_BREP_SHAPE_REPRESENTATION ( '59850', ( #65, #72, #125 ), #176 ) ;
#303 = VERTEX_POINT ( 'NONE', #93 ) ;
#304 = APPLICATION_CONTEXT ( 'automotive_design' ) ;
#305 =( GEOMETRIC_REPRESENTATION_CONTEXT ( 3 ) GLOBAL_UNCERTAINTY_ASSIGNED_CONTEXT ( ( #287 ) ) GLOBAL_UNIT_ASSIGNED_CONTEXT ( ( #279, #110, #299 ) ) REPRESENTATION_CONTEXT ( 'NONE', 'WORKASPACE' ) );
#306 = LENGTH_MEASURE_WITH_UNIT ( LENGTH_MEASURE( 0.02539999999999999897 ), #196 );
#307 = SURFACE_SIDE_STYLE ('',( #43 ) ) ;
#308 =( CONVERSION_BASED_UNIT ( 'INCH', #306 ) LENGTH_UNIT ( ) NAMED_UNIT ( #41 ) );
#309 = CIRCLE ( 'NONE', #248, 0.3125000000000000555 ) ;
ENDSEC;
END-ISO-10303-21;
