ISO-10303-21;
HEADER;
FILE_DESCRIPTION (( 'STEP AP214' ),
    '1' );
FILE_NAME ('30337.STEP',
    '2023-06-22T18:21:29',
    ( '' ),
    ( '' ),
    'SwSTEP 2.0',
    'SolidWorks 2023',
    '' );
FILE_SCHEMA (( 'AUTOMOTIVE_DESIGN' ));
ENDSEC;

DATA;
#1 = FILL_AREA_STYLE_COLOUR ( '', #238 ) ;
#2 = APPLICATION_CONTEXT ( 'automotive_design' ) ;
#3 = AXIS2_PLACEMENT_3D ( 'NONE', #207, #206, #75 ) ;
#4 = SURFACE_STYLE_USAGE ( .BOTH. , #27 ) ;
#5 = CARTESIAN_POINT ( 'NONE',  ( 0.000000000000000000, 0.000000000000000000, 0.000000000000000000 ) ) ;
#6 = DIRECTION ( 'NONE',  ( -6.123233995736769734E-17, 1.000000000000000000, -0.000000000000000000 ) ) ;
#7 = STYLED_ITEM ( 'NONE', ( #307 ), #94 ) ;
#8 = VERTEX_POINT ( 'NONE', #61 ) ;
#9 = VERTEX_POINT ( 'NONE', #104 ) ;
#10 = LINE ( 'NONE', #111, #52 ) ;
#11 = LINE ( 'NONE', #235, #98 ) ;
#12 = DIRECTION ( 'NONE',  ( -0.000000000000000000, -1.000000000000000000, -0.000000000000000000 ) ) ;
#13 = MECHANICAL_DESIGN_GEOMETRIC_PRESENTATION_REPRESENTATION (  '', ( #241 ), #119 ) ;
#14 = ORIENTED_EDGE ( 'NONE', *, *, #184, .T. ) ;
#15 =( NAMED_UNIT ( * ) SI_UNIT ( $, .STERADIAN. ) SOLID_ANGLE_UNIT ( ) );
#16 = EDGE_LOOP ( 'NONE', ( #93, #189, #25, #54 ) ) ;
#17 = CARTESIAN_POINT ( 'NONE',  ( 0.000000000000000000, 1.000000000000000000, -0.1875000000000000278 ) ) ;
#18 = CARTESIAN_POINT ( 'NONE',  ( 0.000000000000000000, 0.000000000000000000, 0.000000000000000000 ) ) ;
#19 = SURFACE_STYLE_FILL_AREA ( #231 ) ;
#20 = AXIS2_PLACEMENT_3D ( 'NONE', #226, #110, #297 ) ;
#21 = FACE_OUTER_BOUND ( 'NONE', #194, .T. ) ;
#22 = AXIS2_PLACEMENT_3D ( 'NONE', #269, #6, #99 ) ;
#23 = LENGTH_MEASURE_WITH_UNIT ( LENGTH_MEASURE( 0.02539999999999999897 ), #232 );
#24 = DIRECTION ( 'NONE',  ( 0.000000000000000000, -0.000000000000000000, 1.000000000000000000 ) ) ;
#25 = ORIENTED_EDGE ( 'NONE', *, *, #76, .F. ) ;
#26 = EDGE_CURVE ( 'NONE', #9, #8, #254, .T. ) ;
#27 = SURFACE_SIDE_STYLE ('',( #264 ) ) ;
#28 =( GEOMETRIC_REPRESENTATION_CONTEXT ( 3 ) GLOBAL_UNCERTAINTY_ASSIGNED_CONTEXT ( ( #71 ) ) GLOBAL_UNIT_ASSIGNED_CONTEXT ( ( #134, #183, #153 ) ) REPRESENTATION_CONTEXT ( 'NONE', 'WORKASPACE' ) );
#29 = DIRECTION ( 'NONE',  ( -0.000000000000000000, -1.000000000000000000, -0.000000000000000000 ) ) ;
#30 =( GEOMETRIC_REPRESENTATION_CONTEXT ( 3 ) GLOBAL_UNCERTAINTY_ASSIGNED_CONTEXT ( ( #306 ) ) GLOBAL_UNIT_ASSIGNED_CONTEXT ( ( #100, #78, #85 ) ) REPRESENTATION_CONTEXT ( 'NONE', 'WORKASPACE' ) );
#31 = DIRECTION ( 'NONE',  ( -6.123233995736769734E-17, 1.000000000000000000, -0.000000000000000000 ) ) ;
#32 = FACE_OUTER_BOUND ( 'NONE', #132, .T. ) ;
#33 = SURFACE_STYLE_USAGE ( .BOTH. , #249 ) ;
#34 = DIRECTION ( 'NONE',  ( 0.000000000000000000, 0.000000000000000000, 1.000000000000000000 ) ) ;
#35 = DIRECTION ( 'NONE',  ( 0.000000000000000000, 0.000000000000000000, -1.000000000000000000 ) ) ;
#36 = ORIENTED_EDGE ( 'NONE', *, *, #218, .F. ) ;
#37 =( NAMED_UNIT ( * ) PLANE_ANGLE_UNIT ( ) SI_UNIT ( $, .RADIAN. ) );
#38 = EDGE_CURVE ( 'NONE', #303, #256, #112, .T. ) ;
#39 = PRESENTATION_LAYER_ASSIGNMENT (  '', '', ( #186 ) ) ;
#40 = CARTESIAN_POINT ( 'NONE',  ( 3.032960542342103792E-32, 1.000000000000000000, 0.000000000000000000 ) ) ;
#41 =( GEOMETRIC_REPRESENTATION_CONTEXT ( 3 ) GLOBAL_UNCERTAINTY_ASSIGNED_CONTEXT ( ( #49 ) ) GLOBAL_UNIT_ASSIGNED_CONTEXT ( ( #89, #37, #15 ) ) REPRESENTATION_CONTEXT ( 'NONE', 'WORKASPACE' ) );
#42 = UNCERTAINTY_MEASURE_WITH_UNIT (LENGTH_MEASURE( 1.000000000000000082E-05 ), #287, 'distance_accuracy_value', 'NONE');
#43 = CARTESIAN_POINT ( 'NONE',  ( 0.000000000000000000, 1.000000000000000000, 0.000000000000000000 ) ) ;
#44 = FILL_AREA_STYLE_COLOUR ( '', #175 ) ;
#45 = EDGE_CURVE ( 'NONE', #8, #9, #188, .T. ) ;
#46 = FACE_OUTER_BOUND ( 'NONE', #16, .T. ) ;
#47 = MECHANICAL_DESIGN_GEOMETRIC_PRESENTATION_REPRESENTATION (  '', ( #7 ), #181 ) ;
#48 = CIRCLE ( 'NONE', #209, 0.1875000000000000278 ) ;
#49 = UNCERTAINTY_MEASURE_WITH_UNIT (LENGTH_MEASURE( 1.000000000000000082E-05 ), #89, 'distance_accuracy_value', 'NONE');
#50 = LENGTH_MEASURE_WITH_UNIT ( LENGTH_MEASURE( 0.02539999999999999897 ), #200 );
#51 = APPLICATION_CONTEXT ( 'automotive_design' ) ;
#52 = VECTOR ( 'NONE', #224, 39.37007874015748143 ) ;
#53 =( LENGTH_UNIT ( ) NAMED_UNIT ( * ) SI_UNIT ( $, .METRE. ) );
#54 = ORIENTED_EDGE ( 'NONE', *, *, #184, .F. ) ;
#55 = ADVANCED_FACE ( 'NONE', ( #152 ), #149, .T. ) ;
#56 = PRODUCT_DEFINITION_SHAPE ( 'NONE', 'NONE',  #120 ) ;
#57 = CIRCLE ( 'NONE', #193, 0.1875000000000000278 ) ;
#58 = ORIENTED_EDGE ( 'NONE', *, *, #26, .F. ) ;
#59 = AXIS2_PLACEMENT_3D ( 'NONE', #107, #230, #201 ) ;
#60 = DIMENSIONAL_EXPONENTS ( 1.000000000000000000, 0.000000000000000000, 0.000000000000000000, 0.000000000000000000, 0.000000000000000000, 0.000000000000000000, 0.000000000000000000 ) ;
#61 = CARTESIAN_POINT ( 'NONE',  ( -0.1875000000000000278, 1.000000000000000000, 0.000000000000000000 ) ) ;
#62 =( LENGTH_UNIT ( ) NAMED_UNIT ( * ) SI_UNIT ( $, .METRE. ) );
#63 = ORIENTED_EDGE ( 'NONE', *, *, #117, .F. ) ;
#64 = PRODUCT_RELATED_PRODUCT_CATEGORY ( 'part', '', ( #260 ) ) ;
#65 = PRODUCT_CONTEXT ( 'NONE', #2, 'mechanical' ) ;
#66 = PLANE ( 'NONE',  #80 ) ;
#67 = COLOUR_RGB ( '',1.000000000000000000, 0.000000000000000000, 0.000000000000000000 ) ;
#68 = CIRCLE ( 'NONE', #273, 0.1875000000000000278 ) ;
#69 = FILL_AREA_STYLE_COLOUR ( '', #102 ) ;
#70 = SURFACE_SIDE_STYLE ('',( #277 ) ) ;
#71 = UNCERTAINTY_MEASURE_WITH_UNIT (LENGTH_MEASURE( 1.000000000000000082E-05 ), #134, 'distance_accuracy_value', 'NONE');
#72 = CYLINDRICAL_SURFACE ( 'NONE', #3, 0.1875000000000000833 ) ;
#73 = AXIS2_PLACEMENT_3D ( 'NONE', #248, #182, #35 ) ;
#74 = SURFACE_STYLE_FILL_AREA ( #135 ) ;
#75 = DIRECTION ( 'NONE',  ( -1.000000000000000000, 0.000000000000000000, 0.000000000000000000 ) ) ;
#76 = EDGE_CURVE ( 'NONE', #237, #125, #57, .T. ) ;
#77 =( LENGTH_UNIT ( ) NAMED_UNIT ( * ) SI_UNIT ( $, .METRE. ) );
#78 =( NAMED_UNIT ( * ) PLANE_ANGLE_UNIT ( ) SI_UNIT ( $, .RADIAN. ) );
#79 = CLOSED_SHELL ( 'NONE', ( #94, #81, #263, #240 ) ) ;
#80 = AXIS2_PLACEMENT_3D ( 'NONE', #43, #96, #24 ) ;
#81 = ADVANCED_FACE ( 'NONE', ( #197 ), #66, .T. ) ;
#82 = EDGE_LOOP ( 'NONE', ( #173, #147, #154, #36 ) ) ;
#83 = FILL_AREA_STYLE_COLOUR ( '', #67 ) ;
#84 = AXIS2_PLACEMENT_3D ( 'NONE', #114, #90, #105 ) ;
#85 =( NAMED_UNIT ( * ) SI_UNIT ( $, .STERADIAN. ) SOLID_ANGLE_UNIT ( ) );
#86 = ADVANCED_FACE ( 'NONE', ( #140 ), #72, .T. ) ;
#87 = EDGE_LOOP ( 'NONE', ( #253, #265 ) ) ;
#88 = CARTESIAN_POINT ( 'NONE',  ( 3.515061990613733472E-34, 1.000000000000000000, 0.000000000000000000 ) ) ;
#89 =( CONVERSION_BASED_UNIT ( 'INCH', #139 ) LENGTH_UNIT ( ) NAMED_UNIT ( #244 ) );
#90 = DIRECTION ( 'NONE',  ( 6.123233995736769734E-17, -1.000000000000000000, 0.000000000000000000 ) ) ;
#91 = ORIENTED_EDGE ( 'NONE', *, *, #45, .F. ) ;
#92 = SHAPE_DEFINITION_REPRESENTATION ( #56, #268 ) ;
#93 = ORIENTED_EDGE ( 'NONE', *, *, #117, .T. ) ;
#94 = ADVANCED_FACE ( 'NONE', ( #46 ), #309, .T. ) ;
#95 =( NAMED_UNIT ( * ) SI_UNIT ( $, .STERADIAN. ) SOLID_ANGLE_UNIT ( ) );
#96 = DIRECTION ( 'NONE',  ( 0.000000000000000000, 1.000000000000000000, 0.000000000000000000 ) ) ;
#97 = AXIS2_PLACEMENT_3D ( 'NONE', #108, #31, #301 ) ;
#98 = VECTOR ( 'NONE', #171, 39.37007874015748143 ) ;
#99 = DIRECTION ( 'NONE',  ( -1.000000000000000000, 0.000000000000000000, 0.000000000000000000 ) ) ;
#100 =( CONVERSION_BASED_UNIT ( 'INCH', #123 ) LENGTH_UNIT ( ) NAMED_UNIT ( #242 ) );
#101 = EDGE_LOOP ( 'NONE', ( #130, #205, #14, #157 ) ) ;
#102 = COLOUR_RGB ( '',1.000000000000000000, 0.000000000000000000, 0.000000000000000000 ) ;
#103 = ORIENTED_EDGE ( 'NONE', *, *, #218, .T. ) ;
#104 = CARTESIAN_POINT ( 'NONE',  ( 0.1875000000000000278, 1.000000000000000000, 2.296212748401288650E-17 ) ) ;
#105 = DIRECTION ( 'NONE',  ( 1.000000000000000000, 6.123233995736769734E-17, 0.000000000000000000 ) ) ;
#106 = CARTESIAN_POINT ( 'NONE',  ( 0.000000000000000000, 0.000000000000000000, -0.1875000000000000278 ) ) ;
#107 = CARTESIAN_POINT ( 'NONE',  ( 0.000000000000000000, 1.000000000000000000, 0.000000000000000000 ) ) ;
#108 = CARTESIAN_POINT ( 'NONE',  ( -1.224646799147353700E-16, 3.000000000000000444, 0.000000000000000000 ) ) ;
#109 = DIRECTION ( 'NONE',  ( 1.000000000000000000, 0.000000000000000000, 0.000000000000000000 ) ) ;
#110 = DIRECTION ( 'NONE',  ( -6.123233995736769734E-17, 1.000000000000000000, -0.000000000000000000 ) ) ;
#111 = CARTESIAN_POINT ( 'NONE',  ( -0.1875000000000002220, 3.000000000000000444, 0.000000000000000000 ) ) ;
#112 = CIRCLE ( 'NONE', #20, 0.1875000000000001388 ) ;
#113 = UNCERTAINTY_MEASURE_WITH_UNIT (LENGTH_MEASURE( 1.000000000000000082E-05 ), #220, 'distance_accuracy_value', 'NONE');
#114 = CARTESIAN_POINT ( 'NONE',  ( 0.1875000000000000278, 3.000000000000000444, 0.000000000000000000 ) ) ;
#115 = AXIS2_PLACEMENT_3D ( 'NONE', #222, #298, #304 ) ;
#116 =( NAMED_UNIT ( * ) PLANE_ANGLE_UNIT ( ) SI_UNIT ( $, .RADIAN. ) );
#117 = EDGE_CURVE ( 'NONE', #179, #202, #68, .T. ) ;
#118 = AXIS2_PLACEMENT_3D ( 'NONE', #196, #294, #247 ) ;
#119 =( GEOMETRIC_REPRESENTATION_CONTEXT ( 3 ) GLOBAL_UNCERTAINTY_ASSIGNED_CONTEXT ( ( #286 ) ) GLOBAL_UNIT_ASSIGNED_CONTEXT ( ( #122, #291, #266 ) ) REPRESENTATION_CONTEXT ( 'NONE', 'WORKASPACE' ) );
#120 = PRODUCT_DEFINITION ( 'UNKNOWN', '', #170, #236 ) ;
#121 = DIRECTION ( 'NONE',  ( -6.123233995736769734E-17, 1.000000000000000000, -0.000000000000000000 ) ) ;
#122 =( CONVERSION_BASED_UNIT ( 'INCH', #213 ) LENGTH_UNIT ( ) NAMED_UNIT ( #192 ) );
#123 = LENGTH_MEASURE_WITH_UNIT ( LENGTH_MEASURE( 0.02539999999999999897 ), #77 );
#124 =( GEOMETRIC_REPRESENTATION_CONTEXT ( 3 ) GLOBAL_UNCERTAINTY_ASSIGNED_CONTEXT ( ( #113 ) ) GLOBAL_UNIT_ASSIGNED_CONTEXT ( ( #220, #158, #138 ) ) REPRESENTATION_CONTEXT ( 'NONE', 'WORKASPACE' ) );
#125 = VERTEX_POINT ( 'NONE', #168 ) ;
#126 = VECTOR ( 'NONE', #121, 39.37007874015748143 ) ;
#127 = DIRECTION ( 'NONE',  ( -0.000000000000000000, -1.000000000000000000, -0.000000000000000000 ) ) ;
#128 = EDGE_CURVE ( 'NONE', #202, #125, #11, .T. ) ;
#129 = DIRECTION ( 'NONE',  ( -1.000000000000000000, -6.123233995736769734E-17, 0.000000000000000000 ) ) ;
#130 = ORIENTED_EDGE ( 'NONE', *, *, #128, .F. ) ;
#131 = DIRECTION ( 'NONE',  ( -0.000000000000000000, -1.000000000000000000, -0.000000000000000000 ) ) ;
#132 = EDGE_LOOP ( 'NONE', ( #91, #58 ) ) ;
#133 = CIRCLE ( 'NONE', #22, 0.1875000000000001388 ) ;
#134 =( CONVERSION_BASED_UNIT ( 'INCH', #142 ) LENGTH_UNIT ( ) NAMED_UNIT ( #215 ) );
#135 = FILL_AREA_STYLE ('',( #44 ) ) ;
#136 = UNCERTAINTY_MEASURE_WITH_UNIT (LENGTH_MEASURE( 1.000000000000000082E-05 ), #185, 'distance_accuracy_value', 'NONE');
#137 = ORIENTED_EDGE ( 'NONE', *, *, #38, .F. ) ;
#138 =( NAMED_UNIT ( * ) SI_UNIT ( $, .STERADIAN. ) SOLID_ANGLE_UNIT ( ) );
#139 = LENGTH_MEASURE_WITH_UNIT ( LENGTH_MEASURE( 0.02539999999999999897 ), #229 );
#140 = FACE_OUTER_BOUND ( 'NONE', #82, .T. ) ;
#141 = CARTESIAN_POINT ( 'NONE',  ( 0.000000000000000000, 0.000000000000000000, 0.000000000000000000 ) ) ;
#142 = LENGTH_MEASURE_WITH_UNIT ( LENGTH_MEASURE( 0.02539999999999999897 ), #62 );
#143 = STYLED_ITEM ( 'NONE', ( #155 ), #172 ) ;
#144 = SURFACE_STYLE_USAGE ( .BOTH. , #163 ) ;
#145 = EDGE_CURVE ( 'NONE', #256, #303, #133, .T. ) ;
#146 = PRESENTATION_LAYER_ASSIGNMENT (  '', '', ( #241 ) ) ;
#147 = ORIENTED_EDGE ( 'NONE', *, *, #164, .T. ) ;
#148 =( LENGTH_UNIT ( ) NAMED_UNIT ( * ) SI_UNIT ( $, .METRE. ) );
#149 = CYLINDRICAL_SURFACE ( 'NONE', #97, 0.1875000000000000833 ) ;
#150 = CARTESIAN_POINT ( 'NONE',  ( 0.1875000000000000278, 3.000000000000000444, 2.296212748401288650E-17 ) ) ;
#151 = SURFACE_STYLE_USAGE ( .BOTH. , #165 ) ;
#152 = FACE_OUTER_BOUND ( 'NONE', #212, .T. ) ;
#153 =( NAMED_UNIT ( * ) SI_UNIT ( $, .STERADIAN. ) SOLID_ANGLE_UNIT ( ) );
#154 = ORIENTED_EDGE ( 'NONE', *, *, #145, .F. ) ;
#155 = PRESENTATION_STYLE_ASSIGNMENT (( #4 ) ) ;
#156 = SURFACE_STYLE_USAGE ( .BOTH. , #70 ) ;
#157 = ORIENTED_EDGE ( 'NONE', *, *, #296, .F. ) ;
#158 =( NAMED_UNIT ( * ) PLANE_ANGLE_UNIT ( ) SI_UNIT ( $, .RADIAN. ) );
#159 = MECHANICAL_DESIGN_GEOMETRIC_PRESENTATION_REPRESENTATION (  '', ( #186 ), #30 ) ;
#160 = PLANE ( 'NONE',  #84 ) ;
#161 =( NAMED_UNIT ( * ) PLANE_ANGLE_UNIT ( ) SI_UNIT ( $, .RADIAN. ) );
#162 = FILL_AREA_STYLE_COLOUR ( '', #293 ) ;
#163 = SURFACE_SIDE_STYLE ('',( #19 ) ) ;
#164 = EDGE_CURVE ( 'NONE', #9, #303, #191, .T. ) ;
#165 = SURFACE_SIDE_STYLE ('',( #74 ) ) ;
#166 =( NAMED_UNIT ( * ) SI_UNIT ( $, .STERADIAN. ) SOLID_ANGLE_UNIT ( ) );
#167 = CLOSED_SHELL ( 'NONE', ( #86, #195, #55, #257 ) ) ;
#168 = CARTESIAN_POINT ( 'NONE',  ( 2.296212748401287726E-17, 0.000000000000000000, 0.1875000000000000278 ) ) ;
#169 = VECTOR ( 'NONE', #131, 39.37007874015748143 ) ;
#170 = PRODUCT_DEFINITION_FORMATION_WITH_SPECIFIED_SOURCE ( 'ANY', '', #260, .NOT_KNOWN. ) ;
#171 = DIRECTION ( 'NONE',  ( -0.000000000000000000, -1.000000000000000000, -0.000000000000000000 ) ) ;
#172 = MANIFOLD_SOLID_BREP ( 'Revolve - Tool Body (Straight Shanked)', #167 ) ;
#173 = ORIENTED_EDGE ( 'NONE', *, *, #45, .T. ) ;
#174 = CARTESIAN_POINT ( 'NONE',  ( 0.000000000000000000, 0.000000000000000000, -0.1875000000000000278 ) ) ;
#175 = COLOUR_RGB ( '',1.000000000000000000, 0.000000000000000000, 0.000000000000000000 ) ;
#176 = FILL_AREA_STYLE ('',( #83 ) ) ;
#177 = SURFACE_STYLE_USAGE ( .BOTH. , #225 ) ;
#178 = FILL_AREA_STYLE ('',( #162 ) ) ;
#179 = VERTEX_POINT ( 'NONE', #17 ) ;
#180 = ORIENTED_EDGE ( 'NONE', *, *, #145, .T. ) ;
#181 =( GEOMETRIC_REPRESENTATION_CONTEXT ( 3 ) GLOBAL_UNCERTAINTY_ASSIGNED_CONTEXT ( ( #42 ) ) GLOBAL_UNIT_ASSIGNED_CONTEXT ( ( #287, #116, #166 ) ) REPRESENTATION_CONTEXT ( 'NONE', 'WORKASPACE' ) );
#182 = DIRECTION ( 'NONE',  ( -0.000000000000000000, -1.000000000000000000, -0.000000000000000000 ) ) ;
#183 =( NAMED_UNIT ( * ) PLANE_ANGLE_UNIT ( ) SI_UNIT ( $, .RADIAN. ) );
#184 = EDGE_CURVE ( 'NONE', #179, #237, #211, .T. ) ;
#185 =( CONVERSION_BASED_UNIT ( 'INCH', #50 ) LENGTH_UNIT ( ) NAMED_UNIT ( #60 ) );
#186 = STYLED_ITEM ( 'NONE', ( #187 ), #240 ) ;
#187 = PRESENTATION_STYLE_ASSIGNMENT (( #151 ) ) ;
#188 = CIRCLE ( 'NONE', #292, 0.1875000000000000278 ) ;
#189 = ORIENTED_EDGE ( 'NONE', *, *, #128, .T. ) ;
#190 = PRESENTATION_LAYER_ASSIGNMENT (  '', '', ( #143 ) ) ;
#191 = LINE ( 'NONE', #239, #126 ) ;
#192 = DIMENSIONAL_EXPONENTS ( 1.000000000000000000, 0.000000000000000000, 0.000000000000000000, 0.000000000000000000, 0.000000000000000000, 0.000000000000000000, 0.000000000000000000 ) ;
#193 = AXIS2_PLACEMENT_3D ( 'NONE', #276, #127, #279 ) ;
#194 = EDGE_LOOP ( 'NONE', ( #180, #227 ) ) ;
#195 = ADVANCED_FACE ( 'NONE', ( #32 ), #250, .F. ) ;
#196 = CARTESIAN_POINT ( 'NONE',  ( 3.032960542342103792E-32, 1.000000000000000000, 0.000000000000000000 ) ) ;
#197 = FACE_OUTER_BOUND ( 'NONE', #245, .T. ) ;
#198 = CARTESIAN_POINT ( 'NONE',  ( -0.1875000000000002776, 3.000000000000000444, 0.000000000000000000 ) ) ;
#199 = COLOUR_RGB ( '',1.000000000000000000, 0.000000000000000000, 0.000000000000000000 ) ;
#200 =( LENGTH_UNIT ( ) NAMED_UNIT ( * ) SI_UNIT ( $, .METRE. ) );
#201 = DIRECTION ( 'NONE',  ( 0.000000000000000000, 0.000000000000000000, -1.000000000000000000 ) ) ;
#202 = VERTEX_POINT ( 'NONE', #203 ) ;
#203 = CARTESIAN_POINT ( 'NONE',  ( 2.296212748401287726E-17, 1.000000000000000000, 0.1875000000000000278 ) ) ;
#204 = FILL_AREA_STYLE_COLOUR ( '', #199 ) ;
#205 = ORIENTED_EDGE ( 'NONE', *, *, #282, .T. ) ;
#206 = DIRECTION ( 'NONE',  ( -6.123233995736769734E-17, 1.000000000000000000, -0.000000000000000000 ) ) ;
#207 = CARTESIAN_POINT ( 'NONE',  ( -1.224646799147353700E-16, 3.000000000000000444, 0.000000000000000000 ) ) ;
#208 = MECHANICAL_DESIGN_GEOMETRIC_PRESENTATION_REPRESENTATION (  '', ( #143 ), #124 ) ;
#209 = AXIS2_PLACEMENT_3D ( 'NONE', #18, #281, #251 ) ;
#210 = CARTESIAN_POINT ( 'NONE',  ( 0.000000000000000000, 1.000000000000000000, 0.000000000000000000 ) ) ;
#211 = LINE ( 'NONE', #174, #169 ) ;
#212 = EDGE_LOOP ( 'NONE', ( #299, #243, #103, #137 ) ) ;
#213 = LENGTH_MEASURE_WITH_UNIT ( LENGTH_MEASURE( 0.02539999999999999897 ), #53 );
#214 = DIMENSIONAL_EXPONENTS ( 1.000000000000000000, 0.000000000000000000, 0.000000000000000000, 0.000000000000000000, 0.000000000000000000, 0.000000000000000000, 0.000000000000000000 ) ;
#215 = DIMENSIONAL_EXPONENTS ( 1.000000000000000000, 0.000000000000000000, 0.000000000000000000, 0.000000000000000000, 0.000000000000000000, 0.000000000000000000, 0.000000000000000000 ) ;
#216 = PRESENTATION_STYLE_ASSIGNMENT (( #156 ) ) ;
#217 = PRESENTATION_LAYER_ASSIGNMENT (  '', '', ( #7 ) ) ;
#218 = EDGE_CURVE ( 'NONE', #8, #256, #10, .T. ) ;
#219 = ORIENTED_EDGE ( 'NONE', *, *, #282, .F. ) ;
#220 =( CONVERSION_BASED_UNIT ( 'INCH', #272 ) LENGTH_UNIT ( ) NAMED_UNIT ( #214 ) );
#221 = DIRECTION ( 'NONE',  ( -6.123233995736769734E-17, 1.000000000000000000, -0.000000000000000000 ) ) ;
#222 = CARTESIAN_POINT ( 'NONE',  ( 0.000000000000000000, 0.000000000000000000, 0.000000000000000000 ) ) ;
#223 = PRESENTATION_STYLE_ASSIGNMENT (( #33 ) ) ;
#224 = DIRECTION ( 'NONE',  ( -6.123233995736769734E-17, 1.000000000000000000, -0.000000000000000000 ) ) ;
#225 = SURFACE_SIDE_STYLE ('',( #300 ) ) ;
#226 = CARTESIAN_POINT ( 'NONE',  ( -1.224646799147353700E-16, 3.000000000000000444, 0.000000000000000000 ) ) ;
#227 = ORIENTED_EDGE ( 'NONE', *, *, #38, .T. ) ;
#228 = DIRECTION ( 'NONE',  ( -6.123233995736769734E-17, 1.000000000000000000, 0.000000000000000000 ) ) ;
#229 =( LENGTH_UNIT ( ) NAMED_UNIT ( * ) SI_UNIT ( $, .METRE. ) );
#230 = DIRECTION ( 'NONE',  ( -0.000000000000000000, -1.000000000000000000, -0.000000000000000000 ) ) ;
#231 = FILL_AREA_STYLE ('',( #69 ) ) ;
#232 =( LENGTH_UNIT ( ) NAMED_UNIT ( * ) SI_UNIT ( $, .METRE. ) );
#233 = AXIS2_PLACEMENT_3D ( 'NONE', #5, #29, #258 ) ;
#234 = CIRCLE ( 'NONE', #59, 0.1875000000000000278 ) ;
#235 = CARTESIAN_POINT ( 'NONE',  ( 2.296212748401287726E-17, 0.000000000000000000, 0.1875000000000000278 ) ) ;
#236 = PRODUCT_DEFINITION_CONTEXT ( 'detailed design', #51, 'design' ) ;
#237 = VERTEX_POINT ( 'NONE', #106 ) ;
#238 = COLOUR_RGB ( '',0.7921568627450980005, 0.8196078431372548767, 0.9333333333333333481 ) ;
#239 = CARTESIAN_POINT ( 'NONE',  ( 0.1874999999999999445, 3.000000000000000444, 2.296212748401288342E-17 ) ) ;
#240 = ADVANCED_FACE ( 'NONE', ( #302 ), #262, .T. ) ;
#241 = STYLED_ITEM ( 'NONE', ( #216 ), #284 ) ;
#242 = DIMENSIONAL_EXPONENTS ( 1.000000000000000000, 0.000000000000000000, 0.000000000000000000, 0.000000000000000000, 0.000000000000000000, 0.000000000000000000, 0.000000000000000000 ) ;
#243 = ORIENTED_EDGE ( 'NONE', *, *, #26, .T. ) ;
#244 = DIMENSIONAL_EXPONENTS ( 1.000000000000000000, 0.000000000000000000, 0.000000000000000000, 0.000000000000000000, 0.000000000000000000, 0.000000000000000000, 0.000000000000000000 ) ;
#245 = EDGE_LOOP ( 'NONE', ( #63, #219 ) ) ;
#246 = STYLED_ITEM ( 'NONE', ( #275 ), #263 ) ;
#247 = DIRECTION ( 'NONE',  ( -1.000000000000000000, 0.000000000000000000, 0.000000000000000000 ) ) ;
#248 = CARTESIAN_POINT ( 'NONE',  ( 0.000000000000000000, 0.000000000000000000, 0.000000000000000000 ) ) ;
#249 = SURFACE_SIDE_STYLE ('',( #274 ) ) ;
#250 = PLANE ( 'NONE',  #288 ) ;
#251 = DIRECTION ( 'NONE',  ( 0.000000000000000000, 0.000000000000000000, -1.000000000000000000 ) ) ;
#252 = CYLINDRICAL_SURFACE ( 'NONE', #73, 0.1875000000000000278 ) ;
#253 = ORIENTED_EDGE ( 'NONE', *, *, #76, .T. ) ;
#254 = CIRCLE ( 'NONE', #118, 0.1875000000000000278 ) ;
#255 = PRESENTATION_LAYER_ASSIGNMENT (  '', '', ( #246 ) ) ;
#256 = VERTEX_POINT ( 'NONE', #198 ) ;
#257 = ADVANCED_FACE ( 'NONE', ( #21 ), #160, .F. ) ;
#258 = DIRECTION ( 'NONE',  ( 0.000000000000000000, 0.000000000000000000, -1.000000000000000000 ) ) ;
#259 = APPLICATION_PROTOCOL_DEFINITION ( 'draft international standard', 'automotive_design', 1998, #2 ) ;
#260 = PRODUCT ( '30337', '30337', '', ( #65 ) ) ;
#261 = PRESENTATION_LAYER_ASSIGNMENT (  '', '', ( #271 ) ) ;
#262 = PLANE ( 'NONE',  #115 ) ;
#263 = ADVANCED_FACE ( 'NONE', ( #283 ), #252, .T. ) ;
#264 = SURFACE_STYLE_FILL_AREA ( #289 ) ;
#265 = ORIENTED_EDGE ( 'NONE', *, *, #296, .T. ) ;
#266 =( NAMED_UNIT ( * ) SI_UNIT ( $, .STERADIAN. ) SOLID_ANGLE_UNIT ( ) );
#267 =( GEOMETRIC_REPRESENTATION_CONTEXT ( 3 ) GLOBAL_UNCERTAINTY_ASSIGNED_CONTEXT ( ( #136 ) ) GLOBAL_UNIT_ASSIGNED_CONTEXT ( ( #185, #161, #95 ) ) REPRESENTATION_CONTEXT ( 'NONE', 'WORKASPACE' ) );
#268 = ADVANCED_BREP_SHAPE_REPRESENTATION ( '30337', ( #284, #172, #285 ), #41 ) ;
#269 = CARTESIAN_POINT ( 'NONE',  ( -1.224646799147353700E-16, 3.000000000000000444, 0.000000000000000000 ) ) ;
#270 = DIRECTION ( 'NONE',  ( -1.000000000000000000, 0.000000000000000000, 0.000000000000000000 ) ) ;
#271 = STYLED_ITEM ( 'NONE', ( #223 ), #81 ) ;
#272 = LENGTH_MEASURE_WITH_UNIT ( LENGTH_MEASURE( 0.02539999999999999897 ), #148 );
#273 = AXIS2_PLACEMENT_3D ( 'NONE', #210, #12, #305 ) ;
#274 = SURFACE_STYLE_FILL_AREA ( #176 ) ;
#275 = PRESENTATION_STYLE_ASSIGNMENT (( #177 ) ) ;
#276 = CARTESIAN_POINT ( 'NONE',  ( 0.000000000000000000, 0.000000000000000000, 0.000000000000000000 ) ) ;
#277 = SURFACE_STYLE_FILL_AREA ( #178 ) ;
#278 = DIMENSIONAL_EXPONENTS ( 1.000000000000000000, 0.000000000000000000, 0.000000000000000000, 0.000000000000000000, 0.000000000000000000, 0.000000000000000000, 0.000000000000000000 ) ;
#279 = DIRECTION ( 'NONE',  ( 0.000000000000000000, 0.000000000000000000, -1.000000000000000000 ) ) ;
#280 = MECHANICAL_DESIGN_GEOMETRIC_PRESENTATION_REPRESENTATION (  '', ( #271 ), #267 ) ;
#281 = DIRECTION ( 'NONE',  ( -0.000000000000000000, -1.000000000000000000, -0.000000000000000000 ) ) ;
#282 = EDGE_CURVE ( 'NONE', #202, #179, #234, .T. ) ;
#283 = FACE_OUTER_BOUND ( 'NONE', #101, .T. ) ;
#284 = MANIFOLD_SOLID_BREP ( 'Revolve - Cutting Edge', #79 ) ;
#285 = AXIS2_PLACEMENT_3D ( 'NONE', #141, #34, #109 ) ;
#286 = UNCERTAINTY_MEASURE_WITH_UNIT (LENGTH_MEASURE( 1.000000000000000082E-05 ), #122, 'distance_accuracy_value', 'NONE');
#287 =( CONVERSION_BASED_UNIT ( 'INCH', #23 ) LENGTH_UNIT ( ) NAMED_UNIT ( #278 ) );
#288 = AXIS2_PLACEMENT_3D ( 'NONE', #88, #228, #129 ) ;
#289 = FILL_AREA_STYLE ('',( #1 ) ) ;
#290 = MECHANICAL_DESIGN_GEOMETRIC_PRESENTATION_REPRESENTATION (  '', ( #246 ), #28 ) ;
#291 =( NAMED_UNIT ( * ) PLANE_ANGLE_UNIT ( ) SI_UNIT ( $, .RADIAN. ) );
#292 = AXIS2_PLACEMENT_3D ( 'NONE', #40, #221, #270 ) ;
#293 = COLOUR_RGB ( '',0.7921568627450980005, 0.8196078431372548767, 0.9333333333333333481 ) ;
#294 = DIRECTION ( 'NONE',  ( -6.123233995736769734E-17, 1.000000000000000000, -0.000000000000000000 ) ) ;
#295 = APPLICATION_PROTOCOL_DEFINITION ( 'draft international standard', 'automotive_design', 1998, #51 ) ;
#296 = EDGE_CURVE ( 'NONE', #125, #237, #48, .T. ) ;
#297 = DIRECTION ( 'NONE',  ( -1.000000000000000000, 0.000000000000000000, 0.000000000000000000 ) ) ;
#298 = DIRECTION ( 'NONE',  ( 0.000000000000000000, -1.000000000000000000, -0.000000000000000000 ) ) ;
#299 = ORIENTED_EDGE ( 'NONE', *, *, #164, .F. ) ;
#300 = SURFACE_STYLE_FILL_AREA ( #308 ) ;
#301 = DIRECTION ( 'NONE',  ( -1.000000000000000000, 0.000000000000000000, 0.000000000000000000 ) ) ;
#302 = FACE_OUTER_BOUND ( 'NONE', #87, .T. ) ;
#303 = VERTEX_POINT ( 'NONE', #150 ) ;
#304 = DIRECTION ( 'NONE',  ( 0.000000000000000000, 0.000000000000000000, -1.000000000000000000 ) ) ;
#305 = DIRECTION ( 'NONE',  ( 0.000000000000000000, 0.000000000000000000, -1.000000000000000000 ) ) ;
#306 = UNCERTAINTY_MEASURE_WITH_UNIT (LENGTH_MEASURE( 1.000000000000000082E-05 ), #100, 'distance_accuracy_value', 'NONE');
#307 = PRESENTATION_STYLE_ASSIGNMENT (( #144 ) ) ;
#308 = FILL_AREA_STYLE ('',( #204 ) ) ;
#309 = CYLINDRICAL_SURFACE ( 'NONE', #233, 0.1875000000000000278 ) ;
ENDSEC;
END-ISO-10303-21;
