ISO-10303-21;
HEADER;
FILE_DESCRIPTION (( 'STEP AP214' ),
    '1' );
FILE_NAME ('Micro_GEM-062-2X.STEP',
    '2021-09-01T18:59:09',
    ( '' ),
    ( '' ),
    'SwSTEP 2.0',
    'SolidWorks 2020',
    '' );
FILE_SCHEMA (( 'AUTOMOTIVE_DESIGN' ));
ENDSEC;

DATA;
#1 = FACE_OUTER_BOUND ( 'NONE', #110, .T. ) ;
#2 = AXIS2_PLACEMENT_3D ( 'NONE', #221, #224, #153 ) ;
#3 = ORIENTED_EDGE ( 'NONE', *, *, #156, .F. ) ;
#4 = DIRECTION ( 'NONE',  ( 0.0000000000000000000, 0.0000000000000000000, 1.000000000000000000 ) ) ;
#5 = ORIENTED_EDGE ( 'NONE', *, *, #160, .F. ) ;
#6 = DIRECTION ( 'NONE',  ( 0.0000000000000000000, 0.0000000000000000000, -1.000000000000000000 ) ) ;
#7 = AXIS2_PLACEMENT_3D ( 'NONE', #25, #126, #217 ) ;
#8 = AXIS2_PLACEMENT_3D ( 'NONE', #97, #233, #20 ) ;
#9 = FACE_OUTER_BOUND ( 'NONE', #184, .T. ) ;
#10 = DIRECTION ( 'NONE',  ( 1.000000000000000000, 0.0000000000000000000, -0.0000000000000000000 ) ) ;
#11 = AXIS2_PLACEMENT_3D ( 'NONE', #129, #185, #219 ) ;
#12 = ORIENTED_EDGE ( 'NONE', *, *, #274, .F. ) ;
#13 = PLANE ( 'NONE',  #2 ) ;
#14 = EDGE_LOOP ( 'NONE', ( #273, #134, #247, #269 ) ) ;
#15 = EDGE_CURVE ( 'NONE', #43, #182, #124, .T. ) ;
#16 = DIRECTION ( 'NONE',  ( 1.224646799147353700E-16, 0.0000000000000000000, 1.000000000000000000 ) ) ;
#17 = ORIENTED_EDGE ( 'NONE', *, *, #83, .T. ) ;
#18 = CARTESIAN_POINT ( 'NONE',  ( -0.04750000000000064587, 0.0000000000000000000, 1.500000000000000222 ) ) ;
#19 = DIMENSIONAL_EXPONENTS ( 1.000000000000000000, 0.0000000000000000000, 0.0000000000000000000, 0.0000000000000000000, 0.0000000000000000000, 0.0000000000000000000, 0.0000000000000000000 ) ;
#20 = DIRECTION ( 'NONE',  ( 1.000000000000000000, 0.0000000000000000000, 0.0000000000000000000 ) ) ;
#21 = CARTESIAN_POINT ( 'NONE',  ( 0.0000000000000000000, 0.0000000000000000000, 1.500000000000000222 ) ) ;
#22 = DIRECTION ( 'NONE',  ( -0.7071067811865462405, 0.0000000000000000000, -0.7071067811865486830 ) ) ;
#23 =( GEOMETRIC_REPRESENTATION_CONTEXT ( 3 ) GLOBAL_UNCERTAINTY_ASSIGNED_CONTEXT ( ( #285 ) ) GLOBAL_UNIT_ASSIGNED_CONTEXT ( ( #131, #85, #55 ) ) REPRESENTATION_CONTEXT ( 'NONE', 'WORKASPACE' ) );
#24 = ORIENTED_EDGE ( 'NONE', *, *, #89, .T. ) ;
#25 = CARTESIAN_POINT ( 'NONE',  ( 0.0000000000000000000, 0.0000000000000000000, 1.500000000000000222 ) ) ;
#26 = CARTESIAN_POINT ( 'NONE',  ( -0.06250000000000002776, 0.0000000000000000000, 1.485000000000000764 ) ) ;
#27 = PRESENTATION_STYLE_ASSIGNMENT (( #201 ) ) ;
#28 = DIRECTION ( 'NONE',  ( -0.0000000000000000000, -0.0000000000000000000, -1.000000000000000000 ) ) ;
#29 = DIRECTION ( 'NONE',  ( -1.224646799147353700E-16, -0.0000000000000000000, -1.000000000000000000 ) ) ;
#30 = ORIENTED_EDGE ( 'NONE', *, *, #99, .T. ) ;
#31 = CARTESIAN_POINT ( 'NONE',  ( -0.06250000000000002776, 0.0000000000000000000, 1.500000000000000222 ) ) ;
#32 = AXIS2_PLACEMENT_3D ( 'NONE', #82, #265, #35 ) ;
#33 = AXIS2_PLACEMENT_3D ( 'NONE', #39, #16, #167 ) ;
#34 = VERTEX_POINT ( 'NONE', #100 ) ;
#35 = DIRECTION ( 'NONE',  ( -1.000000000000000000, 0.0000000000000000000, 1.224646799147353947E-16 ) ) ;
#36 = DIRECTION ( 'NONE',  ( -1.224646799147353700E-16, -0.0000000000000000000, -1.000000000000000000 ) ) ;
#37 = DIRECTION ( 'NONE',  ( -1.000000000000000000, 0.0000000000000000000, 1.224646799147353947E-16 ) ) ;
#38 = PRESENTATION_LAYER_ASSIGNMENT (  '', '', ( #180 ) ) ;
#39 = CARTESIAN_POINT ( 'NONE',  ( 2.302335982397025094E-17, 0.0000000000000000000, 0.1880000000000000282 ) ) ;
#40 = EDGE_CURVE ( 'NONE', #43, #278, #164, .T. ) ;
#41 = EDGE_CURVE ( 'NONE', #46, #161, #133, .T. ) ;
#42 =( LENGTH_UNIT ( ) NAMED_UNIT ( * ) SI_UNIT ( $, .METRE. ) );
#43 = VERTEX_POINT ( 'NONE', #260 ) ;
#44 = PRODUCT_RELATED_PRODUCT_CATEGORY ( 'part', '', ( #118 ) ) ;
#45 = VECTOR ( 'NONE', #36, 39.37007874015748143 ) ;
#46 = VERTEX_POINT ( 'NONE', #174 ) ;
#47 = ORIENTED_EDGE ( 'NONE', *, *, #89, .F. ) ;
#48 = ORIENTED_EDGE ( 'NONE', *, *, #241, .F. ) ;
#49 = MECHANICAL_DESIGN_GEOMETRIC_PRESENTATION_REPRESENTATION (  '', ( #180 ), #23 ) ;
#50 = CARTESIAN_POINT ( 'NONE',  ( 4.474917996329785777E-17, 0.0000000000000000000, 0.3654047844199156403 ) ) ;
#51 = CARTESIAN_POINT ( 'NONE',  ( -0.04750000000000064587, 0.0000000000000000000, 1.500000000000000222 ) ) ;
#52 = CARTESIAN_POINT ( 'NONE',  ( 2.302335982397025094E-17, 0.0000000000000000000, 0.1880000000000000282 ) ) ;
#53 = PLANE ( 'NONE',  #123 ) ;
#54 = AXIS2_PLACEMENT_3D ( 'NONE', #197, #280, #234 ) ;
#55 =( NAMED_UNIT ( * ) SI_UNIT ( $, .STERADIAN. ) SOLID_ANGLE_UNIT ( ) );
#56 = CARTESIAN_POINT ( 'NONE',  ( 0.0000000000000000000, 0.0000000000000000000, 1.485000000000000764 ) ) ;
#57 = EDGE_LOOP ( 'NONE', ( #112, #159, #205, #259 ) ) ;
#58 = LENGTH_MEASURE_WITH_UNIT ( LENGTH_MEASURE( 0.02539999999999999897 ), #245 );
#59 = CIRCLE ( 'NONE', #232, 0.04750000000000064587 ) ;
#60 =( GEOMETRIC_REPRESENTATION_CONTEXT ( 3 ) GLOBAL_UNCERTAINTY_ASSIGNED_CONTEXT ( ( #80 ) ) GLOBAL_UNIT_ASSIGNED_CONTEXT ( ( #65, #231, #251 ) ) REPRESENTATION_CONTEXT ( 'NONE', 'WORKASPACE' ) );
#61 = LENGTH_MEASURE_WITH_UNIT ( LENGTH_MEASURE( 0.02539999999999999897 ), #272 );
#62 = ORIENTED_EDGE ( 'NONE', *, *, #160, .T. ) ;
#63 = DIRECTION ( 'NONE',  ( -0.1736481776669311916, 2.126576849575783316E-17, 0.9848077530122080203 ) ) ;
#64 = ORIENTED_EDGE ( 'NONE', *, *, #41, .F. ) ;
#65 =( CONVERSION_BASED_UNIT ( 'INCH', #61 ) LENGTH_UNIT ( ) NAMED_UNIT ( #177 ) );
#66 = FILL_AREA_STYLE_COLOUR ( '', #238 ) ;
#67 = DIRECTION ( 'NONE',  ( -1.224646799147353700E-16, -0.0000000000000000000, -1.000000000000000000 ) ) ;
#68 = ADVANCED_FACE ( 'NONE', ( #150 ), #237, .T. ) ;
#69 = ADVANCED_FACE ( 'NONE', ( #1 ), #148, .T. ) ;
#70 = DIRECTION ( 'NONE',  ( 1.000000000000000000, 0.0000000000000000000, 0.0000000000000000000 ) ) ;
#71 = AXIS2_PLACEMENT_3D ( 'NONE', #214, #4, #77 ) ;
#72 = CYLINDRICAL_SURFACE ( 'NONE', #95, 0.06250000000000002776 ) ;
#73 = PRODUCT_DEFINITION_SHAPE ( 'NONE', 'NONE',  #289 ) ;
#74 = ORIENTED_EDGE ( 'NONE', *, *, #294, .F. ) ;
#75 =( NAMED_UNIT ( * ) SI_UNIT ( $, .STERADIAN. ) SOLID_ANGLE_UNIT ( ) );
#76 = ADVANCED_FACE ( 'NONE', ( #213 ), #101, .T. ) ;
#77 = DIRECTION ( 'NONE',  ( 1.000000000000000000, 0.0000000000000000000, 0.0000000000000000000 ) ) ;
#78 = DIRECTION ( 'NONE',  ( -1.224646799147353700E-16, -0.0000000000000000000, -1.000000000000000000 ) ) ;
#79 = CYLINDRICAL_SURFACE ( 'NONE', #11, 0.03121874999999999997 ) ;
#80 = UNCERTAINTY_MEASURE_WITH_UNIT (LENGTH_MEASURE( 1.000000000000000082E-05 ), #65, 'distance_accuracy_value', 'NONE');
#81 = DIRECTION ( 'NONE',  ( 1.224646799147353700E-16, 0.0000000000000000000, 1.000000000000000000 ) ) ;
#82 = CARTESIAN_POINT ( 'NONE',  ( 4.682062571497491304E-34, 0.0000000000000000000, 3.823194226088145228E-18 ) ) ;
#83 = EDGE_CURVE ( 'NONE', #278, #88, #117, .T. ) ;
#84 = ORIENTED_EDGE ( 'NONE', *, *, #274, .T. ) ;
#85 =( NAMED_UNIT ( * ) PLANE_ANGLE_UNIT ( ) SI_UNIT ( $, .RADIAN. ) );
#86 = LENGTH_MEASURE_WITH_UNIT ( LENGTH_MEASURE( 0.02539999999999999897 ), #42 );
#87 = PRESENTATION_LAYER_ASSIGNMENT (  '', '', ( #165 ) ) ;
#88 = VERTEX_POINT ( 'NONE', #26 ) ;
#89 = EDGE_CURVE ( 'NONE', #182, #88, #107, .T. ) ;
#90 = LINE ( 'NONE', #248, #255 ) ;
#91 = PRESENTATION_STYLE_ASSIGNMENT (( #299 ) ) ;
#92 = EDGE_CURVE ( 'NONE', #152, #137, #228, .T. ) ;
#93 = DIRECTION ( 'NONE',  ( 1.000000000000000000, 0.0000000000000000000, 0.0000000000000000000 ) ) ;
#94 = DIRECTION ( 'NONE',  ( 1.000000000000000000, 0.0000000000000000000, 0.0000000000000000000 ) ) ;
#95 = AXIS2_PLACEMENT_3D ( 'NONE', #171, #257, #146 ) ;
#96 = VECTOR ( 'NONE', #191, 39.37007874015748143 ) ;
#97 = CARTESIAN_POINT ( 'NONE',  ( 0.0000000000000000000, 0.0000000000000000000, 0.0000000000000000000 ) ) ;
#98 = ORIENTED_EDGE ( 'NONE', *, *, #151, .T. ) ;
#99 = EDGE_CURVE ( 'NONE', #161, #46, #287, .T. ) ;
#100 = CARTESIAN_POINT ( 'NONE',  ( 0.03121874999999999997, 3.823194226088143687E-18, 0.0000000000000000000 ) ) ;
#101 = CYLINDRICAL_SURFACE ( 'NONE', #54, 0.03121874999999999997 ) ;
#102 = ADVANCED_FACE ( 'NONE', ( #193 ), #72, .T. ) ;
#103 = DIRECTION ( 'NONE',  ( 1.000000000000000000, 0.0000000000000000000, 0.0000000000000000000 ) ) ;
#104 = ADVANCED_FACE ( 'NONE', ( #9 ), #13, .F. ) ;
#105 = DIRECTION ( 'NONE',  ( 0.0000000000000000000, 0.0000000000000000000, 1.000000000000000000 ) ) ;
#106 = LINE ( 'NONE', #244, #140 ) ;
#107 = CIRCLE ( 'NONE', #122, 0.06250000000000002776 ) ;
#108 = CARTESIAN_POINT ( 'NONE',  ( 0.06250000000000006939, 7.654042494670963708E-18, 0.3654047844199156403 ) ) ;
#109 = PRODUCT_DEFINITION_FORMATION_WITH_SPECIFIED_SOURCE ( 'ANY', '', #118, .NOT_KNOWN. ) ;
#110 = EDGE_LOOP ( 'NONE', ( #147, #5, #17, #47 ) ) ;
#111 = FILL_AREA_STYLE_COLOUR ( '', #194 ) ;
#112 = ORIENTED_EDGE ( 'NONE', *, *, #40, .F. ) ;
#113 = CARTESIAN_POINT ( 'NONE',  ( 4.682062571497491304E-34, 0.0000000000000000000, 3.823194226088145228E-18 ) ) ;
#114 = MECHANICAL_DESIGN_GEOMETRIC_PRESENTATION_REPRESENTATION (  '', ( #165 ), #271 ) ;
#115 = DIRECTION ( 'NONE',  ( -1.000000000000000000, 0.0000000000000000000, 0.0000000000000000000 ) ) ;
#116 = CIRCLE ( 'NONE', #282, 0.03121874999999999997 ) ;
#117 = LINE ( 'NONE', #51, #154 ) ;
#118 = PRODUCT ( 'Micro_GEM-062-2X', 'Micro_GEM-062-2X', '', ( #216 ) ) ;
#119 = CARTESIAN_POINT ( 'NONE',  ( 0.04750000000000064587, 5.817072295950006528E-18, 1.500000000000000222 ) ) ;
#120 = VECTOR ( 'NONE', #235, 39.37007874015748854 ) ;
#121 = APPLICATION_CONTEXT ( 'automotive_design' ) ;
#122 = AXIS2_PLACEMENT_3D ( 'NONE', #127, #218, #93 ) ;
#123 = AXIS2_PLACEMENT_3D ( 'NONE', #243, #130, #10 ) ;
#124 = LINE ( 'NONE', #119, #120 ) ;
#125 = MANIFOLD_SOLID_BREP ( 'Cut-Revolve1', #249 ) ;
#126 = DIRECTION ( 'NONE',  ( 0.0000000000000000000, 0.0000000000000000000, -1.000000000000000000 ) ) ;
#127 = CARTESIAN_POINT ( 'NONE',  ( 0.0000000000000000000, 0.0000000000000000000, 1.485000000000000764 ) ) ;
#128 = CIRCLE ( 'NONE', #298, 0.03121874999999999997 ) ;
#129 = CARTESIAN_POINT ( 'NONE',  ( 0.0000000000000000000, 0.0000000000000000000, 0.0000000000000000000 ) ) ;
#130 = DIRECTION ( 'NONE',  ( 0.0000000000000000000, 0.0000000000000000000, 1.000000000000000000 ) ) ;
#131 =( CONVERSION_BASED_UNIT ( 'INCH', #58 ) LENGTH_UNIT ( ) NAMED_UNIT ( #19 ) );
#132 = ADVANCED_FACE ( 'NONE', ( #200 ), #79, .T. ) ;
#133 = CIRCLE ( 'NONE', #250, 0.06250000000000002776 ) ;
#134 = ORIENTED_EDGE ( 'NONE', *, *, #92, .T. ) ;
#135 = LINE ( 'NONE', #31, #198 ) ;
#136 = EDGE_CURVE ( 'NONE', #88, #182, #202, .T. ) ;
#137 = VERTEX_POINT ( 'NONE', #284 ) ;
#138 = CARTESIAN_POINT ( 'NONE',  ( 2.302335982397025094E-17, 0.0000000000000000000, 0.1880000000000000282 ) ) ;
#139 = AXIS2_PLACEMENT_3D ( 'NONE', #192, #276, #211 ) ;
#140 = VECTOR ( 'NONE', #29, 39.37007874015748143 ) ;
#141 = EDGE_CURVE ( 'NONE', #182, #161, #155, .T. ) ;
#142 = CYLINDRICAL_SURFACE ( 'NONE', #149, 0.06250000000000002776 ) ;
#143 = ORIENTED_EDGE ( 'NONE', *, *, #40, .T. ) ;
#144 = DIRECTION ( 'NONE',  ( -1.224646799147353700E-16, -0.0000000000000000000, -1.000000000000000000 ) ) ;
#145 = DIMENSIONAL_EXPONENTS ( 1.000000000000000000, 0.0000000000000000000, 0.0000000000000000000, 0.0000000000000000000, 0.0000000000000000000, 0.0000000000000000000, 0.0000000000000000000 ) ;
#146 = DIRECTION ( 'NONE',  ( -1.000000000000000000, 0.0000000000000000000, 0.0000000000000000000 ) ) ;
#147 = ORIENTED_EDGE ( 'NONE', *, *, #15, .F. ) ;
#148 = CONICAL_SURFACE ( 'NONE', #7, 0.04750000000000064587, 0.7853981633974466137 ) ;
#149 = AXIS2_PLACEMENT_3D ( 'NONE', #275, #229, #115 ) ;
#150 = FACE_OUTER_BOUND ( 'NONE', #57, .T. ) ;
#151 = EDGE_CURVE ( 'NONE', #34, #196, #175, .T. ) ;
#152 = VERTEX_POINT ( 'NONE', #262 ) ;
#153 = DIRECTION ( 'NONE',  ( 1.000000000000000000, 0.0000000000000000000, -0.0000000000000000000 ) ) ;
#154 = VECTOR ( 'NONE', #22, 39.37007874015748854 ) ;
#155 = LINE ( 'NONE', #283, #223 ) ;
#156 = EDGE_CURVE ( 'NONE', #88, #46, #135, .T. ) ;
#157 = DIRECTION ( 'NONE',  ( -0.0000000000000000000, -0.0000000000000000000, -1.000000000000000000 ) ) ;
#158 = EDGE_LOOP ( 'NONE', ( #270, #168, #12, #227 ) ) ;
#159 = ORIENTED_EDGE ( 'NONE', *, *, #15, .T. ) ;
#160 = EDGE_CURVE ( 'NONE', #278, #43, #59, .T. ) ;
#161 = VERTEX_POINT ( 'NONE', #108 ) ;
#162 = LINE ( 'NONE', #163, #45 ) ;
#163 = CARTESIAN_POINT ( 'NONE',  ( -0.03121874999999999997, 0.0000000000000000000, 3.823194226088145228E-18 ) ) ;
#164 = CIRCLE ( 'NONE', #71, 0.04750000000000064587 ) ;
#165 = STYLED_ITEM ( 'NONE', ( #91 ), #190 ) ;
#166 = FILL_AREA_STYLE ('',( #66 ) ) ;
#167 = DIRECTION ( 'NONE',  ( 1.000000000000000000, 0.0000000000000000000, 0.0000000000000000000 ) ) ;
#168 = ORIENTED_EDGE ( 'NONE', *, *, #215, .T. ) ;
#169 = EDGE_LOOP ( 'NONE', ( #48, #239, #236, #30 ) ) ;
#170 = ADVANCED_FACE ( 'NONE', ( #204 ), #176, .T. ) ;
#171 = CARTESIAN_POINT ( 'NONE',  ( 0.0000000000000000000, 0.0000000000000000000, 1.500000000000000222 ) ) ;
#172 = EDGE_LOOP ( 'NONE', ( #222, #279, #188, #74 ) ) ;
#173 = APPLICATION_PROTOCOL_DEFINITION ( 'draft international standard', 'automotive_design', 1998, #121 ) ;
#174 = CARTESIAN_POINT ( 'NONE',  ( -0.06249999999999997918, 0.0000000000000000000, 0.3654047844199156403 ) ) ;
#175 = CIRCLE ( 'NONE', #32, 0.03121874999999999997 ) ;
#176 = CONICAL_SURFACE ( 'NONE', #199, 0.03121874999999999997, 0.1745329251994338915 ) ;
#177 = DIMENSIONAL_EXPONENTS ( 1.000000000000000000, 0.0000000000000000000, 0.0000000000000000000, 0.0000000000000000000, 0.0000000000000000000, 0.0000000000000000000, 0.0000000000000000000 ) ;
#178 = EDGE_LOOP ( 'NONE', ( #62, #143 ) ) ;
#179 = DIRECTION ( 'NONE',  ( 1.000000000000000000, 0.0000000000000000000, 0.0000000000000000000 ) ) ;
#180 = STYLED_ITEM ( 'NONE', ( #27 ), #125 ) ;
#181 = SURFACE_SIDE_STYLE ('',( #242 ) ) ;
#182 = VERTEX_POINT ( 'NONE', #290 ) ;
#183 = DIRECTION ( 'NONE',  ( 1.000000000000000000, 0.0000000000000000000, 0.0000000000000000000 ) ) ;
#184 = EDGE_LOOP ( 'NONE', ( #84, #98 ) ) ;
#185 = DIRECTION ( 'NONE',  ( -1.224646799147353700E-16, -0.0000000000000000000, -1.000000000000000000 ) ) ;
#186 = ORIENTED_EDGE ( 'NONE', *, *, #141, .F. ) ;
#187 =( CONVERSION_BASED_UNIT ( 'INCH', #86 ) LENGTH_UNIT ( ) NAMED_UNIT ( #145 ) );
#188 = ORIENTED_EDGE ( 'NONE', *, *, #41, .T. ) ;
#189 = AXIS2_PLACEMENT_3D ( 'NONE', #56, #6, #183 ) ;
#190 = ADVANCED_BREP_SHAPE_REPRESENTATION ( 'Micro_GEM-062-2X', ( #125, #8 ), #60 ) ;
#191 = DIRECTION ( 'NONE',  ( 0.1736481776669313859, 0.0000000000000000000, 0.9848077530122077983 ) ) ;
#192 = CARTESIAN_POINT ( 'NONE',  ( 2.302335982397025094E-17, 0.0000000000000000000, 0.1880000000000000282 ) ) ;
#193 = FACE_OUTER_BOUND ( 'NONE', #254, .T. ) ;
#194 = COLOUR_RGB ( '',0.7921568627450980005, 0.8196078431372548767, 0.9333333333333333481 ) ;
#195 = DIRECTION ( 'NONE',  ( -1.000000000000000000, 0.0000000000000000000, 0.0000000000000000000 ) ) ;
#196 = VERTEX_POINT ( 'NONE', #286 ) ;
#197 = CARTESIAN_POINT ( 'NONE',  ( 0.0000000000000000000, 0.0000000000000000000, 0.0000000000000000000 ) ) ;
#198 = VECTOR ( 'NONE', #28, 39.37007874015748143 ) ;
#199 = AXIS2_PLACEMENT_3D ( 'NONE', #52, #81, #179 ) ;
#200 = FACE_OUTER_BOUND ( 'NONE', #14, .T. ) ;
#201 = SURFACE_STYLE_USAGE ( .BOTH. , #181 ) ;
#202 = CIRCLE ( 'NONE', #189, 0.06250000000000002776 ) ;
#203 = APPLICATION_CONTEXT ( 'automotive_design' ) ;
#204 = FACE_OUTER_BOUND ( 'NONE', #172, .T. ) ;
#205 = ORIENTED_EDGE ( 'NONE', *, *, #136, .F. ) ;
#206 = FILL_AREA_STYLE ('',( #111 ) ) ;
#207 =( NAMED_UNIT ( * ) PLANE_ANGLE_UNIT ( ) SI_UNIT ( $, .RADIAN. ) );
#208 = FACE_OUTER_BOUND ( 'NONE', #169, .T. ) ;
#209 = SURFACE_STYLE_FILL_AREA ( #166 ) ;
#210 = ADVANCED_FACE ( 'NONE', ( #267 ), #53, .T. ) ;
#211 = DIRECTION ( 'NONE',  ( -1.000000000000000000, 0.0000000000000000000, 0.0000000000000000000 ) ) ;
#212 = SHAPE_DEFINITION_REPRESENTATION ( #73, #190 ) ;
#213 = FACE_OUTER_BOUND ( 'NONE', #158, .T. ) ;
#214 = CARTESIAN_POINT ( 'NONE',  ( 0.0000000000000000000, 0.0000000000000000000, 1.500000000000000222 ) ) ;
#215 = EDGE_CURVE ( 'NONE', #152, #34, #106, .T. ) ;
#216 = PRODUCT_CONTEXT ( 'NONE', #203, 'mechanical' ) ;
#217 = DIRECTION ( 'NONE',  ( -1.000000000000000000, 0.0000000000000000000, 0.0000000000000000000 ) ) ;
#218 = DIRECTION ( 'NONE',  ( 0.0000000000000000000, 0.0000000000000000000, -1.000000000000000000 ) ) ;
#219 = DIRECTION ( 'NONE',  ( -1.000000000000000000, 0.0000000000000000000, 1.224646799147353947E-16 ) ) ;
#220 = EDGE_CURVE ( 'NONE', #137, #196, #162, .T. ) ;
#221 = CARTESIAN_POINT ( 'NONE',  ( 0.0000000000000000000, 0.0000000000000000000, 0.0000000000000000000 ) ) ;
#222 = ORIENTED_EDGE ( 'NONE', *, *, #261, .F. ) ;
#223 = VECTOR ( 'NONE', #157, 39.37007874015748143 ) ;
#224 = DIRECTION ( 'NONE',  ( 0.0000000000000000000, 0.0000000000000000000, 1.000000000000000000 ) ) ;
#225 = ORIENTED_EDGE ( 'NONE', *, *, #136, .T. ) ;
#226 = LINE ( 'NONE', #296, #96 ) ;
#227 = ORIENTED_EDGE ( 'NONE', *, *, #220, .F. ) ;
#228 = CIRCLE ( 'NONE', #139, 0.03121874999999999997 ) ;
#229 = DIRECTION ( 'NONE',  ( -0.0000000000000000000, -0.0000000000000000000, -1.000000000000000000 ) ) ;
#230 = FACE_OUTER_BOUND ( 'NONE', #292, .T. ) ;
#231 =( NAMED_UNIT ( * ) PLANE_ANGLE_UNIT ( ) SI_UNIT ( $, .RADIAN. ) );
#232 = AXIS2_PLACEMENT_3D ( 'NONE', #264, #105, #103 ) ;
#233 = DIRECTION ( 'NONE',  ( 0.0000000000000000000, 0.0000000000000000000, 1.000000000000000000 ) ) ;
#234 = DIRECTION ( 'NONE',  ( -1.000000000000000000, 0.0000000000000000000, 1.224646799147353947E-16 ) ) ;
#235 = DIRECTION ( 'NONE',  ( 0.7071067811865462405, 8.659560562354916834E-17, -0.7071067811865486830 ) ) ;
#236 = ORIENTED_EDGE ( 'NONE', *, *, #294, .T. ) ;
#237 = CONICAL_SURFACE ( 'NONE', #246, 0.04750000000000064587, 0.7853981633974466137 ) ;
#238 = COLOUR_RGB ( '',0.7921568627450980005, 0.8196078431372548767, 0.9333333333333333481 ) ;
#239 = ORIENTED_EDGE ( 'NONE', *, *, #92, .F. ) ;
#240 = DIRECTION ( 'NONE',  ( 0.0000000000000000000, 0.0000000000000000000, -1.000000000000000000 ) ) ;
#241 = EDGE_CURVE ( 'NONE', #137, #46, #90, .T. ) ;
#242 = SURFACE_STYLE_FILL_AREA ( #206 ) ;
#243 = CARTESIAN_POINT ( 'NONE',  ( 0.0000000000000000000, 0.0000000000000000000, 1.500000000000000222 ) ) ;
#244 = CARTESIAN_POINT ( 'NONE',  ( 0.03121874999999999997, 3.823194226088143687E-18, -3.823194226088145228E-18 ) ) ;
#245 =( LENGTH_UNIT ( ) NAMED_UNIT ( * ) SI_UNIT ( $, .METRE. ) );
#246 = AXIS2_PLACEMENT_3D ( 'NONE', #21, #240, #195 ) ;
#247 = ORIENTED_EDGE ( 'NONE', *, *, #220, .T. ) ;
#248 = CARTESIAN_POINT ( 'NONE',  ( -0.03121874999999997916, 3.823194226088143687E-18, 0.1880000000000000282 ) ) ;
#249 = CLOSED_SHELL ( 'NONE', ( #76, #170, #68, #102, #268, #210, #69, #281, #132, #104 ) ) ;
#250 = AXIS2_PLACEMENT_3D ( 'NONE', #50, #78, #70 ) ;
#251 =( NAMED_UNIT ( * ) SI_UNIT ( $, .STERADIAN. ) SOLID_ANGLE_UNIT ( ) );
#252 = DIRECTION ( 'NONE',  ( -1.224646799147353700E-16, -0.0000000000000000000, -1.000000000000000000 ) ) ;
#253 = DIRECTION ( 'NONE',  ( -1.000000000000000000, 0.0000000000000000000, 0.0000000000000000000 ) ) ;
#254 = EDGE_LOOP ( 'NONE', ( #225, #277, #64, #3 ) ) ;
#255 = VECTOR ( 'NONE', #63, 39.37007874015747433 ) ;
#256 = CARTESIAN_POINT ( 'NONE',  ( 4.474917996329785777E-17, 0.0000000000000000000, 0.3654047844199156403 ) ) ;
#257 = DIRECTION ( 'NONE',  ( -0.0000000000000000000, -0.0000000000000000000, -1.000000000000000000 ) ) ;
#258 = ORIENTED_EDGE ( 'NONE', *, *, #156, .T. ) ;
#259 = ORIENTED_EDGE ( 'NONE', *, *, #83, .F. ) ;
#260 = CARTESIAN_POINT ( 'NONE',  ( 0.04750000000000064587, 6.735557395310483192E-18, 1.500000000000000222 ) ) ;
#261 = EDGE_CURVE ( 'NONE', #137, #152, #128, .T. ) ;
#262 = CARTESIAN_POINT ( 'NONE',  ( 0.03121875000000002426, 0.0000000000000000000, 0.1880000000000000282 ) ) ;
#263 = UNCERTAINTY_MEASURE_WITH_UNIT (LENGTH_MEASURE( 1.000000000000000082E-05 ), #187, 'distance_accuracy_value', 'NONE');
#264 = CARTESIAN_POINT ( 'NONE',  ( 0.0000000000000000000, 0.0000000000000000000, 1.500000000000000222 ) ) ;
#265 = DIRECTION ( 'NONE',  ( -1.224646799147353700E-16, -0.0000000000000000000, -1.000000000000000000 ) ) ;
#266 = PRODUCT_DEFINITION_CONTEXT ( 'detailed design', #121, 'design' ) ;
#267 = FACE_OUTER_BOUND ( 'NONE', #178, .T. ) ;
#268 = ADVANCED_FACE ( 'NONE', ( #230 ), #142, .T. ) ;
#269 = ORIENTED_EDGE ( 'NONE', *, *, #151, .F. ) ;
#270 = ORIENTED_EDGE ( 'NONE', *, *, #261, .T. ) ;
#271 =( GEOMETRIC_REPRESENTATION_CONTEXT ( 3 ) GLOBAL_UNCERTAINTY_ASSIGNED_CONTEXT ( ( #263 ) ) GLOBAL_UNIT_ASSIGNED_CONTEXT ( ( #187, #207, #75 ) ) REPRESENTATION_CONTEXT ( 'NONE', 'WORKASPACE' ) );
#272 =( LENGTH_UNIT ( ) NAMED_UNIT ( * ) SI_UNIT ( $, .METRE. ) );
#273 = ORIENTED_EDGE ( 'NONE', *, *, #215, .F. ) ;
#274 = EDGE_CURVE ( 'NONE', #196, #34, #116, .T. ) ;
#275 = CARTESIAN_POINT ( 'NONE',  ( 0.0000000000000000000, 0.0000000000000000000, 1.500000000000000222 ) ) ;
#276 = DIRECTION ( 'NONE',  ( -1.224646799147353700E-16, -0.0000000000000000000, -1.000000000000000000 ) ) ;
#277 = ORIENTED_EDGE ( 'NONE', *, *, #141, .T. ) ;
#278 = VERTEX_POINT ( 'NONE', #18 ) ;
#279 = ORIENTED_EDGE ( 'NONE', *, *, #241, .T. ) ;
#280 = DIRECTION ( 'NONE',  ( -1.224646799147353700E-16, -0.0000000000000000000, -1.000000000000000000 ) ) ;
#281 = ADVANCED_FACE ( 'NONE', ( #208 ), #288, .T. ) ;
#282 = AXIS2_PLACEMENT_3D ( 'NONE', #113, #67, #37 ) ;
#283 = CARTESIAN_POINT ( 'NONE',  ( 0.06250000000000002776, 7.654042494670959086E-18, 1.500000000000000222 ) ) ;
#284 = CARTESIAN_POINT ( 'NONE',  ( -0.03121874999999997916, 5.738618360379552157E-18, 0.1880000000000000282 ) ) ;
#285 = UNCERTAINTY_MEASURE_WITH_UNIT (LENGTH_MEASURE( 1.000000000000000082E-05 ), #131, 'distance_accuracy_value', 'NONE');
#286 = CARTESIAN_POINT ( 'NONE',  ( -0.03121874999999999997, 0.0000000000000000000, 7.646388452176290456E-18 ) ) ;
#287 = CIRCLE ( 'NONE', #295, 0.06250000000000002776 ) ;
#288 = CONICAL_SURFACE ( 'NONE', #33, 0.03121874999999999997, 0.1745329251994338915 ) ;
#289 = PRODUCT_DEFINITION ( 'UNKNOWN', '', #109, #266 ) ;
#290 = CARTESIAN_POINT ( 'NONE',  ( 0.06250000000000002776, 7.654042494670959086E-18, 1.485000000000000764 ) ) ;
#291 = ORIENTED_EDGE ( 'NONE', *, *, #99, .F. ) ;
#292 = EDGE_LOOP ( 'NONE', ( #186, #24, #258, #291 ) ) ;
#293 = SURFACE_SIDE_STYLE ('',( #209 ) ) ;
#294 = EDGE_CURVE ( 'NONE', #152, #161, #226, .T. ) ;
#295 = AXIS2_PLACEMENT_3D ( 'NONE', #256, #144, #94 ) ;
#296 = CARTESIAN_POINT ( 'NONE',  ( 0.03121875000000002426, 0.0000000000000000000, 0.1880000000000000282 ) ) ;
#297 = APPLICATION_PROTOCOL_DEFINITION ( 'draft international standard', 'automotive_design', 1998, #203 ) ;
#298 = AXIS2_PLACEMENT_3D ( 'NONE', #138, #252, #253 ) ;
#299 = SURFACE_STYLE_USAGE ( .BOTH. , #293 ) ;
ENDSEC;
END-ISO-10303-21;
