ISO-10303-21;
HEADER;
FILE_DESCRIPTION (( 'STEP AP214' ),
    '1' );
FILE_NAME ('84054.STEP',
    '2023-06-23T11:16:57',
    ( '' ),
    ( '' ),
    'SwSTEP 2.0',
    'SolidWorks 2023',
    '' );
FILE_SCHEMA (( 'AUTOMOTIVE_DESIGN' ));
ENDSEC;

DATA;
#1 =( CONVERSION_BASED_UNIT ( 'INCH', #64 ) LENGTH_UNIT ( ) NAMED_UNIT ( #259 ) );
#2 = DIRECTION ( 'NONE',  ( 0.000000000000000000, -0.000000000000000000, 1.000000000000000000 ) ) ;
#3 = DIRECTION ( 'NONE',  ( 0.000000000000000000, 0.000000000000000000, 1.000000000000000000 ) ) ;
#4 = UNCERTAINTY_MEASURE_WITH_UNIT (LENGTH_MEASURE( 1.000000000000000082E-05 ), #84, 'distance_accuracy_value', 'NONE');
#5 = COLOUR_RGB ( '',1.000000000000000000, 0.000000000000000000, 0.000000000000000000 ) ;
#6 =( CONVERSION_BASED_UNIT ( 'INCH', #94 ) LENGTH_UNIT ( ) NAMED_UNIT ( #43 ) );
#7 = VERTEX_POINT ( 'NONE', #136 ) ;
#8 = SURFACE_STYLE_USAGE ( .BOTH. , #353 ) ;
#9 = EDGE_LOOP ( 'NONE', ( #55, #233, #76, #269 ) ) ;
#10 = SURFACE_STYLE_FILL_AREA ( #164 ) ;
#11 = CIRCLE ( 'NONE', #291, 0.1250000000000000278 ) ;
#12 = CIRCLE ( 'NONE', #105, 0.1250000000000000278 ) ;
#13 = ORIENTED_EDGE ( 'NONE', *, *, #155, .F. ) ;
#14 = EDGE_CURVE ( 'NONE', #348, #135, #200, .T. ) ;
#15 = ORIENTED_EDGE ( 'NONE', *, *, #70, .T. ) ;
#16 = DIMENSIONAL_EXPONENTS ( 1.000000000000000000, 0.000000000000000000, 0.000000000000000000, 0.000000000000000000, 0.000000000000000000, 0.000000000000000000, 0.000000000000000000 ) ;
#17 = ORIENTED_EDGE ( 'NONE', *, *, #328, .T. ) ;
#18 = VERTEX_POINT ( 'NONE', #38 ) ;
#19 = MECHANICAL_DESIGN_GEOMETRIC_PRESENTATION_REPRESENTATION (  '', ( #253 ), #234 ) ;
#20 = ADVANCED_FACE ( 'NONE', ( #45 ), #221, .F. ) ;
#21 = DIRECTION ( 'NONE',  ( -1.000000000000000000, 0.000000000000000000, 0.000000000000000000 ) ) ;
#22 = FACE_OUTER_BOUND ( 'NONE', #28, .T. ) ;
#23 = MANIFOLD_SOLID_BREP ( 'Revolve - Cutting Edge', #104 ) ;
#24 = VERTEX_POINT ( 'NONE', #69 ) ;
#25 = AXIS2_PLACEMENT_3D ( 'NONE', #293, #3, #260 ) ;
#26 = EDGE_CURVE ( 'NONE', #348, #7, #71, .T. ) ;
#27 = DIRECTION ( 'NONE',  ( -2.968840725205704707E-17, 1.000000000000000000, -0.000000000000000000 ) ) ;
#28 = EDGE_LOOP ( 'NONE', ( #160, #98 ) ) ;
#29 = SURFACE_STYLE_USAGE ( .BOTH. , #96 ) ;
#30 = AXIS2_PLACEMENT_3D ( 'NONE', #50, #113, #81 ) ;
#31 = CARTESIAN_POINT ( 'NONE',  ( 0.1250000000000000000, 2.500000000000000000, 0.000000000000000000 ) ) ;
#32 =( CONVERSION_BASED_UNIT ( 'INCH', #90 ) LENGTH_UNIT ( ) NAMED_UNIT ( #74 ) );
#33 = UNCERTAINTY_MEASURE_WITH_UNIT (LENGTH_MEASURE( 1.000000000000000082E-05 ), #158, 'distance_accuracy_value', 'NONE');
#34 =( NAMED_UNIT ( * ) SI_UNIT ( $, .STERADIAN. ) SOLID_ANGLE_UNIT ( ) );
#35 = ORIENTED_EDGE ( 'NONE', *, *, #328, .F. ) ;
#36 = AXIS2_PLACEMENT_3D ( 'NONE', #31, #57, #261 ) ;
#37 = DIRECTION ( 'NONE',  ( -2.968840725205704707E-17, 1.000000000000000000, -0.000000000000000000 ) ) ;
#38 = CARTESIAN_POINT ( 'NONE',  ( 0.1250000000000000278, 2.500000000000000000, 1.530808498934192125E-17 ) ) ;
#39 =( NAMED_UNIT ( * ) PLANE_ANGLE_UNIT ( ) SI_UNIT ( $, .RADIAN. ) );
#40 = MECHANICAL_DESIGN_GEOMETRIC_PRESENTATION_REPRESENTATION (  '', ( #215 ), #87 ) ;
#41 = CIRCLE ( 'NONE', #178, 0.09375000000000001388 ) ;
#42 = ORIENTED_EDGE ( 'NONE', *, *, #14, .T. ) ;
#43 = DIMENSIONAL_EXPONENTS ( 1.000000000000000000, 0.000000000000000000, 0.000000000000000000, 0.000000000000000000, 0.000000000000000000, 0.000000000000000000, 0.000000000000000000 ) ;
#44 =( LENGTH_UNIT ( ) NAMED_UNIT ( * ) SI_UNIT ( $, .METRE. ) );
#45 = FACE_OUTER_BOUND ( 'NONE', #272, .T. ) ;
#46 = DIRECTION ( 'NONE',  ( -1.000000000000000000, 0.000000000000000000, 0.000000000000000000 ) ) ;
#47 = DIRECTION ( 'NONE',  ( -1.000000000000000000, 0.000000000000000000, 0.000000000000000000 ) ) ;
#48 = STYLED_ITEM ( 'NONE', ( #315 ), #255 ) ;
#49 = DIRECTION ( 'NONE',  ( 0.000000000000000000, -1.000000000000000000, -0.000000000000000000 ) ) ;
#50 = CARTESIAN_POINT ( 'NONE',  ( -6.123233995736766036E-17, 2.500000000000000000, 0.000000000000000000 ) ) ;
#51 = CARTESIAN_POINT ( 'NONE',  ( -3.462457633139772610E-18, 0.5541265877365271209, 0.000000000000000000 ) ) ;
#52 = EDGE_LOOP ( 'NONE', ( #320, #115, #15, #35 ) ) ;
#53 = CYLINDRICAL_SURFACE ( 'NONE', #112, 0.09375000000000001388 ) ;
#54 = CARTESIAN_POINT ( 'NONE',  ( -6.123233995736766036E-17, 2.500000000000000000, 0.000000000000000000 ) ) ;
#55 = ORIENTED_EDGE ( 'NONE', *, *, #26, .T. ) ;
#56 = ORIENTED_EDGE ( 'NONE', *, *, #95, .F. ) ;
#57 = DIRECTION ( 'NONE',  ( 2.968840725205704707E-17, -1.000000000000000000, 0.000000000000000000 ) ) ;
#58 = ADVANCED_FACE ( 'NONE', ( #167 ), #210, .T. ) ;
#59 = FACE_OUTER_BOUND ( 'NONE', #101, .T. ) ;
#60 = AXIS2_PLACEMENT_3D ( 'NONE', #231, #49, #173 ) ;
#61 = MECHANICAL_DESIGN_GEOMETRIC_PRESENTATION_REPRESENTATION (  '', ( #124 ), #72 ) ;
#62 =( LENGTH_UNIT ( ) NAMED_UNIT ( * ) SI_UNIT ( $, .METRE. ) );
#63 = DIRECTION ( 'NONE',  ( -0.000000000000000000, -1.000000000000000000, -0.000000000000000000 ) ) ;
#64 = LENGTH_MEASURE_WITH_UNIT ( LENGTH_MEASURE( 0.02539999999999999897 ), #62 );
#65 = SURFACE_STYLE_USAGE ( .BOTH. , #159 ) ;
#66 = CIRCLE ( 'NONE', #247, 0.09375000000000001388 ) ;
#67 = VERTEX_POINT ( 'NONE', #279 ) ;
#68 =( LENGTH_UNIT ( ) NAMED_UNIT ( * ) SI_UNIT ( $, .METRE. ) );
#69 = CARTESIAN_POINT ( 'NONE',  ( -0.1250000000000001388, 2.500000000000000000, 0.000000000000000000 ) ) ;
#70 = EDGE_CURVE ( 'NONE', #177, #24, #256, .T. ) ;
#71 = CIRCLE ( 'NONE', #152, 0.09375000000000001388 ) ;
#72 =( GEOMETRIC_REPRESENTATION_CONTEXT ( 3 ) GLOBAL_UNCERTAINTY_ASSIGNED_CONTEXT ( ( #190 ) ) GLOBAL_UNIT_ASSIGNED_CONTEXT ( ( #273, #220, #198 ) ) REPRESENTATION_CONTEXT ( 'NONE', 'WORKASPACE' ) );
#73 = VERTEX_POINT ( 'NONE', #142 ) ;
#74 = DIMENSIONAL_EXPONENTS ( 1.000000000000000000, 0.000000000000000000, 0.000000000000000000, 0.000000000000000000, 0.000000000000000000, 0.000000000000000000, 0.000000000000000000 ) ;
#75 = DIRECTION ( 'NONE',  ( -0.000000000000000000, -1.000000000000000000, -0.000000000000000000 ) ) ;
#76 = ORIENTED_EDGE ( 'NONE', *, *, #297, .F. ) ;
#77 = DIRECTION ( 'NONE',  ( -1.000000000000000000, 0.000000000000000000, 0.000000000000000000 ) ) ;
#78 = LINE ( 'NONE', #86, #138 ) ;
#79 = VECTOR ( 'NONE', #99, 39.37007874015748143 ) ;
#80 = COLOUR_RGB ( '',0.7921568627450980005, 0.8196078431372548767, 0.9333333333333333481 ) ;
#81 = DIRECTION ( 'NONE',  ( -1.000000000000000000, 0.000000000000000000, 0.000000000000000000 ) ) ;
#82 = FACE_OUTER_BOUND ( 'NONE', #52, .T. ) ;
#83 = EDGE_CURVE ( 'NONE', #7, #222, #78, .T. ) ;
#84 =( CONVERSION_BASED_UNIT ( 'INCH', #114 ) LENGTH_UNIT ( ) NAMED_UNIT ( #16 ) );
#85 = ORIENTED_EDGE ( 'NONE', *, *, #83, .F. ) ;
#86 = CARTESIAN_POINT ( 'NONE',  ( 1.148106374200643863E-17, 0.000000000000000000, 0.09375000000000001388 ) ) ;
#87 =( GEOMETRIC_REPRESENTATION_CONTEXT ( 3 ) GLOBAL_UNCERTAINTY_ASSIGNED_CONTEXT ( ( #156 ) ) GLOBAL_UNIT_ASSIGNED_CONTEXT ( ( #195, #39, #218 ) ) REPRESENTATION_CONTEXT ( 'NONE', 'WORKASPACE' ) );
#88 =( NAMED_UNIT ( * ) PLANE_ANGLE_UNIT ( ) SI_UNIT ( $, .RADIAN. ) );
#89 = CARTESIAN_POINT ( 'NONE',  ( 1.148106374200643863E-17, 0.000000000000000000, 0.09375000000000001388 ) ) ;
#90 = LENGTH_MEASURE_WITH_UNIT ( LENGTH_MEASURE( 0.02539999999999999897 ), #191 );
#91 = COLOUR_RGB ( '',1.000000000000000000, 0.000000000000000000, 0.000000000000000000 ) ;
#92 = STYLED_ITEM ( 'NONE', ( #147 ), #359 ) ;
#93 = UNCERTAINTY_MEASURE_WITH_UNIT (LENGTH_MEASURE( 1.000000000000000082E-05 ), #32, 'distance_accuracy_value', 'NONE');
#94 = LENGTH_MEASURE_WITH_UNIT ( LENGTH_MEASURE( 0.02539999999999999897 ), #290 );
#95 = EDGE_CURVE ( 'NONE', #67, #73, #119, .T. ) ;
#96 = SURFACE_SIDE_STYLE ('',( #263 ) ) ;
#97 = AXIS2_PLACEMENT_3D ( 'NONE', #340, #157, #216 ) ;
#98 = ORIENTED_EDGE ( 'NONE', *, *, #295, .T. ) ;
#99 = DIRECTION ( 'NONE',  ( -0.000000000000000000, -1.000000000000000000, -0.000000000000000000 ) ) ;
#100 = LENGTH_MEASURE_WITH_UNIT ( LENGTH_MEASURE( 0.02539999999999999897 ), #68 );
#101 = EDGE_LOOP ( 'NONE', ( #85, #242, #42, #274 ) ) ;
#102 = DIMENSIONAL_EXPONENTS ( 1.000000000000000000, 0.000000000000000000, 0.000000000000000000, 0.000000000000000000, 0.000000000000000000, 0.000000000000000000, 0.000000000000000000 ) ;
#103 = CARTESIAN_POINT ( 'NONE',  ( 0.1249999999999999584, 2.500000000000000000, 1.530808498934191817E-17 ) ) ;
#104 = CLOSED_SHELL ( 'NONE', ( #359, #208, #255, #123 ) ) ;
#105 = AXIS2_PLACEMENT_3D ( 'NONE', #141, #250, #46 ) ;
#106 = FILL_AREA_STYLE ('',( #325 ) ) ;
#107 = FACE_OUTER_BOUND ( 'NONE', #9, .T. ) ;
#108 = CARTESIAN_POINT ( 'NONE',  ( 0.000000000000000000, 0.4375000000000000000, 0.000000000000000000 ) ) ;
#109 = DIRECTION ( 'NONE',  ( -2.968840725205704707E-17, 1.000000000000000000, -0.000000000000000000 ) ) ;
#110 = DIRECTION ( 'NONE',  ( -1.000000000000000000, 0.000000000000000000, 0.000000000000000000 ) ) ;
#111 = MECHANICAL_DESIGN_GEOMETRIC_PRESENTATION_REPRESENTATION (  '', ( #48 ), #280 ) ;
#112 = AXIS2_PLACEMENT_3D ( 'NONE', #153, #289, #182 ) ;
#113 = DIRECTION ( 'NONE',  ( -2.968840725205704707E-17, 1.000000000000000000, -0.000000000000000000 ) ) ;
#114 = LENGTH_MEASURE_WITH_UNIT ( LENGTH_MEASURE( 0.02539999999999999897 ), #358 );
#115 = ORIENTED_EDGE ( 'NONE', *, *, #168, .T. ) ;
#116 = SURFACE_STYLE_FILL_AREA ( #179 ) ;
#117 = ORIENTED_EDGE ( 'NONE', *, *, #287, .T. ) ;
#118 = CIRCLE ( 'NONE', #132, 0.09375000000000001388 ) ;
#119 = CIRCLE ( 'NONE', #197, 0.09375000000000001388 ) ;
#120 = APPLICATION_PROTOCOL_DEFINITION ( 'draft international standard', 'automotive_design', 1998, #252 ) ;
#121 = FILL_AREA_STYLE_COLOUR ( '', #91 ) ;
#122 = LENGTH_MEASURE_WITH_UNIT ( LENGTH_MEASURE( 0.02539999999999999897 ), #44 );
#123 = ADVANCED_FACE ( 'NONE', ( #22 ), #180, .T. ) ;
#124 = STYLED_ITEM ( 'NONE', ( #345 ), #271 ) ;
#125 = AXIS2_PLACEMENT_3D ( 'NONE', #232, #176, #148 ) ;
#126 = VECTOR ( 'NONE', #37, 39.37007874015748143 ) ;
#127 = PRODUCT_DEFINITION_CONTEXT ( 'detailed design', #212, 'design' ) ;
#128 = PLANE ( 'NONE',  #217 ) ;
#129 = VERTEX_POINT ( 'NONE', #308 ) ;
#130 = EDGE_CURVE ( 'NONE', #73, #67, #66, .T. ) ;
#131 = CARTESIAN_POINT ( 'NONE',  ( 0.000000000000000000, 0.000000000000000000, -0.09375000000000001388 ) ) ;
#132 = AXIS2_PLACEMENT_3D ( 'NONE', #108, #227, #327 ) ;
#133 = AXIS2_PLACEMENT_3D ( 'NONE', #310, #63, #294 ) ;
#134 = EDGE_LOOP ( 'NONE', ( #301, #117, #181, #296 ) ) ;
#135 = VERTEX_POINT ( 'NONE', #286 ) ;
#136 = CARTESIAN_POINT ( 'NONE',  ( 1.148106374200643863E-17, 0.4375000000000000000, 0.09375000000000001388 ) ) ;
#137 = ADVANCED_FACE ( 'NONE', ( #82 ), #174, .T. ) ;
#138 = VECTOR ( 'NONE', #251, 39.37007874015748143 ) ;
#139 = LINE ( 'NONE', #277, #172 ) ;
#140 = CARTESIAN_POINT ( 'NONE',  ( -0.1250000000000001110, 2.500000000000000000, 0.000000000000000000 ) ) ;
#141 = CARTESIAN_POINT ( 'NONE',  ( -3.462457633139772610E-18, 0.5541265877365271209, 0.000000000000000000 ) ) ;
#142 = CARTESIAN_POINT ( 'NONE',  ( 0.09375000000000001388, 0.4374999999999998890, 1.339457436567417686E-17 ) ) ;
#143 = FILL_AREA_STYLE_COLOUR ( '', #5 ) ;
#144 = COLOUR_RGB ( '',0.7921568627450980005, 0.8196078431372548767, 0.9333333333333333481 ) ;
#145 = MECHANICAL_DESIGN_GEOMETRIC_PRESENTATION_REPRESENTATION (  '', ( #92 ), #346 ) ;
#146 = EDGE_LOOP ( 'NONE', ( #244, #17 ) ) ;
#147 = PRESENTATION_STYLE_ASSIGNMENT (( #283 ) ) ;
#148 = DIRECTION ( 'NONE',  ( -1.000000000000000000, 0.000000000000000000, 0.000000000000000000 ) ) ;
#149 =( NAMED_UNIT ( * ) SI_UNIT ( $, .STERADIAN. ) SOLID_ANGLE_UNIT ( ) );
#150 = ORIENTED_EDGE ( 'NONE', *, *, #26, .F. ) ;
#151 = FILL_AREA_STYLE ('',( #235 ) ) ;
#152 = AXIS2_PLACEMENT_3D ( 'NONE', #246, #194, #298 ) ;
#153 = CARTESIAN_POINT ( 'NONE',  ( 0.000000000000000000, 0.000000000000000000, 0.000000000000000000 ) ) ;
#154 = PRODUCT ( '84054', '84054', '', ( #236 ) ) ;
#155 = EDGE_CURVE ( 'NONE', #73, #129, #139, .T. ) ;
#156 = UNCERTAINTY_MEASURE_WITH_UNIT (LENGTH_MEASURE( 1.000000000000000082E-05 ), #195, 'distance_accuracy_value', 'NONE');
#157 = DIRECTION ( 'NONE',  ( -2.968840725205704707E-17, 1.000000000000000000, -0.000000000000000000 ) ) ;
#158 =( CONVERSION_BASED_UNIT ( 'INCH', #122 ) LENGTH_UNIT ( ) NAMED_UNIT ( #335 ) );
#159 = SURFACE_SIDE_STYLE ('',( #314 ) ) ;
#160 = ORIENTED_EDGE ( 'NONE', *, *, #297, .T. ) ;
#161 =( GEOMETRIC_REPRESENTATION_CONTEXT ( 3 ) GLOBAL_UNCERTAINTY_ASSIGNED_CONTEXT ( ( #237 ) ) GLOBAL_UNIT_ASSIGNED_CONTEXT ( ( #6, #312, #238 ) ) REPRESENTATION_CONTEXT ( 'NONE', 'WORKASPACE' ) );
#162 = COLOUR_RGB ( '',1.000000000000000000, 0.000000000000000000, 0.000000000000000000 ) ;
#163 = DIRECTION ( 'NONE',  ( 0.000000000000000000, 0.000000000000000000, -1.000000000000000000 ) ) ;
#164 = FILL_AREA_STYLE ('',( #241 ) ) ;
#165 = DIRECTION ( 'NONE',  ( -2.968840725205704707E-17, 1.000000000000000000, 0.000000000000000000 ) ) ;
#166 = CIRCLE ( 'NONE', #292, 0.09375000000000001388 ) ;
#167 = FACE_OUTER_BOUND ( 'NONE', #281, .T. ) ;
#168 = EDGE_CURVE ( 'NONE', #129, #177, #11, .T. ) ;
#169 = ORIENTED_EDGE ( 'NONE', *, *, #168, .F. ) ;
#170 = CYLINDRICAL_SURFACE ( 'NONE', #30, 0.1250000000000000278 ) ;
#171 = ORIENTED_EDGE ( 'NONE', *, *, #342, .F. ) ;
#172 = VECTOR ( 'NONE', #284, 39.37007874015748143 ) ;
#173 = DIRECTION ( 'NONE',  ( 0.000000000000000000, 0.000000000000000000, -1.000000000000000000 ) ) ;
#174 = CYLINDRICAL_SURFACE ( 'NONE', #276, 0.1250000000000000278 ) ;
#175 = CARTESIAN_POINT ( 'NONE',  ( 0.000000000000000000, 0.4375000000000000000, -0.09375000000000001388 ) ) ;
#176 = DIRECTION ( 'NONE',  ( -2.968840725205704707E-17, 1.000000000000000000, -0.000000000000000000 ) ) ;
#177 = VERTEX_POINT ( 'NONE', #249 ) ;
#178 = AXIS2_PLACEMENT_3D ( 'NONE', #349, #270, #224 ) ;
#179 = FILL_AREA_STYLE ('',( #326 ) ) ;
#180 = PLANE ( 'NONE',  #60 ) ;
#181 = ORIENTED_EDGE ( 'NONE', *, *, #196, .F. ) ;
#182 = DIRECTION ( 'NONE',  ( 0.000000000000000000, 0.000000000000000000, -1.000000000000000000 ) ) ;
#183 = CARTESIAN_POINT ( 'NONE',  ( 7.582401355855259480E-33, 0.4374999999999998890, 0.000000000000000000 ) ) ;
#184 = ORIENTED_EDGE ( 'NONE', *, *, #130, .T. ) ;
#185 = PRESENTATION_STYLE_ASSIGNMENT (( #29 ) ) ;
#186 = FACE_OUTER_BOUND ( 'NONE', #146, .T. ) ;
#187 = PRESENTATION_LAYER_ASSIGNMENT (  '', '', ( #317 ) ) ;
#188 = EDGE_CURVE ( 'NONE', #7, #348, #118, .T. ) ;
#189 =( NAMED_UNIT ( * ) PLANE_ANGLE_UNIT ( ) SI_UNIT ( $, .RADIAN. ) );
#190 = UNCERTAINTY_MEASURE_WITH_UNIT (LENGTH_MEASURE( 1.000000000000000082E-05 ), #273, 'distance_accuracy_value', 'NONE');
#191 =( LENGTH_UNIT ( ) NAMED_UNIT ( * ) SI_UNIT ( $, .METRE. ) );
#192 = ORIENTED_EDGE ( 'NONE', *, *, #188, .F. ) ;
#193 = CARTESIAN_POINT ( 'NONE',  ( 4.131569649206219968E-35, 0.4375000000000000000, 0.000000000000000000 ) ) ;
#194 = DIRECTION ( 'NONE',  ( -0.000000000000000000, -1.000000000000000000, -0.000000000000000000 ) ) ;
#195 =( CONVERSION_BASED_UNIT ( 'INCH', #318 ) LENGTH_UNIT ( ) NAMED_UNIT ( #352 ) );
#196 = EDGE_CURVE ( 'NONE', #24, #18, #268, .T. ) ;
#197 = AXIS2_PLACEMENT_3D ( 'NONE', #356, #332, #77 ) ;
#198 =( NAMED_UNIT ( * ) SI_UNIT ( $, .STERADIAN. ) SOLID_ANGLE_UNIT ( ) );
#199 = ORIENTED_EDGE ( 'NONE', *, *, #323, .T. ) ;
#200 = LINE ( 'NONE', #131, #79 ) ;
#201 = SURFACE_SIDE_STYLE ('',( #116 ) ) ;
#202 = CARTESIAN_POINT ( 'NONE',  ( -6.123233995736766036E-17, 2.500000000000000000, 0.000000000000000000 ) ) ;
#203 = CLOSED_SHELL ( 'NONE', ( #351, #240, #20, #58, #137, #214 ) ) ;
#204 = AXIS2_PLACEMENT_3D ( 'NONE', #278, #206, #306 ) ;
#205 = SURFACE_STYLE_FILL_AREA ( #209 ) ;
#206 = DIRECTION ( 'NONE',  ( -2.968840725205704707E-17, 1.000000000000000000, -0.000000000000000000 ) ) ;
#207 =( NAMED_UNIT ( * ) SI_UNIT ( $, .STERADIAN. ) SOLID_ANGLE_UNIT ( ) );
#208 = ADVANCED_FACE ( 'NONE', ( #266 ), #128, .T. ) ;
#209 = FILL_AREA_STYLE ('',( #143 ) ) ;
#210 = CONICAL_SURFACE ( 'NONE', #125, 0.09375000000000001388, 0.2617993877991498519 ) ;
#211 = CYLINDRICAL_SURFACE ( 'NONE', #133, 0.09375000000000001388 ) ;
#212 = APPLICATION_CONTEXT ( 'automotive_design' ) ;
#213 = FACE_OUTER_BOUND ( 'NONE', #288, .T. ) ;
#214 = ADVANCED_FACE ( 'NONE', ( #186 ), #334, .F. ) ;
#215 = STYLED_ITEM ( 'NONE', ( #302 ), #23 ) ;
#216 = DIRECTION ( 'NONE',  ( -1.000000000000000000, 0.000000000000000000, 0.000000000000000000 ) ) ;
#217 = AXIS2_PLACEMENT_3D ( 'NONE', #341, #239, #2 ) ;
#218 =( NAMED_UNIT ( * ) SI_UNIT ( $, .STERADIAN. ) SOLID_ANGLE_UNIT ( ) );
#219 = ADVANCED_BREP_SHAPE_REPRESENTATION ( '84054', ( #23, #271, #25 ), #313 ) ;
#220 =( NAMED_UNIT ( * ) PLANE_ANGLE_UNIT ( ) SI_UNIT ( $, .RADIAN. ) );
#221 = PLANE ( 'NONE',  #223 ) ;
#222 = VERTEX_POINT ( 'NONE', #89 ) ;
#223 = AXIS2_PLACEMENT_3D ( 'NONE', #193, #165, #319 ) ;
#224 = DIRECTION ( 'NONE',  ( 0.000000000000000000, 0.000000000000000000, -1.000000000000000000 ) ) ;
#225 = SURFACE_SIDE_STYLE ('',( #275 ) ) ;
#226 = PRODUCT_DEFINITION ( 'UNKNOWN', '', #248, #127 ) ;
#227 = DIRECTION ( 'NONE',  ( -0.000000000000000000, -1.000000000000000000, -0.000000000000000000 ) ) ;
#228 = DIRECTION ( 'NONE',  ( -1.000000000000000000, 0.000000000000000000, 0.000000000000000000 ) ) ;
#229 = MECHANICAL_DESIGN_GEOMETRIC_PRESENTATION_REPRESENTATION (  '', ( #317 ), #161 ) ;
#230 = DIRECTION ( 'NONE',  ( -2.968840725205704707E-17, 1.000000000000000000, -0.000000000000000000 ) ) ;
#231 = CARTESIAN_POINT ( 'NONE',  ( 0.000000000000000000, 0.000000000000000000, 0.000000000000000000 ) ) ;
#232 = CARTESIAN_POINT ( 'NONE',  ( 7.582401355855259480E-33, 0.4374999999999998890, 0.000000000000000000 ) ) ;
#233 = ORIENTED_EDGE ( 'NONE', *, *, #83, .T. ) ;
#234 =( GEOMETRIC_REPRESENTATION_CONTEXT ( 3 ) GLOBAL_UNCERTAINTY_ASSIGNED_CONTEXT ( ( #4 ) ) GLOBAL_UNIT_ASSIGNED_CONTEXT ( ( #84, #354, #207 ) ) REPRESENTATION_CONTEXT ( 'NONE', 'WORKASPACE' ) );
#235 = FILL_AREA_STYLE_COLOUR ( '', #329 ) ;
#236 = PRODUCT_CONTEXT ( 'NONE', #252, 'mechanical' ) ;
#237 = UNCERTAINTY_MEASURE_WITH_UNIT (LENGTH_MEASURE( 1.000000000000000082E-05 ), #6, 'distance_accuracy_value', 'NONE');
#238 =( NAMED_UNIT ( * ) SI_UNIT ( $, .STERADIAN. ) SOLID_ANGLE_UNIT ( ) );
#239 = DIRECTION ( 'NONE',  ( 0.000000000000000000, 1.000000000000000000, 0.000000000000000000 ) ) ;
#240 = ADVANCED_FACE ( 'NONE', ( #213 ), #262, .T. ) ;
#241 = FILL_AREA_STYLE_COLOUR ( '', #80 ) ;
#242 = ORIENTED_EDGE ( 'NONE', *, *, #188, .T. ) ;
#243 = ORIENTED_EDGE ( 'NONE', *, *, #130, .F. ) ;
#244 = ORIENTED_EDGE ( 'NONE', *, *, #196, .T. ) ;
#245 = LINE ( 'NONE', #103, #126 ) ;
#246 = CARTESIAN_POINT ( 'NONE',  ( 0.000000000000000000, 0.4375000000000000000, 0.000000000000000000 ) ) ;
#247 = AXIS2_PLACEMENT_3D ( 'NONE', #183, #109, #110 ) ;
#248 = PRODUCT_DEFINITION_FORMATION_WITH_SPECIFIED_SOURCE ( 'ANY', '', #154, .NOT_KNOWN. ) ;
#249 = CARTESIAN_POINT ( 'NONE',  ( -0.1250000000000000000, 0.5541265877365271209, 0.000000000000000000 ) ) ;
#250 = DIRECTION ( 'NONE',  ( -2.968840725205704707E-17, 1.000000000000000000, -0.000000000000000000 ) ) ;
#251 = DIRECTION ( 'NONE',  ( -0.000000000000000000, -1.000000000000000000, -0.000000000000000000 ) ) ;
#252 = APPLICATION_CONTEXT ( 'automotive_design' ) ;
#253 = STYLED_ITEM ( 'NONE', ( #331 ), #123 ) ;
#254 = VECTOR ( 'NONE', #355, 39.37007874015748854 ) ;
#255 = ADVANCED_FACE ( 'NONE', ( #59 ), #211, .T. ) ;
#256 = LINE ( 'NONE', #140, #299 ) ;
#257 = ORIENTED_EDGE ( 'NONE', *, *, #323, .F. ) ;
#258 = SURFACE_STYLE_USAGE ( .BOTH. , #309 ) ;
#259 = DIMENSIONAL_EXPONENTS ( 1.000000000000000000, 0.000000000000000000, 0.000000000000000000, 0.000000000000000000, 0.000000000000000000, 0.000000000000000000, 0.000000000000000000 ) ;
#260 = DIRECTION ( 'NONE',  ( 1.000000000000000000, 0.000000000000000000, 0.000000000000000000 ) ) ;
#261 = DIRECTION ( 'NONE',  ( 1.000000000000000000, 2.968840725205704707E-17, 0.000000000000000000 ) ) ;
#262 = CONICAL_SURFACE ( 'NONE', #97, 0.09375000000000001388, 0.2617993877991498519 ) ;
#263 = SURFACE_STYLE_FILL_AREA ( #151 ) ;
#264 = ORIENTED_EDGE ( 'NONE', *, *, #155, .T. ) ;
#265 = UNCERTAINTY_MEASURE_WITH_UNIT (LENGTH_MEASURE( 1.000000000000000082E-05 ), #1, 'distance_accuracy_value', 'NONE');
#266 = FACE_OUTER_BOUND ( 'NONE', #333, .T. ) ;
#267 = PRODUCT_RELATED_PRODUCT_CATEGORY ( 'part', '', ( #154 ) ) ;
#268 = CIRCLE ( 'NONE', #321, 0.1250000000000000555 ) ;
#269 = ORIENTED_EDGE ( 'NONE', *, *, #14, .F. ) ;
#270 = DIRECTION ( 'NONE',  ( -0.000000000000000000, -1.000000000000000000, -0.000000000000000000 ) ) ;
#271 = MANIFOLD_SOLID_BREP ( 'Revolve - Tool Body (Reduced Cut Diameter)', #203 ) ;
#272 = EDGE_LOOP ( 'NONE', ( #56, #243 ) ) ;
#273 =( CONVERSION_BASED_UNIT ( 'INCH', #100 ) LENGTH_UNIT ( ) NAMED_UNIT ( #102 ) );
#274 = ORIENTED_EDGE ( 'NONE', *, *, #295, .F. ) ;
#275 = SURFACE_STYLE_FILL_AREA ( #106 ) ;
#276 = AXIS2_PLACEMENT_3D ( 'NONE', #54, #307, #228 ) ;
#277 = CARTESIAN_POINT ( 'NONE',  ( 0.09375000000000001388, 0.4374999999999998890, 1.148106374200643863E-17 ) ) ;
#278 = CARTESIAN_POINT ( 'NONE',  ( -6.123233995736766036E-17, 2.500000000000000000, 0.000000000000000000 ) ) ;
#279 = CARTESIAN_POINT ( 'NONE',  ( -0.09375000000000001388, 0.4374999999999998890, 0.000000000000000000 ) ) ;
#280 =( GEOMETRIC_REPRESENTATION_CONTEXT ( 3 ) GLOBAL_UNCERTAINTY_ASSIGNED_CONTEXT ( ( #93 ) ) GLOBAL_UNIT_ASSIGNED_CONTEXT ( ( #32, #337, #34 ) ) REPRESENTATION_CONTEXT ( 'NONE', 'WORKASPACE' ) );
#281 = EDGE_LOOP ( 'NONE', ( #13, #184, #199, #169 ) ) ;
#282 = PRESENTATION_LAYER_ASSIGNMENT (  '', '', ( #253 ) ) ;
#283 = SURFACE_STYLE_USAGE ( .BOTH. , #201 ) ;
#284 = DIRECTION ( 'NONE',  ( 0.2588190451025211281, 0.9659258262890682012, 3.169619151431769872E-17 ) ) ;
#285 =( NAMED_UNIT ( * ) SI_UNIT ( $, .STERADIAN. ) SOLID_ANGLE_UNIT ( ) );
#286 = CARTESIAN_POINT ( 'NONE',  ( 0.000000000000000000, 0.000000000000000000, -0.09375000000000001388 ) ) ;
#287 = EDGE_CURVE ( 'NONE', #129, #18, #245, .T. ) ;
#288 = EDGE_LOOP ( 'NONE', ( #350, #264, #171, #257 ) ) ;
#289 = DIRECTION ( 'NONE',  ( -0.000000000000000000, -1.000000000000000000, -0.000000000000000000 ) ) ;
#290 =( LENGTH_UNIT ( ) NAMED_UNIT ( * ) SI_UNIT ( $, .METRE. ) );
#291 = AXIS2_PLACEMENT_3D ( 'NONE', #51, #27, #21 ) ;
#292 = AXIS2_PLACEMENT_3D ( 'NONE', #324, #75, #163 ) ;
#293 = CARTESIAN_POINT ( 'NONE',  ( 0.000000000000000000, 0.000000000000000000, 0.000000000000000000 ) ) ;
#294 = DIRECTION ( 'NONE',  ( 0.000000000000000000, 0.000000000000000000, -1.000000000000000000 ) ) ;
#295 = EDGE_CURVE ( 'NONE', #222, #135, #41, .T. ) ;
#296 = ORIENTED_EDGE ( 'NONE', *, *, #70, .F. ) ;
#297 = EDGE_CURVE ( 'NONE', #135, #222, #166, .T. ) ;
#298 = DIRECTION ( 'NONE',  ( 0.000000000000000000, 0.000000000000000000, -1.000000000000000000 ) ) ;
#299 = VECTOR ( 'NONE', #230, 39.37007874015748143 ) ;
#300 = PRESENTATION_LAYER_ASSIGNMENT (  '', '', ( #92 ) ) ;
#301 = ORIENTED_EDGE ( 'NONE', *, *, #342, .T. ) ;
#302 = PRESENTATION_STYLE_ASSIGNMENT (( #347 ) ) ;
#303 = PRODUCT_DEFINITION_SHAPE ( 'NONE', 'NONE',  #226 ) ;
#304 = DIRECTION ( 'NONE',  ( -2.968840725205704707E-17, 1.000000000000000000, -0.000000000000000000 ) ) ;
#305 = PRESENTATION_LAYER_ASSIGNMENT (  '', '', ( #48 ) ) ;
#306 = DIRECTION ( 'NONE',  ( -1.000000000000000000, 0.000000000000000000, 0.000000000000000000 ) ) ;
#307 = DIRECTION ( 'NONE',  ( -2.968840725205704707E-17, 1.000000000000000000, -0.000000000000000000 ) ) ;
#308 = CARTESIAN_POINT ( 'NONE',  ( 0.1250000000000000000, 0.5541265877365271209, 1.530808498934191509E-17 ) ) ;
#309 = SURFACE_SIDE_STYLE ('',( #205 ) ) ;
#310 = CARTESIAN_POINT ( 'NONE',  ( 0.000000000000000000, 0.000000000000000000, 0.000000000000000000 ) ) ;
#311 = FILL_AREA_STYLE ('',( #121 ) ) ;
#312 =( NAMED_UNIT ( * ) PLANE_ANGLE_UNIT ( ) SI_UNIT ( $, .RADIAN. ) );
#313 =( GEOMETRIC_REPRESENTATION_CONTEXT ( 3 ) GLOBAL_UNCERTAINTY_ASSIGNED_CONTEXT ( ( #265 ) ) GLOBAL_UNIT_ASSIGNED_CONTEXT ( ( #1, #189, #149 ) ) REPRESENTATION_CONTEXT ( 'NONE', 'WORKASPACE' ) );
#314 = SURFACE_STYLE_FILL_AREA ( #311 ) ;
#315 = PRESENTATION_STYLE_ASSIGNMENT (( #65 ) ) ;
#316 = CARTESIAN_POINT ( 'NONE',  ( -0.09375000000000001388, 0.4374999999999998890, 0.000000000000000000 ) ) ;
#317 = STYLED_ITEM ( 'NONE', ( #185 ), #208 ) ;
#318 = LENGTH_MEASURE_WITH_UNIT ( LENGTH_MEASURE( 0.02539999999999999897 ), #344 );
#319 = DIRECTION ( 'NONE',  ( -1.000000000000000000, -2.968840725205704707E-17, 0.000000000000000000 ) ) ;
#320 = ORIENTED_EDGE ( 'NONE', *, *, #287, .F. ) ;
#321 = AXIS2_PLACEMENT_3D ( 'NONE', #202, #304, #47 ) ;
#322 = CIRCLE ( 'NONE', #204, 0.1250000000000000555 ) ;
#323 = EDGE_CURVE ( 'NONE', #67, #177, #343, .T. ) ;
#324 = CARTESIAN_POINT ( 'NONE',  ( 0.000000000000000000, 0.000000000000000000, 0.000000000000000000 ) ) ;
#325 = FILL_AREA_STYLE_COLOUR ( '', #144 ) ;
#326 = FILL_AREA_STYLE_COLOUR ( '', #162 ) ;
#327 = DIRECTION ( 'NONE',  ( 0.000000000000000000, 0.000000000000000000, -1.000000000000000000 ) ) ;
#328 = EDGE_CURVE ( 'NONE', #18, #24, #322, .T. ) ;
#329 = COLOUR_RGB ( '',1.000000000000000000, 0.000000000000000000, 0.000000000000000000 ) ;
#330 = PRESENTATION_LAYER_ASSIGNMENT (  '', '', ( #124 ) ) ;
#331 = PRESENTATION_STYLE_ASSIGNMENT (( #258 ) ) ;
#332 = DIRECTION ( 'NONE',  ( -2.968840725205704707E-17, 1.000000000000000000, -0.000000000000000000 ) ) ;
#333 = EDGE_LOOP ( 'NONE', ( #150, #192 ) ) ;
#334 = PLANE ( 'NONE',  #36 ) ;
#335 = DIMENSIONAL_EXPONENTS ( 1.000000000000000000, 0.000000000000000000, 0.000000000000000000, 0.000000000000000000, 0.000000000000000000, 0.000000000000000000, 0.000000000000000000 ) ;
#336 = APPLICATION_PROTOCOL_DEFINITION ( 'draft international standard', 'automotive_design', 1998, #212 ) ;
#337 =( NAMED_UNIT ( * ) PLANE_ANGLE_UNIT ( ) SI_UNIT ( $, .RADIAN. ) );
#338 = SHAPE_DEFINITION_REPRESENTATION ( #303, #219 ) ;
#339 = PRESENTATION_LAYER_ASSIGNMENT (  '', '', ( #215 ) ) ;
#340 = CARTESIAN_POINT ( 'NONE',  ( 7.582401355855259480E-33, 0.4374999999999998890, 0.000000000000000000 ) ) ;
#341 = CARTESIAN_POINT ( 'NONE',  ( 0.000000000000000000, 0.4375000000000000000, 0.000000000000000000 ) ) ;
#342 = EDGE_CURVE ( 'NONE', #177, #129, #12, .T. ) ;
#343 = LINE ( 'NONE', #316, #254 ) ;
#344 =( LENGTH_UNIT ( ) NAMED_UNIT ( * ) SI_UNIT ( $, .METRE. ) );
#345 = PRESENTATION_STYLE_ASSIGNMENT (( #8 ) ) ;
#346 =( GEOMETRIC_REPRESENTATION_CONTEXT ( 3 ) GLOBAL_UNCERTAINTY_ASSIGNED_CONTEXT ( ( #33 ) ) GLOBAL_UNIT_ASSIGNED_CONTEXT ( ( #158, #88, #285 ) ) REPRESENTATION_CONTEXT ( 'NONE', 'WORKASPACE' ) );
#347 = SURFACE_STYLE_USAGE ( .BOTH. , #225 ) ;
#348 = VERTEX_POINT ( 'NONE', #175 ) ;
#349 = CARTESIAN_POINT ( 'NONE',  ( 0.000000000000000000, 0.000000000000000000, 0.000000000000000000 ) ) ;
#350 = ORIENTED_EDGE ( 'NONE', *, *, #95, .T. ) ;
#351 = ADVANCED_FACE ( 'NONE', ( #357 ), #170, .T. ) ;
#352 = DIMENSIONAL_EXPONENTS ( 1.000000000000000000, 0.000000000000000000, 0.000000000000000000, 0.000000000000000000, 0.000000000000000000, 0.000000000000000000, 0.000000000000000000 ) ;
#353 = SURFACE_SIDE_STYLE ('',( #10 ) ) ;
#354 =( NAMED_UNIT ( * ) PLANE_ANGLE_UNIT ( ) SI_UNIT ( $, .RADIAN. ) );
#355 = DIRECTION ( 'NONE',  ( -0.2588190451025211836, 0.9659258262890679791, 0.000000000000000000 ) ) ;
#356 = CARTESIAN_POINT ( 'NONE',  ( 7.582401355855259480E-33, 0.4374999999999998890, 0.000000000000000000 ) ) ;
#357 = FACE_OUTER_BOUND ( 'NONE', #134, .T. ) ;
#358 =( LENGTH_UNIT ( ) NAMED_UNIT ( * ) SI_UNIT ( $, .METRE. ) );
#359 = ADVANCED_FACE ( 'NONE', ( #107 ), #53, .T. ) ;
ENDSEC;
END-ISO-10303-21;
