ISO-10303-21;
HEADER;
FILE_DESCRIPTION (( 'STEP AP214' ),
    '1' );
FILE_NAME ('59514.STEP',
    '2023-07-24T15:08:34',
    ( '' ),
    ( '' ),
    'SwSTEP 2.0',
    'SolidWorks 2023',
    '' );
FILE_SCHEMA (( 'AUTOMOTIVE_DESIGN' ));
ENDSEC;

DATA;
#1 = CIRCLE ( 'NONE', #193, 3.999999999999996447 ) ;
#2 =( NAMED_UNIT ( * ) SI_UNIT ( $, .STERADIAN. ) SOLID_ANGLE_UNIT ( ) );
#3 = SURFACE_STYLE_FILL_AREA ( #84 ) ;
#4 = ORIENTED_EDGE ( 'NONE', *, *, #251, .F. ) ;
#5 = AXIS2_PLACEMENT_3D ( 'NONE', #11, #123, #156 ) ;
#6 = ORIENTED_EDGE ( 'NONE', *, *, #17, .T. ) ;
#7 =( NAMED_UNIT ( * ) SI_UNIT ( $, .STERADIAN. ) SOLID_ANGLE_UNIT ( ) );
#8 = ORIENTED_EDGE ( 'NONE', *, *, #152, .F. ) ;
#9 = CARTESIAN_POINT ( 'NONE',  ( 0.000000000000000000, 0.000000000000000000, 0.000000000000000000 ) ) ;
#10 = CARTESIAN_POINT ( 'NONE',  ( 0.000000000000000000, 0.000000000000000000, 0.000000000000000000 ) ) ;
#11 = CARTESIAN_POINT ( 'NONE',  ( 0.000000000000000000, 0.5000000000000000000, 0.000000000000000000 ) ) ;
#12 = DIRECTION ( 'NONE',  ( 0.000000000000000000, 0.000000000000000000, -1.000000000000000000 ) ) ;
#13 = SHAPE_DEFINITION_REPRESENTATION ( #274, #204 ) ;
#14 = AXIS2_PLACEMENT_3D ( 'NONE', #47, #270, #67 ) ;
#15 = DIRECTION ( 'NONE',  ( 0.000000000000000000, 0.000000000000000000, -1.000000000000000000 ) ) ;
#16 = FILL_AREA_STYLE ('',( #158 ) ) ;
#17 = EDGE_CURVE ( 'NONE', #56, #132, #259, .T. ) ;
#18 = DIRECTION ( 'NONE',  ( 0.000000000000000000, 0.000000000000000000, -1.000000000000000000 ) ) ;
#19 = UNCERTAINTY_MEASURE_WITH_UNIT (LENGTH_MEASURE( 1.000000000000000082E-05 ), #95, 'distance_accuracy_value', 'NONE');
#20 = AXIS2_PLACEMENT_3D ( 'NONE', #248, #174, #63 ) ;
#21 = SURFACE_STYLE_USAGE ( .BOTH. , #141 ) ;
#22 = ORIENTED_EDGE ( 'NONE', *, *, #233, .T. ) ;
#23 =( NAMED_UNIT ( * ) PLANE_ANGLE_UNIT ( ) SI_UNIT ( $, .RADIAN. ) );
#24 = ORIENTED_EDGE ( 'NONE', *, *, #222, .T. ) ;
#25 = EDGE_CURVE ( 'NONE', #61, #341, #33, .T. ) ;
#26 =( NAMED_UNIT ( * ) SI_UNIT ( $, .STERADIAN. ) SOLID_ANGLE_UNIT ( ) );
#27 = ADVANCED_FACE ( 'NONE', ( #42 ), #161, .T. ) ;
#28 = PRESENTATION_LAYER_ASSIGNMENT (  '', '', ( #278 ) ) ;
#29 = PRESENTATION_LAYER_ASSIGNMENT (  '', '', ( #127 ) ) ;
#30 = DIRECTION ( 'NONE',  ( 1.000000000000000000, 1.223542297630008506E-16, 0.000000000000000000 ) ) ;
#31 = PRESENTATION_STYLE_ASSIGNMENT (( #365 ) ) ;
#32 = VERTEX_POINT ( 'NONE', #247 ) ;
#33 = LINE ( 'NONE', #91, #69 ) ;
#34 = EDGE_LOOP ( 'NONE', ( #305, #6 ) ) ;
#35 = MECHANICAL_DESIGN_GEOMETRIC_PRESENTATION_REPRESENTATION (  '', ( #278 ), #115 ) ;
#36 = DIRECTION ( 'NONE',  ( 0.000000000000000000, 1.000000000000000000, 0.000000000000000000 ) ) ;
#37 = CIRCLE ( 'NONE', #352, 4.000000000000000000 ) ;
#38 = CARTESIAN_POINT ( 'NONE',  ( 0.000000000000000000, 0.000000000000000000, -4.000000000000000000 ) ) ;
#39 =( NAMED_UNIT ( * ) PLANE_ANGLE_UNIT ( ) SI_UNIT ( $, .RADIAN. ) );
#40 = CARTESIAN_POINT ( 'NONE',  ( -1.469576158976823750E-15, 75.00000000000000000, 0.000000000000000000 ) ) ;
#41 = EDGE_CURVE ( 'NONE', #331, #341, #108, .T. ) ;
#42 = FACE_OUTER_BOUND ( 'NONE', #207, .T. ) ;
#43 = CIRCLE ( 'NONE', #260, 3.500000000000000000 ) ;
#44 =( GEOMETRIC_REPRESENTATION_CONTEXT ( 3 ) GLOBAL_UNCERTAINTY_ASSIGNED_CONTEXT ( ( #220 ) ) GLOBAL_UNIT_ASSIGNED_CONTEXT ( ( #89, #39, #281 ) ) REPRESENTATION_CONTEXT ( 'NONE', 'WORKASPACE' ) );
#45 = PRESENTATION_STYLE_ASSIGNMENT (( #74 ) ) ;
#46 = CARTESIAN_POINT ( 'NONE',  ( 0.000000000000000000, 0.000000000000000000, 0.000000000000000000 ) ) ;
#47 = CARTESIAN_POINT ( 'NONE',  ( 0.000000000000000000, 24.00000000000000000, 0.000000000000000000 ) ) ;
#48 = PRODUCT ( '59514', '59514', '', ( #340 ) ) ;
#49 = PRESENTATION_STYLE_ASSIGNMENT (( #315 ) ) ;
#50 = SURFACE_SIDE_STYLE ('',( #321 ) ) ;
#51 = EDGE_CURVE ( 'NONE', #58, #216, #297, .T. ) ;
#52 = PRESENTATION_STYLE_ASSIGNMENT (( #138 ) ) ;
#53 = MECHANICAL_DESIGN_GEOMETRIC_PRESENTATION_REPRESENTATION (  '', ( #364 ), #82 ) ;
#54 = AXIS2_PLACEMENT_3D ( 'NONE', #10, #66, #337 ) ;
#55 = PLANE ( 'NONE',  #180 ) ;
#56 = VERTEX_POINT ( 'NONE', #192 ) ;
#57 = CARTESIAN_POINT ( 'NONE',  ( 3.999999999999996447, 75.00000000000000000, 4.898587196589410857E-16 ) ) ;
#58 = VERTEX_POINT ( 'NONE', #75 ) ;
#59 = CIRCLE ( 'NONE', #104, 4.000000000000000000 ) ;
#60 = COLOUR_RGB ( '',0.7921568627450980005, 0.8196078431372548767, 0.9333333333333333481 ) ;
#61 = VERTEX_POINT ( 'NONE', #139 ) ;
#62 = DIRECTION ( 'NONE',  ( -1.000000000000000000, 0.000000000000000000, 0.000000000000000000 ) ) ;
#63 = DIRECTION ( 'NONE',  ( -1.000000000000000000, 0.000000000000000000, 0.000000000000000000 ) ) ;
#64 = ORIENTED_EDGE ( 'NONE', *, *, #179, .F. ) ;
#65 = DIRECTION ( 'NONE',  ( 0.000000000000000000, -0.000000000000000000, 1.000000000000000000 ) ) ;
#66 = DIRECTION ( 'NONE',  ( -0.000000000000000000, -1.000000000000000000, -0.000000000000000000 ) ) ;
#67 = DIRECTION ( 'NONE',  ( 0.000000000000000000, 0.000000000000000000, -1.000000000000000000 ) ) ;
#68 = DIRECTION ( 'NONE',  ( -0.000000000000000000, -1.000000000000000000, -0.000000000000000000 ) ) ;
#69 = VECTOR ( 'NONE', #311, 1000.000000000000000 ) ;
#70 = SURFACE_SIDE_STYLE ('',( #154 ) ) ;
#71 = DIRECTION ( 'NONE',  ( 1.223542297630008506E-16, -1.000000000000000000, 0.000000000000000000 ) ) ;
#72 = EDGE_LOOP ( 'NONE', ( #302, #4 ) ) ;
#73 = FILL_AREA_STYLE_COLOUR ( '', #60 ) ;
#74 = SURFACE_STYLE_USAGE ( .BOTH. , #339 ) ;
#75 = CARTESIAN_POINT ( 'NONE',  ( 4.898587196589412829E-16, 0.5000000000000000000, 4.000000000000000000 ) ) ;
#76 = AXIS2_PLACEMENT_3D ( 'NONE', #46, #98, #214 ) ;
#77 = SURFACE_SIDE_STYLE ('',( #252 ) ) ;
#78 =( NAMED_UNIT ( * ) SI_UNIT ( $, .STERADIAN. ) SOLID_ANGLE_UNIT ( ) );
#79 = DIRECTION ( 'NONE',  ( -0.000000000000000000, -1.000000000000000000, -0.000000000000000000 ) ) ;
#80 = PRESENTATION_LAYER_ASSIGNMENT (  '', '', ( #343 ) ) ;
#81 = DIRECTION ( 'NONE',  ( -1.000000000000000000, 0.000000000000000000, 0.000000000000000000 ) ) ;
#82 =( GEOMETRIC_REPRESENTATION_CONTEXT ( 3 ) GLOBAL_UNCERTAINTY_ASSIGNED_CONTEXT ( ( #223 ) ) GLOBAL_UNIT_ASSIGNED_CONTEXT ( ( #119, #212, #333 ) ) REPRESENTATION_CONTEXT ( 'NONE', 'WORKASPACE' ) );
#83 = LINE ( 'NONE', #38, #94 ) ;
#84 = FILL_AREA_STYLE ('',( #290 ) ) ;
#85 = EDGE_LOOP ( 'NONE', ( #359, #130, #239, #356 ) ) ;
#86 = AXIS2_PLACEMENT_3D ( 'NONE', #226, #316, #81 ) ;
#87 = TOROIDAL_SURFACE ( 'NONE', #211, 3.500000000000000000, 0.5000000000000000000 ) ;
#88 = ORIENTED_EDGE ( 'NONE', *, *, #188, .F. ) ;
#89 =( LENGTH_UNIT ( ) NAMED_UNIT ( * ) SI_UNIT ( .MILLI., .METRE. ) );
#90 = ORIENTED_EDGE ( 'NONE', *, *, #51, .T. ) ;
#91 = CARTESIAN_POINT ( 'NONE',  ( -4.000000000000000000, 75.00000000000000000, 0.000000000000000000 ) ) ;
#92 = DIRECTION ( 'NONE',  ( -1.223542297630008506E-16, 1.000000000000000000, -0.000000000000000000 ) ) ;
#93 = PRODUCT_RELATED_PRODUCT_CATEGORY ( 'part', '', ( #48 ) ) ;
#94 = VECTOR ( 'NONE', #68, 1000.000000000000000 ) ;
#95 =( LENGTH_UNIT ( ) NAMED_UNIT ( * ) SI_UNIT ( .MILLI., .METRE. ) );
#96 = ORIENTED_EDGE ( 'NONE', *, *, #360, .T. ) ;
#97 = SURFACE_STYLE_FILL_AREA ( #182 ) ;
#98 = DIRECTION ( 'NONE',  ( 0.000000000000000000, 0.000000000000000000, 1.000000000000000000 ) ) ;
#99 = DIRECTION ( 'NONE',  ( -1.000000000000000000, -1.223542297630008506E-16, 0.000000000000000000 ) ) ;
#100 =( NAMED_UNIT ( * ) SI_UNIT ( $, .STERADIAN. ) SOLID_ANGLE_UNIT ( ) );
#101 = SURFACE_STYLE_USAGE ( .BOTH. , #285 ) ;
#102 = APPLICATION_CONTEXT ( 'automotive_design' ) ;
#103 = ADVANCED_FACE ( 'NONE', ( #314 ), #258, .T. ) ;
#104 = AXIS2_PLACEMENT_3D ( 'NONE', #177, #304, #194 ) ;
#105 =( GEOMETRIC_REPRESENTATION_CONTEXT ( 3 ) GLOBAL_UNCERTAINTY_ASSIGNED_CONTEXT ( ( #261 ) ) GLOBAL_UNIT_ASSIGNED_CONTEXT ( ( #293, #329, #7 ) ) REPRESENTATION_CONTEXT ( 'NONE', 'WORKASPACE' ) );
#106 = ADVANCED_FACE ( 'NONE', ( #224 ), #255, .T. ) ;
#107 = CYLINDRICAL_SURFACE ( 'NONE', #351, 4.000000000000000000 ) ;
#108 = CIRCLE ( 'NONE', #283, 4.000000000000001776 ) ;
#109 = ORIENTED_EDGE ( 'NONE', *, *, #369, .T. ) ;
#110 = DIRECTION ( 'NONE',  ( 0.000000000000000000, 0.000000000000000000, 1.000000000000000000 ) ) ;
#111 = CARTESIAN_POINT ( 'NONE',  ( 4.770489558936219510E-15, 24.00000000000000000, 0.000000000000000000 ) ) ;
#112 = DIRECTION ( 'NONE',  ( 0.000000000000000000, 0.000000000000000000, -1.000000000000000000 ) ) ;
#113 = DIRECTION ( 'NONE',  ( -1.223542297630008506E-16, 1.000000000000000000, -0.000000000000000000 ) ) ;
#114 = PRESENTATION_STYLE_ASSIGNMENT (( #208 ) ) ;
#115 =( GEOMETRIC_REPRESENTATION_CONTEXT ( 3 ) GLOBAL_UNCERTAINTY_ASSIGNED_CONTEXT ( ( #287 ) ) GLOBAL_UNIT_ASSIGNED_CONTEXT ( ( #187, #282, #100 ) ) REPRESENTATION_CONTEXT ( 'NONE', 'WORKASPACE' ) );
#116 = CARTESIAN_POINT ( 'NONE',  ( 0.000000000000000000, 0.5000000000000000000, 0.000000000000000000 ) ) ;
#117 = AXIS2_PLACEMENT_3D ( 'NONE', #40, #113, #246 ) ;
#118 =( NAMED_UNIT ( * ) PLANE_ANGLE_UNIT ( ) SI_UNIT ( $, .RADIAN. ) );
#119 =( LENGTH_UNIT ( ) NAMED_UNIT ( * ) SI_UNIT ( .MILLI., .METRE. ) );
#120 = CARTESIAN_POINT ( 'NONE',  ( 4.898587196589412829E-16, 24.00000000000000000, 4.000000000000000000 ) ) ;
#121 = EDGE_LOOP ( 'NONE', ( #342, #8 ) ) ;
#122 = FACE_OUTER_BOUND ( 'NONE', #230, .T. ) ;
#123 = DIRECTION ( 'NONE',  ( -0.000000000000000000, -1.000000000000000000, -0.000000000000000000 ) ) ;
#124 = ADVANCED_FACE ( 'NONE', ( #131 ), #186, .T. ) ;
#125 = ADVANCED_FACE ( 'NONE', ( #134 ), #155, .F. ) ;
#126 = CIRCLE ( 'NONE', #14, 4.000000000000000000 ) ;
#127 = STYLED_ITEM ( 'NONE', ( #327 ), #221 ) ;
#128 =( GEOMETRIC_REPRESENTATION_CONTEXT ( 3 ) GLOBAL_UNCERTAINTY_ASSIGNED_CONTEXT ( ( #367 ) ) GLOBAL_UNIT_ASSIGNED_CONTEXT ( ( #228, #23, #26 ) ) REPRESENTATION_CONTEXT ( 'NONE', 'WORKASPACE' ) );
#129 = DIRECTION ( 'NONE',  ( -1.223542297630008506E-16, 1.000000000000000000, 0.000000000000000000 ) ) ;
#130 = ORIENTED_EDGE ( 'NONE', *, *, #251, .T. ) ;
#131 = FACE_OUTER_BOUND ( 'NONE', #34, .T. ) ;
#132 = VERTEX_POINT ( 'NONE', #215 ) ;
#133 = APPLICATION_PROTOCOL_DEFINITION ( 'draft international standard', 'automotive_design', 1998, #102 ) ;
#134 = FACE_OUTER_BOUND ( 'NONE', #72, .T. ) ;
#135 = MECHANICAL_DESIGN_GEOMETRIC_PRESENTATION_REPRESENTATION (  '', ( #343 ), #288 ) ;
#136 = CLOSED_SHELL ( 'NONE', ( #106, #221, #124, #27, #347, #173 ) ) ;
#137 = MANIFOLD_SOLID_BREP ( 'Revolve - Tool Body (Straight Shanked)', #354 ) ;
#138 = SURFACE_STYLE_USAGE ( .BOTH. , #50 ) ;
#139 = CARTESIAN_POINT ( 'NONE',  ( -3.999999999999991562, 24.00000000000000000, 0.000000000000000000 ) ) ;
#140 = CIRCLE ( 'NONE', #344, 3.999999999999996447 ) ;
#141 = SURFACE_SIDE_STYLE ('',( #3 ) ) ;
#142 = SURFACE_STYLE_FILL_AREA ( #291 ) ;
#143 = ORIENTED_EDGE ( 'NONE', *, *, #222, .F. ) ;
#144 = SURFACE_STYLE_FILL_AREA ( #199 ) ;
#145 =( NAMED_UNIT ( * ) PLANE_ANGLE_UNIT ( ) SI_UNIT ( $, .RADIAN. ) );
#146 =( NAMED_UNIT ( * ) SI_UNIT ( $, .STERADIAN. ) SOLID_ANGLE_UNIT ( ) );
#147 = ORIENTED_EDGE ( 'NONE', *, *, #213, .F. ) ;
#148 = ORIENTED_EDGE ( 'NONE', *, *, #152, .T. ) ;
#149 = ORIENTED_EDGE ( 'NONE', *, *, #233, .F. ) ;
#150 = MECHANICAL_DESIGN_GEOMETRIC_PRESENTATION_REPRESENTATION (  '', ( #323 ), #128 ) ;
#151 = ORIENTED_EDGE ( 'NONE', *, *, #308, .T. ) ;
#152 = EDGE_CURVE ( 'NONE', #243, #32, #126, .T. ) ;
#153 = APPLICATION_PROTOCOL_DEFINITION ( 'draft international standard', 'automotive_design', 1998, #310 ) ;
#154 = SURFACE_STYLE_FILL_AREA ( #303 ) ;
#155 = PLANE ( 'NONE',  #319 ) ;
#156 = DIRECTION ( 'NONE',  ( 0.000000000000000000, 0.000000000000000000, -1.000000000000000000 ) ) ;
#157 = ORIENTED_EDGE ( 'NONE', *, *, #17, .F. ) ;
#158 = FILL_AREA_STYLE_COLOUR ( '', #312 ) ;
#159 = DIRECTION ( 'NONE',  ( 0.000000000000000000, 0.000000000000000000, -1.000000000000000000 ) ) ;
#160 = SURFACE_STYLE_FILL_AREA ( #318 ) ;
#161 = TOROIDAL_SURFACE ( 'NONE', #5, 3.500000000000000000, 0.5000000000000000000 ) ;
#162 = MECHANICAL_DESIGN_GEOMETRIC_PRESENTATION_REPRESENTATION (  '', ( #127 ), #105 ) ;
#163 = EDGE_CURVE ( 'NONE', #32, #243, #59, .T. ) ;
#164 = UNCERTAINTY_MEASURE_WITH_UNIT (LENGTH_MEASURE( 1.000000000000000082E-05 ), #345, 'distance_accuracy_value', 'NONE');
#165 = COLOUR_RGB ( '',1.000000000000000000, 0.000000000000000000, 0.000000000000000000 ) ;
#166 = VECTOR ( 'NONE', #170, 1000.000000000000000 ) ;
#167 = FILL_AREA_STYLE_COLOUR ( '', #165 ) ;
#168 = ORIENTED_EDGE ( 'NONE', *, *, #25, .F. ) ;
#169 = LINE ( 'NONE', #294, #203 ) ;
#170 = DIRECTION ( 'NONE',  ( -1.223542297630008506E-16, 1.000000000000000000, -0.000000000000000000 ) ) ;
#171 = PRESENTATION_LAYER_ASSIGNMENT (  '', '', ( #306 ) ) ;
#172 = PRESENTATION_LAYER_ASSIGNMENT (  '', '', ( #323 ) ) ;
#173 = ADVANCED_FACE ( 'NONE', ( #324 ), #55, .T. ) ;
#174 = DIRECTION ( 'NONE',  ( -1.223542297630008506E-16, 1.000000000000000000, -0.000000000000000000 ) ) ;
#175 = SURFACE_SIDE_STYLE ('',( #144 ) ) ;
#176 = DIRECTION ( 'NONE',  ( -0.000000000000000000, -1.000000000000000000, -0.000000000000000000 ) ) ;
#177 = CARTESIAN_POINT ( 'NONE',  ( 0.000000000000000000, 24.00000000000000000, 0.000000000000000000 ) ) ;
#178 = ORIENTED_EDGE ( 'NONE', *, *, #188, .T. ) ;
#179 = EDGE_CURVE ( 'NONE', #132, #56, #43, .T. ) ;
#180 = AXIS2_PLACEMENT_3D ( 'NONE', #299, #36, #65 ) ;
#181 = DIRECTION ( 'NONE',  ( -1.000000000000000000, 0.000000000000000000, 0.000000000000000000 ) ) ;
#182 = FILL_AREA_STYLE ('',( #73 ) ) ;
#183 = DIRECTION ( 'NONE',  ( -1.000000000000000000, 0.000000000000000000, 0.000000000000000000 ) ) ;
#184 = CIRCLE ( 'NONE', #20, 4.000000000000001776 ) ;
#185 = AXIS2_PLACEMENT_3D ( 'NONE', #335, #263, #110 ) ;
#186 = PLANE ( 'NONE',  #231 ) ;
#187 =( LENGTH_UNIT ( ) NAMED_UNIT ( * ) SI_UNIT ( .MILLI., .METRE. ) );
#188 = EDGE_CURVE ( 'NONE', #341, #331, #184, .T. ) ;
#189 = FILL_AREA_STYLE_COLOUR ( '', #209 ) ;
#190 = ADVANCED_FACE ( 'NONE', ( #122 ), #272, .F. ) ;
#191 = DIRECTION ( 'NONE',  ( 0.000000000000000000, -1.000000000000000000, -0.000000000000000000 ) ) ;
#192 = CARTESIAN_POINT ( 'NONE',  ( 4.592425496802573972E-16, 0.000000000000000000, 3.500000000000000000 ) ) ;
#193 = AXIS2_PLACEMENT_3D ( 'NONE', #210, #249, #183 ) ;
#194 = DIRECTION ( 'NONE',  ( 0.000000000000000000, 0.000000000000000000, -1.000000000000000000 ) ) ;
#195 = MECHANICAL_DESIGN_GEOMETRIC_PRESENTATION_REPRESENTATION (  '', ( #202 ), #370 ) ;
#196 =( GEOMETRIC_REPRESENTATION_CONTEXT ( 3 ) GLOBAL_UNCERTAINTY_ASSIGNED_CONTEXT ( ( #353 ) ) GLOBAL_UNIT_ASSIGNED_CONTEXT ( ( #366, #253, #146 ) ) REPRESENTATION_CONTEXT ( 'NONE', 'WORKASPACE' ) );
#197 = FILL_AREA_STYLE_COLOUR ( '', #279 ) ;
#198 = CARTESIAN_POINT ( 'NONE',  ( 4.000000000000000000, 75.00000000000000000, 4.898587196589412829E-16 ) ) ;
#199 = FILL_AREA_STYLE ('',( #197 ) ) ;
#200 = ADVANCED_FACE ( 'NONE', ( #309 ), #301, .T. ) ;
#201 = ORIENTED_EDGE ( 'NONE', *, *, #275, .T. ) ;
#202 = STYLED_ITEM ( 'NONE', ( #31 ), #173 ) ;
#203 = VECTOR ( 'NONE', #234, 1000.000000000000000 ) ;
#204 = ADVANCED_BREP_SHAPE_REPRESENTATION ( '59514', ( #262, #137, #76 ), #44 ) ;
#205 = CARTESIAN_POINT ( 'NONE',  ( 0.000000000000000000, 0.5000000000000000000, -4.000000000000000000 ) ) ;
#206 = ORIENTED_EDGE ( 'NONE', *, *, #41, .T. ) ;
#207 = EDGE_LOOP ( 'NONE', ( #143, #90, #201, #157 ) ) ;
#208 = SURFACE_STYLE_USAGE ( .BOTH. , #70 ) ;
#209 = COLOUR_RGB ( '',1.000000000000000000, 0.000000000000000000, 0.000000000000000000 ) ;
#210 = CARTESIAN_POINT ( 'NONE',  ( 4.770489558936219510E-15, 24.00000000000000000, 0.000000000000000000 ) ) ;
#211 = AXIS2_PLACEMENT_3D ( 'NONE', #116, #295, #112 ) ;
#212 =( NAMED_UNIT ( * ) PLANE_ANGLE_UNIT ( ) SI_UNIT ( $, .RADIAN. ) );
#213 = EDGE_CURVE ( 'NONE', #216, #58, #37, .T. ) ;
#214 = DIRECTION ( 'NONE',  ( 1.000000000000000000, 0.000000000000000000, 0.000000000000000000 ) ) ;
#215 = CARTESIAN_POINT ( 'NONE',  ( 0.000000000000000000, 0.000000000000000000, -3.500000000000000000 ) ) ;
#216 = VERTEX_POINT ( 'NONE', #205 ) ;
#217 = AXIS2_PLACEMENT_3D ( 'NONE', #363, #71, #30 ) ;
#218 = PRODUCT_DEFINITION_FORMATION_WITH_SPECIFIED_SOURCE ( 'ANY', '', #48, .NOT_KNOWN. ) ;
#219 = FILL_AREA_STYLE ('',( #257 ) ) ;
#220 = UNCERTAINTY_MEASURE_WITH_UNIT (LENGTH_MEASURE( 1.000000000000000082E-05 ), #89, 'distance_accuracy_value', 'NONE');
#221 = ADVANCED_FACE ( 'NONE', ( #358 ), #87, .T. ) ;
#222 = EDGE_CURVE ( 'NONE', #58, #56, #227, .T. ) ;
#223 = UNCERTAINTY_MEASURE_WITH_UNIT (LENGTH_MEASURE( 1.000000000000000082E-05 ), #119, 'distance_accuracy_value', 'NONE');
#224 = FACE_OUTER_BOUND ( 'NONE', #338, .T. ) ;
#225 = AXIS2_PLACEMENT_3D ( 'NONE', #346, #368, #15 ) ;
#226 = CARTESIAN_POINT ( 'NONE',  ( -1.469576158976823750E-15, 75.00000000000000000, 0.000000000000000000 ) ) ;
#227 = CIRCLE ( 'NONE', #313, 0.5000000000000000000 ) ;
#228 =( LENGTH_UNIT ( ) NAMED_UNIT ( * ) SI_UNIT ( .MILLI., .METRE. ) );
#229 = CARTESIAN_POINT ( 'NONE',  ( 4.286263797015736595E-16, 0.5000000000000000000, 3.500000000000000000 ) ) ;
#230 = EDGE_LOOP ( 'NONE', ( #178, #206 ) ) ;
#231 = AXIS2_PLACEMENT_3D ( 'NONE', #348, #191, #18 ) ;
#232 = CARTESIAN_POINT ( 'NONE',  ( -4.000000000000003553, 75.00000000000000000, 0.000000000000000000 ) ) ;
#233 = EDGE_CURVE ( 'NONE', #32, #216, #83, .T. ) ;
#234 = DIRECTION ( 'NONE',  ( -0.000000000000000000, -1.000000000000000000, -0.000000000000000000 ) ) ;
#235 = DIRECTION ( 'NONE',  ( -1.223542297630008506E-16, 1.000000000000000000, -0.000000000000000000 ) ) ;
#236 = DIRECTION ( 'NONE',  ( 1.000000000000000000, 0.000000000000000000, -1.224646799147353207E-16 ) ) ;
#237 = EDGE_LOOP ( 'NONE', ( #109, #96, #88, #168 ) ) ;
#238 = DIRECTION ( 'NONE',  ( -0.000000000000000000, -1.000000000000000000, -0.000000000000000000 ) ) ;
#239 = ORIENTED_EDGE ( 'NONE', *, *, #25, .T. ) ;
#240 = PRESENTATION_LAYER_ASSIGNMENT (  '', '', ( #202 ) ) ;
#241 = DIRECTION ( 'NONE',  ( -1.224646799147353454E-16, 0.000000000000000000, -1.000000000000000000 ) ) ;
#242 = VERTEX_POINT ( 'NONE', #245 ) ;
#243 = VERTEX_POINT ( 'NONE', #120 ) ;
#244 = FILL_AREA_STYLE_COLOUR ( '', #296 ) ;
#245 = CARTESIAN_POINT ( 'NONE',  ( 4.000000000000000000, 24.00000000000000000, 4.898587196589413815E-16 ) ) ;
#246 = DIRECTION ( 'NONE',  ( -1.000000000000000000, 0.000000000000000000, 0.000000000000000000 ) ) ;
#247 = CARTESIAN_POINT ( 'NONE',  ( 0.000000000000000000, 24.00000000000000000, -4.000000000000000000 ) ) ;
#248 = CARTESIAN_POINT ( 'NONE',  ( -1.469576158976823750E-15, 75.00000000000000000, 0.000000000000000000 ) ) ;
#249 = DIRECTION ( 'NONE',  ( -1.223542297630008506E-16, 1.000000000000000000, -0.000000000000000000 ) ) ;
#250 = PRESENTATION_LAYER_ASSIGNMENT (  '', '', ( #266 ) ) ;
#251 = EDGE_CURVE ( 'NONE', #242, #61, #1, .T. ) ;
#252 = SURFACE_STYLE_FILL_AREA ( #16 ) ;
#253 =( NAMED_UNIT ( * ) PLANE_ANGLE_UNIT ( ) SI_UNIT ( $, .RADIAN. ) );
#254 = CIRCLE ( 'NONE', #185, 0.5000000000000000000 ) ;
#255 = CYLINDRICAL_SURFACE ( 'NONE', #225, 4.000000000000000000 ) ;
#256 = UNCERTAINTY_MEASURE_WITH_UNIT (LENGTH_MEASURE( 1.000000000000000082E-05 ), #336, 'distance_accuracy_value', 'NONE');
#257 = FILL_AREA_STYLE_COLOUR ( '', #350 ) ;
#258 = CYLINDRICAL_SURFACE ( 'NONE', #86, 3.999999999999998224 ) ;
#259 = CIRCLE ( 'NONE', #54, 3.500000000000000000 ) ;
#260 = AXIS2_PLACEMENT_3D ( 'NONE', #9, #176, #12 ) ;
#261 = UNCERTAINTY_MEASURE_WITH_UNIT (LENGTH_MEASURE( 1.000000000000000082E-05 ), #293, 'distance_accuracy_value', 'NONE');
#262 = MANIFOLD_SOLID_BREP ( 'Revolve - Cutting Edge', #136 ) ;
#263 = DIRECTION ( 'NONE',  ( -1.000000000000000000, 0.000000000000000000, 0.000000000000000000 ) ) ;
#264 = EDGE_LOOP ( 'NONE', ( #292, #148, #22, #332 ) ) ;
#265 = AXIS2_PLACEMENT_3D ( 'NONE', #307, #79, #159 ) ;
#266 = STYLED_ITEM ( 'NONE', ( #45 ), #262 ) ;
#267 = FACE_OUTER_BOUND ( 'NONE', #264, .T. ) ;
#268 =( NAMED_UNIT ( * ) SI_UNIT ( $, .STERADIAN. ) SOLID_ANGLE_UNIT ( ) );
#269 = PRESENTATION_LAYER_ASSIGNMENT (  '', '', ( #364 ) ) ;
#270 = DIRECTION ( 'NONE',  ( -0.000000000000000000, -1.000000000000000000, -0.000000000000000000 ) ) ;
#271 = ORIENTED_EDGE ( 'NONE', *, *, #163, .T. ) ;
#272 = PLANE ( 'NONE',  #217 ) ;
#273 = CARTESIAN_POINT ( 'NONE',  ( -1.469576158976823750E-15, 75.00000000000000000, 0.000000000000000000 ) ) ;
#274 = PRODUCT_DEFINITION_SHAPE ( 'NONE', 'NONE',  #349 ) ;
#275 = EDGE_CURVE ( 'NONE', #216, #132, #254, .T. ) ;
#276 = CARTESIAN_POINT ( 'NONE',  ( 0.000000000000000000, 0.5000000000000000000, 0.000000000000000000 ) ) ;
#277 = EDGE_LOOP ( 'NONE', ( #300, #24, #64, #325 ) ) ;
#278 = STYLED_ITEM ( 'NONE', ( #52 ), #106 ) ;
#279 = COLOUR_RGB ( '',1.000000000000000000, 0.000000000000000000, 0.000000000000000000 ) ;
#280 = CARTESIAN_POINT ( 'NONE',  ( 4.770489558936219510E-15, 24.00000000000000000, 0.000000000000000000 ) ) ;
#281 =( NAMED_UNIT ( * ) SI_UNIT ( $, .STERADIAN. ) SOLID_ANGLE_UNIT ( ) );
#282 =( NAMED_UNIT ( * ) PLANE_ANGLE_UNIT ( ) SI_UNIT ( $, .RADIAN. ) );
#283 = AXIS2_PLACEMENT_3D ( 'NONE', #273, #92, #181 ) ;
#284 = COLOUR_RGB ( '',1.000000000000000000, 0.000000000000000000, 0.000000000000000000 ) ;
#285 = SURFACE_SIDE_STYLE ('',( #160 ) ) ;
#286 =( NAMED_UNIT ( * ) PLANE_ANGLE_UNIT ( ) SI_UNIT ( $, .RADIAN. ) );
#287 = UNCERTAINTY_MEASURE_WITH_UNIT (LENGTH_MEASURE( 1.000000000000000082E-05 ), #187, 'distance_accuracy_value', 'NONE');
#288 =( GEOMETRIC_REPRESENTATION_CONTEXT ( 3 ) GLOBAL_UNCERTAINTY_ASSIGNED_CONTEXT ( ( #164 ) ) GLOBAL_UNIT_ASSIGNED_CONTEXT ( ( #345, #145, #2 ) ) REPRESENTATION_CONTEXT ( 'NONE', 'WORKASPACE' ) );
#289 = MECHANICAL_DESIGN_GEOMETRIC_PRESENTATION_REPRESENTATION (  '', ( #266 ), #196 ) ;
#290 = FILL_AREA_STYLE_COLOUR ( '', #284 ) ;
#291 = FILL_AREA_STYLE ('',( #167 ) ) ;
#292 = ORIENTED_EDGE ( 'NONE', *, *, #308, .F. ) ;
#293 =( LENGTH_UNIT ( ) NAMED_UNIT ( * ) SI_UNIT ( .MILLI., .METRE. ) );
#294 = CARTESIAN_POINT ( 'NONE',  ( 4.898587196589412829E-16, 0.000000000000000000, 4.000000000000000000 ) ) ;
#295 = DIRECTION ( 'NONE',  ( -0.000000000000000000, -1.000000000000000000, -0.000000000000000000 ) ) ;
#296 = COLOUR_RGB ( '',1.000000000000000000, 0.000000000000000000, 0.000000000000000000 ) ;
#297 = CIRCLE ( 'NONE', #265, 4.000000000000000000 ) ;
#298 = SURFACE_STYLE_USAGE ( .BOTH. , #175 ) ;
#299 = CARTESIAN_POINT ( 'NONE',  ( 0.000000000000000000, 24.00000000000000000, 0.000000000000000000 ) ) ;
#300 = ORIENTED_EDGE ( 'NONE', *, *, #213, .T. ) ;
#301 = CYLINDRICAL_SURFACE ( 'NONE', #117, 3.999999999999998224 ) ;
#302 = ORIENTED_EDGE ( 'NONE', *, *, #369, .F. ) ;
#303 = FILL_AREA_STYLE ('',( #244 ) ) ;
#304 = DIRECTION ( 'NONE',  ( -0.000000000000000000, -1.000000000000000000, -0.000000000000000000 ) ) ;
#305 = ORIENTED_EDGE ( 'NONE', *, *, #179, .T. ) ;
#306 = STYLED_ITEM ( 'NONE', ( #320 ), #124 ) ;
#307 = CARTESIAN_POINT ( 'NONE',  ( 0.000000000000000000, 0.5000000000000000000, 0.000000000000000000 ) ) ;
#308 = EDGE_CURVE ( 'NONE', #243, #58, #169, .T. ) ;
#309 = FACE_OUTER_BOUND ( 'NONE', #237, .T. ) ;
#310 = APPLICATION_CONTEXT ( 'automotive_design' ) ;
#311 = DIRECTION ( 'NONE',  ( -1.223542297630008506E-16, 1.000000000000000000, -0.000000000000000000 ) ) ;
#312 = COLOUR_RGB ( '',0.7921568627450980005, 0.8196078431372548767, 0.9333333333333333481 ) ;
#313 = AXIS2_PLACEMENT_3D ( 'NONE', #229, #236, #241 ) ;
#314 = FACE_OUTER_BOUND ( 'NONE', #85, .T. ) ;
#315 = SURFACE_STYLE_USAGE ( .BOTH. , #77 ) ;
#316 = DIRECTION ( 'NONE',  ( -1.223542297630008506E-16, 1.000000000000000000, -0.000000000000000000 ) ) ;
#317 = PRODUCT_DEFINITION_CONTEXT ( 'detailed design', #310, 'design' ) ;
#318 = FILL_AREA_STYLE ('',( #189 ) ) ;
#319 = AXIS2_PLACEMENT_3D ( 'NONE', #280, #129, #99 ) ;
#320 = PRESENTATION_STYLE_ASSIGNMENT (( #101 ) ) ;
#321 = SURFACE_STYLE_FILL_AREA ( #219 ) ;
#322 =( GEOMETRIC_REPRESENTATION_CONTEXT ( 3 ) GLOBAL_UNCERTAINTY_ASSIGNED_CONTEXT ( ( #256 ) ) GLOBAL_UNIT_ASSIGNED_CONTEXT ( ( #336, #286, #78 ) ) REPRESENTATION_CONTEXT ( 'NONE', 'WORKASPACE' ) );
#323 = STYLED_ITEM ( 'NONE', ( #326 ), #347 ) ;
#324 = FACE_OUTER_BOUND ( 'NONE', #121, .T. ) ;
#325 = ORIENTED_EDGE ( 'NONE', *, *, #275, .F. ) ;
#326 = PRESENTATION_STYLE_ASSIGNMENT (( #21 ) ) ;
#327 = PRESENTATION_STYLE_ASSIGNMENT (( #298 ) ) ;
#328 = LINE ( 'NONE', #57, #166 ) ;
#329 =( NAMED_UNIT ( * ) PLANE_ANGLE_UNIT ( ) SI_UNIT ( $, .RADIAN. ) );
#330 = DIRECTION ( 'NONE',  ( 0.000000000000000000, 0.000000000000000000, -1.000000000000000000 ) ) ;
#331 = VERTEX_POINT ( 'NONE', #198 ) ;
#332 = ORIENTED_EDGE ( 'NONE', *, *, #51, .F. ) ;
#333 =( NAMED_UNIT ( * ) SI_UNIT ( $, .STERADIAN. ) SOLID_ANGLE_UNIT ( ) );
#334 = SURFACE_SIDE_STYLE ('',( #142 ) ) ;
#335 = CARTESIAN_POINT ( 'NONE',  ( 0.000000000000000000, 0.5000000000000000000, -3.500000000000000000 ) ) ;
#336 =( LENGTH_UNIT ( ) NAMED_UNIT ( * ) SI_UNIT ( .MILLI., .METRE. ) );
#337 = DIRECTION ( 'NONE',  ( 0.000000000000000000, 0.000000000000000000, -1.000000000000000000 ) ) ;
#338 = EDGE_LOOP ( 'NONE', ( #271, #151, #147, #149 ) ) ;
#339 = SURFACE_SIDE_STYLE ('',( #97 ) ) ;
#340 = PRODUCT_CONTEXT ( 'NONE', #102, 'mechanical' ) ;
#341 = VERTEX_POINT ( 'NONE', #232 ) ;
#342 = ORIENTED_EDGE ( 'NONE', *, *, #163, .F. ) ;
#343 = STYLED_ITEM ( 'NONE', ( #49 ), #137 ) ;
#344 = AXIS2_PLACEMENT_3D ( 'NONE', #111, #235, #62 ) ;
#345 =( LENGTH_UNIT ( ) NAMED_UNIT ( * ) SI_UNIT ( .MILLI., .METRE. ) );
#346 = CARTESIAN_POINT ( 'NONE',  ( 0.000000000000000000, 0.000000000000000000, 0.000000000000000000 ) ) ;
#347 = ADVANCED_FACE ( 'NONE', ( #267 ), #107, .T. ) ;
#348 = CARTESIAN_POINT ( 'NONE',  ( 0.000000000000000000, 0.000000000000000000, 0.000000000000000000 ) ) ;
#349 = PRODUCT_DEFINITION ( 'UNKNOWN', '', #218, #317 ) ;
#350 = COLOUR_RGB ( '',1.000000000000000000, 0.000000000000000000, 0.000000000000000000 ) ;
#351 = AXIS2_PLACEMENT_3D ( 'NONE', #357, #362, #330 ) ;
#352 = AXIS2_PLACEMENT_3D ( 'NONE', #276, #238, #361 ) ;
#353 = UNCERTAINTY_MEASURE_WITH_UNIT (LENGTH_MEASURE( 1.000000000000000082E-05 ), #366, 'distance_accuracy_value', 'NONE');
#354 = CLOSED_SHELL ( 'NONE', ( #200, #125, #103, #190 ) ) ;
#355 = MECHANICAL_DESIGN_GEOMETRIC_PRESENTATION_REPRESENTATION (  '', ( #306 ), #322 ) ;
#356 = ORIENTED_EDGE ( 'NONE', *, *, #41, .F. ) ;
#357 = CARTESIAN_POINT ( 'NONE',  ( 0.000000000000000000, 0.000000000000000000, 0.000000000000000000 ) ) ;
#358 = FACE_OUTER_BOUND ( 'NONE', #277, .T. ) ;
#359 = ORIENTED_EDGE ( 'NONE', *, *, #360, .F. ) ;
#360 = EDGE_CURVE ( 'NONE', #242, #331, #328, .T. ) ;
#361 = DIRECTION ( 'NONE',  ( 0.000000000000000000, 0.000000000000000000, -1.000000000000000000 ) ) ;
#362 = DIRECTION ( 'NONE',  ( -0.000000000000000000, -1.000000000000000000, -0.000000000000000000 ) ) ;
#363 = CARTESIAN_POINT ( 'NONE',  ( 4.000000000000000000, 75.00000000000000000, 0.000000000000000000 ) ) ;
#364 = STYLED_ITEM ( 'NONE', ( #114 ), #27 ) ;
#365 = SURFACE_STYLE_USAGE ( .BOTH. , #334 ) ;
#366 =( LENGTH_UNIT ( ) NAMED_UNIT ( * ) SI_UNIT ( .MILLI., .METRE. ) );
#367 = UNCERTAINTY_MEASURE_WITH_UNIT (LENGTH_MEASURE( 1.000000000000000082E-05 ), #228, 'distance_accuracy_value', 'NONE');
#368 = DIRECTION ( 'NONE',  ( -0.000000000000000000, -1.000000000000000000, -0.000000000000000000 ) ) ;
#369 = EDGE_CURVE ( 'NONE', #61, #242, #140, .T. ) ;
#370 =( GEOMETRIC_REPRESENTATION_CONTEXT ( 3 ) GLOBAL_UNCERTAINTY_ASSIGNED_CONTEXT ( ( #19 ) ) GLOBAL_UNIT_ASSIGNED_CONTEXT ( ( #95, #118, #268 ) ) REPRESENTATION_CONTEXT ( 'NONE', 'WORKASPACE' ) );
ENDSEC;
END-ISO-10303-21;
