ISO-10303-21;
HEADER;
FILE_DESCRIPTION (( 'STEP AP214' ),
    '1' );
FILE_NAME ('Micro_SBMM-100-272.STEP',
    '2021-09-02T17:21:24',
    ( '' ),
    ( '' ),
    'SwSTEP 2.0',
    'SolidWorks 2020',
    '' );
FILE_SCHEMA (( 'AUTOMOTIVE_DESIGN' ));
ENDSEC;

DATA;
#1 =( NAMED_UNIT ( * ) SI_UNIT ( $, .STERADIAN. ) SOLID_ANGLE_UNIT ( ) );
#2 = EDGE_LOOP ( 'NONE', ( #341, #292, #143, #264 ) ) ;
#3 = EDGE_CURVE ( 'NONE', #26, #56, #64, .T. ) ;
#4 = ORIENTED_EDGE ( 'NONE', *, *, #3, .F. ) ;
#5 = EDGE_CURVE ( 'NONE', #324, #65, #269, .T. ) ;
#6 = ORIENTED_EDGE ( 'NONE', *, *, #225, .F. ) ;
#7 = PRODUCT_DEFINITION_FORMATION_WITH_SPECIFIED_SOURCE ( 'ANY', '', #256, .NOT_KNOWN. ) ;
#8 =( GEOMETRIC_REPRESENTATION_CONTEXT ( 3 ) GLOBAL_UNCERTAINTY_ASSIGNED_CONTEXT ( ( #227 ) ) GLOBAL_UNIT_ASSIGNED_CONTEXT ( ( #28, #133, #110 ) ) REPRESENTATION_CONTEXT ( 'NONE', 'WORKASPACE' ) );
#9 = ORIENTED_EDGE ( 'NONE', *, *, #145, .T. ) ;
#10 = VECTOR ( 'NONE', #11, 39.37007874015748143 ) ;
#11 = DIRECTION ( 'NONE',  ( -0.0000000000000000000, -0.0000000000000000000, -1.000000000000000000 ) ) ;
#12 = PRESENTATION_LAYER_ASSIGNMENT (  '', '', ( #305 ) ) ;
#13 = CARTESIAN_POINT ( 'NONE',  ( 0.0000000000000000000, 0.0000000000000000000, 3.937007999999999619 ) ) ;
#14 = DIRECTION ( 'NONE',  ( -1.000000000000000000, 0.0000000000000000000, 0.0000000000000000000 ) ) ;
#15 = UNCERTAINTY_MEASURE_WITH_UNIT (LENGTH_MEASURE( 1.000000000000000082E-05 ), #52, 'distance_accuracy_value', 'NONE');
#16 = ADVANCED_FACE ( 'NONE', ( #247 ), #91, .T. ) ;
#17 = LINE ( 'NONE', #329, #10 ) ;
#18 = LINE ( 'NONE', #204, #330 ) ;
#19 = DIRECTION ( 'NONE',  ( -0.0000000000000000000, -0.0000000000000000000, -1.000000000000000000 ) ) ;
#20 = AXIS2_PLACEMENT_3D ( 'NONE', #303, #226, #150 ) ;
#21 = DIRECTION ( 'NONE',  ( -1.000000000000000000, 0.0000000000000000000, 0.0000000000000000000 ) ) ;
#22 = CARTESIAN_POINT ( 'NONE',  ( 0.0000000000000000000, 0.0000000000000000000, 2.165353999999999779 ) ) ;
#23 =( LENGTH_UNIT ( ) NAMED_UNIT ( * ) SI_UNIT ( $, .METRE. ) );
#24 = FACE_OUTER_BOUND ( 'NONE', #190, .T. ) ;
#25 = EDGE_CURVE ( 'NONE', #80, #113, #307, .T. ) ;
#26 = VERTEX_POINT ( 'NONE', #102 ) ;
#27 =( NAMED_UNIT ( * ) SI_UNIT ( $, .STERADIAN. ) SOLID_ANGLE_UNIT ( ) );
#28 =( CONVERSION_BASED_UNIT ( 'INCH', #282 ) LENGTH_UNIT ( ) NAMED_UNIT ( #212 ) );
#29 = ORIENTED_EDGE ( 'NONE', *, *, #180, .T. ) ;
#30 = LENGTH_MEASURE_WITH_UNIT ( LENGTH_MEASURE( 0.02539999999999999897 ), #191 );
#31 = AXIS2_PLACEMENT_3D ( 'NONE', #184, #337, #21 ) ;
#32 = CIRCLE ( 'NONE', #122, 0.1318899999999999517 ) ;
#33 = ORIENTED_EDGE ( 'NONE', *, *, #201, .T. ) ;
#34 = EDGE_CURVE ( 'NONE', #345, #167, #18, .T. ) ;
#35 = ORIENTED_EDGE ( 'NONE', *, *, #108, .F. ) ;
#36 = CARTESIAN_POINT ( 'NONE',  ( 0.0000000000000000000, 0.0000000000000000000, 3.937007999999999619 ) ) ;
#37 = DIRECTION ( 'NONE',  ( -0.0000000000000000000, -0.0000000000000000000, -1.000000000000000000 ) ) ;
#38 =( GEOMETRIC_REPRESENTATION_CONTEXT ( 3 ) GLOBAL_UNCERTAINTY_ASSIGNED_CONTEXT ( ( #15 ) ) GLOBAL_UNIT_ASSIGNED_CONTEXT ( ( #52, #160, #27 ) ) REPRESENTATION_CONTEXT ( 'NONE', 'WORKASPACE' ) );
#39 = AXIS2_PLACEMENT_3D ( 'NONE', #332, #176, #46 ) ;
#40 = CARTESIAN_POINT ( 'NONE',  ( 0.0000000000000000000, 0.0000000000000000000, 0.1968500000000000250 ) ) ;
#41 = EDGE_CURVE ( 'NONE', #93, #273, #188, .T. ) ;
#42 = DIRECTION ( 'NONE',  ( -0.0000000000000000000, -0.0000000000000000000, -1.000000000000000000 ) ) ;
#43 = CIRCLE ( 'NONE', #239, 0.1818504999999994431 ) ;
#44 = CARTESIAN_POINT ( 'NONE',  ( 0.0000000000000000000, 0.0000000000000000000, 0.3429833309002433550 ) ) ;
#45 = EDGE_CURVE ( 'NONE', #136, #271, #75, .T. ) ;
#46 = DIRECTION ( 'NONE',  ( 1.000000000000000000, 0.0000000000000000000, 0.0000000000000000000 ) ) ;
#47 = DIRECTION ( 'NONE',  ( 1.000000000000000000, 0.0000000000000000000, -0.0000000000000000000 ) ) ;
#48 = DIRECTION ( 'NONE',  ( -1.000000000000000000, 0.0000000000000000000, 0.0000000000000000000 ) ) ;
#49 = DIRECTION ( 'NONE',  ( 0.0000000000000000000, 1.000000000000000000, 0.0000000000000000000 ) ) ;
#50 = DIRECTION ( 'NONE',  ( 0.0000000000000000000, 0.0000000000000000000, 1.000000000000000000 ) ) ;
#51 = DIRECTION ( 'NONE',  ( -0.0000000000000000000, -0.0000000000000000000, -1.000000000000000000 ) ) ;
#52 =( CONVERSION_BASED_UNIT ( 'INCH', #342 ) LENGTH_UNIT ( ) NAMED_UNIT ( #82 ) );
#53 = CARTESIAN_POINT ( 'NONE',  ( 0.1968504999999999838, 2.410723347355560646E-17, 2.677165000000000017 ) ) ;
#54 = EDGE_LOOP ( 'NONE', ( #213, #216, #211, #321 ) ) ;
#55 = LINE ( 'NONE', #138, #92 ) ;
#56 = VERTEX_POINT ( 'NONE', #284 ) ;
#57 = EDGE_CURVE ( 'NONE', #56, #26, #43, .T. ) ;
#58 = AXIS2_PLACEMENT_3D ( 'NONE', #36, #128, #47 ) ;
#59 = AXIS2_PLACEMENT_3D ( 'NONE', #155, #19, #79 ) ;
#60 = ORIENTED_EDGE ( 'NONE', *, *, #41, .F. ) ;
#61 = ADVANCED_FACE ( 'NONE', ( #78 ), #253, .T. ) ;
#62 = AXIS2_PLACEMENT_3D ( 'NONE', #186, #285, #261 ) ;
#63 = EDGE_LOOP ( 'NONE', ( #240, #120, #297, #6 ) ) ;
#64 = CIRCLE ( 'NONE', #72, 0.1818504999999994431 ) ;
#65 = VERTEX_POINT ( 'NONE', #281 ) ;
#66 = MANIFOLD_SOLID_BREP ( 'Cut-Revolve3', #254 ) ;
#67 = CARTESIAN_POINT ( 'NONE',  ( -0.1318899999999998407, 0.0000000000000000000, 0.0000000000000000000 ) ) ;
#68 = DIRECTION ( 'NONE',  ( -1.000000000000000000, 0.0000000000000000000, 0.0000000000000000000 ) ) ;
#69 = ADVANCED_FACE ( 'NONE', ( #258 ), #209, .T. ) ;
#70 = AXIS2_PLACEMENT_3D ( 'NONE', #238, #339, #343 ) ;
#71 = DIRECTION ( 'NONE',  ( 1.000000000000000000, 0.0000000000000000000, 0.0000000000000000000 ) ) ;
#72 = AXIS2_PLACEMENT_3D ( 'NONE', #220, #300, #274 ) ;
#73 = AXIS2_PLACEMENT_3D ( 'NONE', #197, #71, #49 ) ;
#74 = CARTESIAN_POINT ( 'NONE',  ( 0.1318899999999997574, 0.0000000000000000000, 2.165353999999999779 ) ) ;
#75 = LINE ( 'NONE', #131, #171 ) ;
#76 =( CONVERSION_BASED_UNIT ( 'INCH', #30 ) LENGTH_UNIT ( ) NAMED_UNIT ( #112 ) );
#77 = DIRECTION ( 'NONE',  ( -0.0000000000000000000, -0.0000000000000000000, -1.000000000000000000 ) ) ;
#78 = FACE_OUTER_BOUND ( 'NONE', #318, .T. ) ;
#79 = DIRECTION ( 'NONE',  ( -1.000000000000000000, 0.0000000000000000000, 0.0000000000000000000 ) ) ;
#80 = VERTEX_POINT ( 'NONE', #263 ) ;
#81 = APPLICATION_PROTOCOL_DEFINITION ( 'draft international standard', 'automotive_design', 1998, #315 ) ;
#82 = DIMENSIONAL_EXPONENTS ( 1.000000000000000000, 0.0000000000000000000, 0.0000000000000000000, 0.0000000000000000000, 0.0000000000000000000, 0.0000000000000000000, 0.0000000000000000000 ) ;
#83 = ORIENTED_EDGE ( 'NONE', *, *, #25, .T. ) ;
#84 = SURFACE_SIDE_STYLE ('',( #109 ) ) ;
#85 = EDGE_LOOP ( 'NONE', ( #316, #237, #272, #35 ) ) ;
#86 = SURFACE_STYLE_USAGE ( .BOTH. , #84 ) ;
#87 =( GEOMETRIC_REPRESENTATION_CONTEXT ( 3 ) GLOBAL_UNCERTAINTY_ASSIGNED_CONTEXT ( ( #179 ) ) GLOBAL_UNIT_ASSIGNED_CONTEXT ( ( #76, #132, #1 ) ) REPRESENTATION_CONTEXT ( 'NONE', 'WORKASPACE' ) );
#88 = ORIENTED_EDGE ( 'NONE', *, *, #164, .F. ) ;
#89 = CIRCLE ( 'NONE', #59, 0.1318899999999999517 ) ;
#90 = EDGE_CURVE ( 'NONE', #324, #167, #55, .T. ) ;
#91 = PLANE ( 'NONE',  #58 ) ;
#92 = VECTOR ( 'NONE', #231, 39.37007874015748854 ) ;
#93 = VERTEX_POINT ( 'NONE', #107 ) ;
#94 = EDGE_CURVE ( 'NONE', #136, #345, #177, .T. ) ;
#95 = CARTESIAN_POINT ( 'NONE',  ( 0.0000000000000000000, 0.0000000000000000000, 3.937007999999999619 ) ) ;
#96 = DIRECTION ( 'NONE',  ( -1.000000000000000000, 0.0000000000000000000, 0.0000000000000000000 ) ) ;
#97 = DIRECTION ( 'NONE',  ( -0.1259126916184463429, 1.541985747625580814E-17, 0.9920413268051881950 ) ) ;
#98 = PRODUCT_DEFINITION_CONTEXT ( 'detailed design', #315, 'design' ) ;
#99 = CARTESIAN_POINT ( 'NONE',  ( 0.0000000000000000000, 0.0000000000000000000, 2.832259636364403033 ) ) ;
#100 = AXIS2_PLACEMENT_3D ( 'NONE', #115, #158, #293 ) ;
#101 = CARTESIAN_POINT ( 'NONE',  ( 1.615186663395443625E-17, -0.1318899999999999795, 0.3429833309002433550 ) ) ;
#102 = CARTESIAN_POINT ( 'NONE',  ( -0.1818504999999994431, 0.0000000000000000000, 3.937007999999999619 ) ) ;
#103 = DIRECTION ( 'NONE',  ( -0.0000000000000000000, -0.0000000000000000000, -1.000000000000000000 ) ) ;
#104 = CIRCLE ( 'NONE', #151, 0.1968504999999999838 ) ;
#105 = DIRECTION ( 'NONE',  ( -1.000000000000000000, 0.0000000000000000000, 0.0000000000000000000 ) ) ;
#106 = FILL_AREA_STYLE ('',( #137 ) ) ;
#107 = CARTESIAN_POINT ( 'NONE',  ( 0.1318899999999999240, 1.615186663395443317E-17, 0.3429833309002433550 ) ) ;
#108 = EDGE_CURVE ( 'NONE', #271, #167, #298, .T. ) ;
#109 = SURFACE_STYLE_FILL_AREA ( #106 ) ;
#110 =( NAMED_UNIT ( * ) SI_UNIT ( $, .STERADIAN. ) SOLID_ANGLE_UNIT ( ) );
#111 = ORIENTED_EDGE ( 'NONE', *, *, #249, .F. ) ;
#112 = DIMENSIONAL_EXPONENTS ( 1.000000000000000000, 0.0000000000000000000, 0.0000000000000000000, 0.0000000000000000000, 0.0000000000000000000, 0.0000000000000000000, 0.0000000000000000000 ) ;
#113 = VERTEX_POINT ( 'NONE', #312 ) ;
#114 = ADVANCED_FACE ( 'NONE', ( #129 ), #344, .T. ) ;
#115 = CARTESIAN_POINT ( 'NONE',  ( 0.0000000000000000000, 0.0000000000000000000, 0.1968500000000000250 ) ) ;
#116 = ORIENTED_EDGE ( 'NONE', *, *, #25, .F. ) ;
#117 = ORIENTED_EDGE ( 'NONE', *, *, #41, .T. ) ;
#118 = ORIENTED_EDGE ( 'NONE', *, *, #45, .F. ) ;
#119 = PRESENTATION_LAYER_ASSIGNMENT (  '', '', ( #130 ) ) ;
#120 = ORIENTED_EDGE ( 'NONE', *, *, #317, .T. ) ;
#121 = AXIS2_PLACEMENT_3D ( 'NONE', #172, #37, #195 ) ;
#122 = AXIS2_PLACEMENT_3D ( 'NONE', #44, #153, #333 ) ;
#123 = FACE_OUTER_BOUND ( 'NONE', #242, .T. ) ;
#124 = PRODUCT_RELATED_PRODUCT_CATEGORY ( 'part', '', ( #256 ) ) ;
#125 = CARTESIAN_POINT ( 'NONE',  ( -0.1318899999999999240, 0.0000000000000000000, 0.3429833309002433550 ) ) ;
#126 = FACE_OUTER_BOUND ( 'NONE', #325, .T. ) ;
#127 = CARTESIAN_POINT ( 'NONE',  ( -0.1818504999999994431, 0.0000000000000000000, 3.937007999999999619 ) ) ;
#128 = DIRECTION ( 'NONE',  ( 0.0000000000000000000, 0.0000000000000000000, 1.000000000000000000 ) ) ;
#129 = FACE_OUTER_BOUND ( 'NONE', #54, .T. ) ;
#130 = STYLED_ITEM ( 'NONE', ( #268 ), #228 ) ;
#131 = CARTESIAN_POINT ( 'NONE',  ( -0.1968504999999999838, 0.0000000000000000000, 3.937007999999999619 ) ) ;
#132 =( NAMED_UNIT ( * ) PLANE_ANGLE_UNIT ( ) SI_UNIT ( $, .RADIAN. ) );
#133 =( NAMED_UNIT ( * ) PLANE_ANGLE_UNIT ( ) SI_UNIT ( $, .RADIAN. ) );
#134 = CIRCLE ( 'NONE', #39, 0.1968504999999999838 ) ;
#135 = DIRECTION ( 'NONE',  ( -1.000000000000000000, 0.0000000000000000000, 0.0000000000000000000 ) ) ;
#136 = VERTEX_POINT ( 'NONE', #306 ) ;
#137 = FILL_AREA_STYLE_COLOUR ( '', #200 ) ;
#138 = CARTESIAN_POINT ( 'NONE',  ( 0.2165355499999996880, 0.0000000000000000000, 2.832259636364403033 ) ) ;
#139 = ORIENTED_EDGE ( 'NONE', *, *, #164, .T. ) ;
#140 = AXIS2_PLACEMENT_3D ( 'NONE', #311, #309, #207 ) ;
#141 = AXIS2_PLACEMENT_3D ( 'NONE', #22, #103, #48 ) ;
#142 = ORIENTED_EDGE ( 'NONE', *, *, #173, .F. ) ;
#143 = ORIENTED_EDGE ( 'NONE', *, *, #45, .T. ) ;
#144 = ORIENTED_EDGE ( 'NONE', *, *, #286, .F. ) ;
#145 = EDGE_CURVE ( 'NONE', #65, #324, #235, .T. ) ;
#146 = ORIENTED_EDGE ( 'NONE', *, *, #317, .F. ) ;
#147 = VECTOR ( 'NONE', #182, 39.37007874015748143 ) ;
#148 = CIRCLE ( 'NONE', #168, 0.1318899999999999517 ) ;
#149 = FACE_OUTER_BOUND ( 'NONE', #63, .T. ) ;
#150 = DIRECTION ( 'NONE',  ( 1.000000000000000000, 0.0000000000000000000, 0.0000000000000000000 ) ) ;
#151 = AXIS2_PLACEMENT_3D ( 'NONE', #198, #308, #175 ) ;
#152 = LINE ( 'NONE', #127, #296 ) ;
#153 = DIRECTION ( 'NONE',  ( -0.0000000000000000000, -0.0000000000000000000, -1.000000000000000000 ) ) ;
#154 = FILL_AREA_STYLE_COLOUR ( '', #221 ) ;
#155 = CARTESIAN_POINT ( 'NONE',  ( 0.0000000000000000000, 0.0000000000000000000, 0.3429833309002433550 ) ) ;
#156 = DIRECTION ( 'NONE',  ( -0.7071067811865419106, 0.0000000000000000000, -0.7071067811865531239 ) ) ;
#157 = DIRECTION ( 'NONE',  ( 0.0000000000000000000, 0.0000000000000000000, 1.000000000000000000 ) ) ;
#158 = DIRECTION ( 'NONE',  ( 1.000000000000000000, 0.0000000000000000000, 0.0000000000000000000 ) ) ;
#159 = DIRECTION ( 'NONE',  ( -1.000000000000000000, 0.0000000000000000000, 0.0000000000000000000 ) ) ;
#160 =( NAMED_UNIT ( * ) PLANE_ANGLE_UNIT ( ) SI_UNIT ( $, .RADIAN. ) );
#161 = DIRECTION ( 'NONE',  ( -0.0000000000000000000, -0.0000000000000000000, -1.000000000000000000 ) ) ;
#162 = ORIENTED_EDGE ( 'NONE', *, *, #173, .T. ) ;
#163 = DIRECTION ( 'NONE',  ( 0.0000000000000000000, 0.0000000000000000000, 1.000000000000000000 ) ) ;
#164 = EDGE_CURVE ( 'NONE', #273, #218, #89, .T. ) ;
#165 = ORIENTED_EDGE ( 'NONE', *, *, #3, .T. ) ;
#166 = AXIS2_PLACEMENT_3D ( 'NONE', #291, #288, #265 ) ;
#167 = VERTEX_POINT ( 'NONE', #53 ) ;
#168 = AXIS2_PLACEMENT_3D ( 'NONE', #310, #77, #183 ) ;
#169 = EDGE_LOOP ( 'NONE', ( #187, #139, #295, #83 ) ) ;
#170 = ADVANCED_FACE ( 'NONE', ( #24 ), #336, .T. ) ;
#171 = VECTOR ( 'NONE', #230, 39.37007874015748143 ) ;
#172 = CARTESIAN_POINT ( 'NONE',  ( 0.0000000000000000000, 0.0000000000000000000, 2.165353999999999779 ) ) ;
#173 = EDGE_CURVE ( 'NONE', #80, #93, #148, .T. ) ;
#174 = ORIENTED_EDGE ( 'NONE', *, *, #5, .T. ) ;
#175 = DIRECTION ( 'NONE',  ( 1.000000000000000000, 0.0000000000000000000, 0.0000000000000000000 ) ) ;
#176 = DIRECTION ( 'NONE',  ( 0.0000000000000000000, 0.0000000000000000000, 1.000000000000000000 ) ) ;
#177 = CIRCLE ( 'NONE', #62, 0.1968504999999999838 ) ;
#178 = DIRECTION ( 'NONE',  ( 0.0000000000000000000, 0.0000000000000000000, -1.000000000000000000 ) ) ;
#179 = UNCERTAINTY_MEASURE_WITH_UNIT (LENGTH_MEASURE( 1.000000000000000082E-05 ), #76, 'distance_accuracy_value', 'NONE');
#180 = EDGE_CURVE ( 'NONE', #167, #271, #134, .T. ) ;
#181 = APPLICATION_CONTEXT ( 'automotive_design' ) ;
#182 = DIRECTION ( 'NONE',  ( 0.7071067811865419106, 8.659560562354863833E-17, -0.7071067811865531239 ) ) ;
#183 = DIRECTION ( 'NONE',  ( -1.000000000000000000, 0.0000000000000000000, 0.0000000000000000000 ) ) ;
#184 = CARTESIAN_POINT ( 'NONE',  ( 0.0000000000000000000, 0.0000000000000000000, 3.937007999999999619 ) ) ;
#185 = PRODUCT_CONTEXT ( 'NONE', #181, 'mechanical' ) ;
#186 = CARTESIAN_POINT ( 'NONE',  ( 0.0000000000000000000, 0.0000000000000000000, 3.922007999999999051 ) ) ;
#187 = ORIENTED_EDGE ( 'NONE', *, *, #201, .F. ) ;
#188 = CIRCLE ( 'NONE', #140, 0.1318899999999999517 ) ;
#189 = PRODUCT_DEFINITION_SHAPE ( 'NONE', 'NONE',  #340 ) ;
#190 = EDGE_LOOP ( 'NONE', ( #243, #326, #29, #118 ) ) ;
#191 =( LENGTH_UNIT ( ) NAMED_UNIT ( * ) SI_UNIT ( $, .METRE. ) );
#192 = ORIENTED_EDGE ( 'NONE', *, *, #57, .T. ) ;
#193 = ORIENTED_EDGE ( 'NONE', *, *, #225, .T. ) ;
#194 = AXIS2_PLACEMENT_3D ( 'NONE', #205, #161, #135 ) ;
#195 = DIRECTION ( 'NONE',  ( -1.000000000000000000, 0.0000000000000000000, 0.0000000000000000000 ) ) ;
#196 = ORIENTED_EDGE ( 'NONE', *, *, #244, .T. ) ;
#197 = CARTESIAN_POINT ( 'NONE',  ( 0.0000000000000000000, 0.0000000000000000000, 0.1968500000000000250 ) ) ;
#198 = CARTESIAN_POINT ( 'NONE',  ( 0.0000000000000000000, 0.0000000000000000000, 3.922007999999999051 ) ) ;
#199 = CARTESIAN_POINT ( 'NONE',  ( -0.1968504999999999838, 0.0000000000000000000, 2.677165000000000017 ) ) ;
#200 = COLOUR_RGB ( '',0.7921568627450980005, 0.8196078431372548767, 0.9333333333333333481 ) ;
#201 = EDGE_CURVE ( 'NONE', #273, #113, #323, .T. ) ;
#202 = CARTESIAN_POINT ( 'NONE',  ( 0.0000000000000000000, 0.0000000000000000000, 0.0000000000000000000 ) ) ;
#203 = CARTESIAN_POINT ( 'NONE',  ( 0.1818504999999994431, 2.227026327483450676E-17, 3.937007999999999619 ) ) ;
#204 = CARTESIAN_POINT ( 'NONE',  ( 0.1968504999999999838, 2.410723347355560646E-17, 3.937007999999999619 ) ) ;
#205 = CARTESIAN_POINT ( 'NONE',  ( 0.0000000000000000000, 0.0000000000000000000, 3.937007999999999619 ) ) ;
#206 = AXIS2_PLACEMENT_3D ( 'NONE', #95, #178, #96 ) ;
#207 = DIRECTION ( 'NONE',  ( -1.000000000000000000, 0.0000000000000000000, 0.0000000000000000000 ) ) ;
#208 = PRESENTATION_STYLE_ASSIGNMENT (( #236 ) ) ;
#209 = CYLINDRICAL_SURFACE ( 'NONE', #210, 0.1318899999999998407 ) ;
#210 = AXIS2_PLACEMENT_3D ( 'NONE', #202, #51, #159 ) ;
#211 = ORIENTED_EDGE ( 'NONE', *, *, #180, .F. ) ;
#212 = DIMENSIONAL_EXPONENTS ( 1.000000000000000000, 0.0000000000000000000, 0.0000000000000000000, 0.0000000000000000000, 0.0000000000000000000, 0.0000000000000000000, 0.0000000000000000000 ) ;
#213 = ORIENTED_EDGE ( 'NONE', *, *, #145, .F. ) ;
#214 = ADVANCED_FACE ( 'NONE', ( #224 ), #251, .T. ) ;
#215 = ORIENTED_EDGE ( 'NONE', *, *, #275, .T. ) ;
#216 = ORIENTED_EDGE ( 'NONE', *, *, #322, .T. ) ;
#217 = ADVANCED_FACE ( 'NONE', ( #149 ), #222, .T. ) ;
#218 = VERTEX_POINT ( 'NONE', #125 ) ;
#219 = AXIS2_PLACEMENT_3D ( 'NONE', #13, #276, #68 ) ;
#220 = CARTESIAN_POINT ( 'NONE',  ( 0.0000000000000000000, 0.0000000000000000000, 3.937007999999999619 ) ) ;
#221 = COLOUR_RGB ( '',0.7921568627450980005, 0.8196078431372548767, 0.9333333333333333481 ) ;
#222 = CONICAL_SURFACE ( 'NONE', #206, 0.1818504999999994431, 0.7853981633974403964 ) ;
#223 = LINE ( 'NONE', #203, #147 ) ;
#224 = FACE_OUTER_BOUND ( 'NONE', #169, .T. ) ;
#225 = EDGE_CURVE ( 'NONE', #26, #136, #152, .T. ) ;
#226 = DIRECTION ( 'NONE',  ( 0.0000000000000000000, 0.0000000000000000000, 1.000000000000000000 ) ) ;
#227 = UNCERTAINTY_MEASURE_WITH_UNIT (LENGTH_MEASURE( 1.000000000000000082E-05 ), #28, 'distance_accuracy_value', 'NONE');
#228 = ADVANCED_BREP_SHAPE_REPRESENTATION ( 'Micro_SBMM-100-272', ( #66, #166 ), #38 ) ;
#229 = FACE_OUTER_BOUND ( 'NONE', #85, .T. ) ;
#230 = DIRECTION ( 'NONE',  ( -0.0000000000000000000, -0.0000000000000000000, -1.000000000000000000 ) ) ;
#231 = DIRECTION ( 'NONE',  ( 0.1259126916184463429, 0.0000000000000000000, 0.9920413268051881950 ) ) ;
#232 = DIRECTION ( 'NONE',  ( -0.0000000000000000000, -0.0000000000000000000, -1.000000000000000000 ) ) ;
#233 = CARTESIAN_POINT ( 'NONE',  ( 0.1968504999999999838, 2.410723347355560646E-17, 3.922007999999999051 ) ) ;
#234 = SURFACE_SIDE_STYLE ('',( #289 ) ) ;
#235 = CIRCLE ( 'NONE', #141, 0.1318899999999997574 ) ;
#236 = SURFACE_STYLE_USAGE ( .BOTH. , #234 ) ;
#237 = ORIENTED_EDGE ( 'NONE', *, *, #5, .F. ) ;
#238 = CARTESIAN_POINT ( 'NONE',  ( 0.0000000000000000000, 0.0000000000000000000, 2.677165000000000017 ) ) ;
#239 = AXIS2_PLACEMENT_3D ( 'NONE', #260, #50, #287 ) ;
#240 = ORIENTED_EDGE ( 'NONE', *, *, #57, .F. ) ;
#241 = SHAPE_DEFINITION_REPRESENTATION ( #189, #228 ) ;
#242 = EDGE_LOOP ( 'NONE', ( #299, #174, #196, #88, #60 ) ) ;
#243 = ORIENTED_EDGE ( 'NONE', *, *, #94, .T. ) ;
#244 = EDGE_CURVE ( 'NONE', #65, #218, #302, .T. ) ;
#245 = ORIENTED_EDGE ( 'NONE', *, *, #244, .F. ) ;
#246 = VECTOR ( 'NONE', #97, 39.37007874015748854 ) ;
#247 = FACE_OUTER_BOUND ( 'NONE', #267, .T. ) ;
#248 = AXIS2_PLACEMENT_3D ( 'NONE', #257, #105, #157 ) ;
#249 = EDGE_CURVE ( 'NONE', #218, #80, #32, .T. ) ;
#250 = AXIS2_PLACEMENT_3D ( 'NONE', #331, #280, #14 ) ;
#251 = SPHERICAL_SURFACE ( 'NONE', #73, 0.1968500000000000250 ) ;
#252 = CARTESIAN_POINT ( 'NONE',  ( -0.2165355499999996880, 2.651795682091112828E-17, 2.832259636364403033 ) ) ;
#253 = CONICAL_SURFACE ( 'NONE', #31, 0.1818504999999994431, 0.7853981633974403964 ) ;
#254 = CLOSED_SHELL ( 'NONE', ( #69, #335, #114, #217, #170, #327, #16, #61, #301, #214, #262 ) ) ;
#255 = CYLINDRICAL_SURFACE ( 'NONE', #250, 0.1318899999999998407 ) ;
#256 = PRODUCT ( 'Micro_SBMM-100-272', 'Micro_SBMM-100-272', '', ( #185 ) ) ;
#257 = CARTESIAN_POINT ( 'NONE',  ( 0.0000000000000000000, 0.0000000000000000000, 0.1968500000000000250 ) ) ;
#258 = FACE_OUTER_BOUND ( 'NONE', #290, .T. ) ;
#259 = CYLINDRICAL_SURFACE ( 'NONE', #219, 0.1968504999999999838 ) ;
#260 = CARTESIAN_POINT ( 'NONE',  ( 0.0000000000000000000, 0.0000000000000000000, 3.937007999999999619 ) ) ;
#261 = DIRECTION ( 'NONE',  ( 1.000000000000000000, 0.0000000000000000000, 0.0000000000000000000 ) ) ;
#262 = ADVANCED_FACE ( 'NONE', ( #123 ), #255, .T. ) ;
#263 = CARTESIAN_POINT ( 'NONE',  ( 0.0000000000000000000, 0.1318899999999999795, 0.3429833309002433550 ) ) ;
#264 = ORIENTED_EDGE ( 'NONE', *, *, #108, .T. ) ;
#265 = DIRECTION ( 'NONE',  ( 1.000000000000000000, 0.0000000000000000000, 0.0000000000000000000 ) ) ;
#266 = DIRECTION ( 'NONE',  ( 1.000000000000000000, 0.0000000000000000000, 0.0000000000000000000 ) ) ;
#267 = EDGE_LOOP ( 'NONE', ( #165, #192 ) ) ;
#268 = PRESENTATION_STYLE_ASSIGNMENT (( #86 ) ) ;
#269 = CIRCLE ( 'NONE', #121, 0.1318899999999997574 ) ;
#270 = VECTOR ( 'NONE', #42, 39.37007874015748143 ) ;
#271 = VERTEX_POINT ( 'NONE', #199 ) ;
#272 = ORIENTED_EDGE ( 'NONE', *, *, #90, .T. ) ;
#273 = VERTEX_POINT ( 'NONE', #101 ) ;
#274 = DIRECTION ( 'NONE',  ( 1.000000000000000000, 0.0000000000000000000, 0.0000000000000000000 ) ) ;
#275 = EDGE_CURVE ( 'NONE', #324, #93, #17, .T. ) ;
#276 = DIRECTION ( 'NONE',  ( -0.0000000000000000000, -0.0000000000000000000, -1.000000000000000000 ) ) ;
#277 = LINE ( 'NONE', #252, #246 ) ;
#278 = DIRECTION ( 'NONE',  ( 1.000000000000000000, 1.224646799147353207E-16, -0.0000000000000000000 ) ) ;
#279 = MECHANICAL_DESIGN_GEOMETRIC_PRESENTATION_REPRESENTATION (  '', ( #305 ), #8 ) ;
#280 = DIRECTION ( 'NONE',  ( -0.0000000000000000000, -0.0000000000000000000, -1.000000000000000000 ) ) ;
#281 = CARTESIAN_POINT ( 'NONE',  ( -0.1318899999999997574, 2.012955005375500749E-17, 2.165353999999999779 ) ) ;
#282 = LENGTH_MEASURE_WITH_UNIT ( LENGTH_MEASURE( 0.02539999999999999897 ), #314 );
#283 = FACE_OUTER_BOUND ( 'NONE', #2, .T. ) ;
#284 = CARTESIAN_POINT ( 'NONE',  ( 0.1818504999999994431, 2.318874837419505661E-17, 3.937007999999999619 ) ) ;
#285 = DIRECTION ( 'NONE',  ( 0.0000000000000000000, 0.0000000000000000000, -1.000000000000000000 ) ) ;
#286 = EDGE_CURVE ( 'NONE', #345, #136, #104, .T. ) ;
#287 = DIRECTION ( 'NONE',  ( 1.000000000000000000, 0.0000000000000000000, 0.0000000000000000000 ) ) ;
#288 = DIRECTION ( 'NONE',  ( 0.0000000000000000000, 0.0000000000000000000, 1.000000000000000000 ) ) ;
#289 = SURFACE_STYLE_FILL_AREA ( #334 ) ;
#290 = EDGE_LOOP ( 'NONE', ( #9, #215, #142, #111, #245 ) ) ;
#291 = CARTESIAN_POINT ( 'NONE',  ( 0.0000000000000000000, 0.0000000000000000000, 0.0000000000000000000 ) ) ;
#292 = ORIENTED_EDGE ( 'NONE', *, *, #286, .T. ) ;
#293 = DIRECTION ( 'NONE',  ( 0.0000000000000000000, 1.000000000000000000, 0.0000000000000000000 ) ) ;
#294 = CONICAL_SURFACE ( 'NONE', #20, 0.2165355499999996880, 0.1262477912956223025 ) ;
#295 = ORIENTED_EDGE ( 'NONE', *, *, #249, .T. ) ;
#296 = VECTOR ( 'NONE', #156, 39.37007874015748143 ) ;
#297 = ORIENTED_EDGE ( 'NONE', *, *, #94, .F. ) ;
#298 = CIRCLE ( 'NONE', #70, 0.1968504999999999838 ) ;
#299 = ORIENTED_EDGE ( 'NONE', *, *, #275, .F. ) ;
#300 = DIRECTION ( 'NONE',  ( 0.0000000000000000000, 0.0000000000000000000, 1.000000000000000000 ) ) ;
#301 = ADVANCED_FACE ( 'NONE', ( #229 ), #294, .T. ) ;
#302 = LINE ( 'NONE', #67, #270 ) ;
#303 = CARTESIAN_POINT ( 'NONE',  ( 0.0000000000000000000, 0.0000000000000000000, 2.832259636364403033 ) ) ;
#304 = DIRECTION ( 'NONE',  ( -1.224646799147353207E-16, 1.000000000000000000, 0.0000000000000000000 ) ) ;
#305 = STYLED_ITEM ( 'NONE', ( #208 ), #66 ) ;
#306 = CARTESIAN_POINT ( 'NONE',  ( -0.1968504999999999838, 0.0000000000000000000, 3.922007999999999051 ) ) ;
#307 = CIRCLE ( 'NONE', #248, 0.1968500000000000250 ) ;
#308 = DIRECTION ( 'NONE',  ( 0.0000000000000000000, 0.0000000000000000000, -1.000000000000000000 ) ) ;
#309 = DIRECTION ( 'NONE',  ( -0.0000000000000000000, -0.0000000000000000000, -1.000000000000000000 ) ) ;
#310 = CARTESIAN_POINT ( 'NONE',  ( 0.0000000000000000000, 0.0000000000000000000, 0.3429833309002433550 ) ) ;
#311 = CARTESIAN_POINT ( 'NONE',  ( 0.0000000000000000000, 0.0000000000000000000, 0.3429833309002433550 ) ) ;
#312 = CARTESIAN_POINT ( 'NONE',  ( 0.0000000000000000000, 1.205358612060782468E-17, 0.0000000000000000000 ) ) ;
#313 = SPHERICAL_SURFACE ( 'NONE', #100, 0.1968500000000000250 ) ;
#314 =( LENGTH_UNIT ( ) NAMED_UNIT ( * ) SI_UNIT ( $, .METRE. ) );
#315 = APPLICATION_CONTEXT ( 'automotive_design' ) ;
#316 = ORIENTED_EDGE ( 'NONE', *, *, #322, .F. ) ;
#317 = EDGE_CURVE ( 'NONE', #56, #345, #223, .T. ) ;
#318 = EDGE_LOOP ( 'NONE', ( #146, #4, #193, #144 ) ) ;
#319 = APPLICATION_PROTOCOL_DEFINITION ( 'draft international standard', 'automotive_design', 1998, #181 ) ;
#320 = MECHANICAL_DESIGN_GEOMETRIC_PRESENTATION_REPRESENTATION (  '', ( #130 ), #87 ) ;
#321 = ORIENTED_EDGE ( 'NONE', *, *, #90, .F. ) ;
#322 = EDGE_CURVE ( 'NONE', #65, #271, #277, .T. ) ;
#323 = CIRCLE ( 'NONE', #328, 0.1968500000000000250 ) ;
#324 = VERTEX_POINT ( 'NONE', #74 ) ;
#325 = EDGE_LOOP ( 'NONE', ( #162, #117, #33, #116 ) ) ;
#326 = ORIENTED_EDGE ( 'NONE', *, *, #34, .T. ) ;
#327 = ADVANCED_FACE ( 'NONE', ( #283 ), #259, .T. ) ;
#328 = AXIS2_PLACEMENT_3D ( 'NONE', #40, #278, #304 ) ;
#329 = CARTESIAN_POINT ( 'NONE',  ( 0.1318899999999998407, 1.615186663395442393E-17, 0.0000000000000000000 ) ) ;
#330 = VECTOR ( 'NONE', #232, 39.37007874015748143 ) ;
#331 = CARTESIAN_POINT ( 'NONE',  ( 0.0000000000000000000, 0.0000000000000000000, 0.0000000000000000000 ) ) ;
#332 = CARTESIAN_POINT ( 'NONE',  ( 0.0000000000000000000, 0.0000000000000000000, 2.677165000000000017 ) ) ;
#333 = DIRECTION ( 'NONE',  ( -1.000000000000000000, 0.0000000000000000000, 0.0000000000000000000 ) ) ;
#334 = FILL_AREA_STYLE ('',( #154 ) ) ;
#335 = ADVANCED_FACE ( 'NONE', ( #126 ), #313, .T. ) ;
#336 = CYLINDRICAL_SURFACE ( 'NONE', #194, 0.1968504999999999838 ) ;
#337 = DIRECTION ( 'NONE',  ( 0.0000000000000000000, 0.0000000000000000000, -1.000000000000000000 ) ) ;
#338 = AXIS2_PLACEMENT_3D ( 'NONE', #99, #163, #266 ) ;
#339 = DIRECTION ( 'NONE',  ( 0.0000000000000000000, 0.0000000000000000000, 1.000000000000000000 ) ) ;
#340 = PRODUCT_DEFINITION ( 'UNKNOWN', '', #7, #98 ) ;
#341 = ORIENTED_EDGE ( 'NONE', *, *, #34, .F. ) ;
#342 = LENGTH_MEASURE_WITH_UNIT ( LENGTH_MEASURE( 0.02539999999999999897 ), #23 );
#343 = DIRECTION ( 'NONE',  ( 1.000000000000000000, 0.0000000000000000000, 0.0000000000000000000 ) ) ;
#344 = CONICAL_SURFACE ( 'NONE', #338, 0.2165355499999996880, 0.1262477912956223025 ) ;
#345 = VERTEX_POINT ( 'NONE', #233 ) ;
ENDSEC;
END-ISO-10303-21;
