ISO-10303-21;
HEADER;
FILE_DESCRIPTION (( 'STEP AP214' ),
    '1' );
FILE_NAME ('83204.STEP',
    '2023-06-23T08:39:50',
    ( '' ),
    ( '' ),
    'SwSTEP 2.0',
    'SolidWorks 2023',
    '' );
FILE_SCHEMA (( 'AUTOMOTIVE_DESIGN' ));
ENDSEC;

DATA;
#1 = SURFACE_STYLE_USAGE ( .BOTH. , #11 ) ;
#2 = ORIENTED_EDGE ( 'NONE', *, *, #221, .F. ) ;
#3 =( CONVERSION_BASED_UNIT ( 'INCH', #104 ) LENGTH_UNIT ( ) NAMED_UNIT ( #14 ) );
#4 = SURFACE_STYLE_FILL_AREA ( #33 ) ;
#5 = AXIS2_PLACEMENT_3D ( 'NONE', #268, #66, #211 ) ;
#6 = MECHANICAL_DESIGN_GEOMETRIC_PRESENTATION_REPRESENTATION (  '', ( #294 ), #204 ) ;
#7 = ORIENTED_EDGE ( 'NONE', *, *, #243, .T. ) ;
#8 = FACE_OUTER_BOUND ( 'NONE', #132, .T. ) ;
#9 = COLOUR_RGB ( '',0.7921568627450980005, 0.8196078431372548767, 0.9333333333333333481 ) ;
#10 = PRODUCT_DEFINITION_FORMATION_WITH_SPECIFIED_SOURCE ( 'ANY', '', #219, .NOT_KNOWN. ) ;
#11 = SURFACE_SIDE_STYLE ('',( #72 ) ) ;
#12 =( NAMED_UNIT ( * ) SI_UNIT ( $, .STERADIAN. ) SOLID_ANGLE_UNIT ( ) );
#13 = ADVANCED_FACE ( 'NONE', ( #244 ), #106, .T. ) ;
#14 = DIMENSIONAL_EXPONENTS ( 1.000000000000000000, 0.000000000000000000, 0.000000000000000000, 0.000000000000000000, 0.000000000000000000, 0.000000000000000000, 0.000000000000000000 ) ;
#15 = UNCERTAINTY_MEASURE_WITH_UNIT (LENGTH_MEASURE( 1.000000000000000082E-05 ), #269, 'distance_accuracy_value', 'NONE');
#16 = CLOSED_SHELL ( 'NONE', ( #13, #201, #256, #226 ) ) ;
#17 = PLANE ( 'NONE',  #150 ) ;
#18 = EDGE_LOOP ( 'NONE', ( #286, #73 ) ) ;
#19 = CARTESIAN_POINT ( 'NONE',  ( 0.000000000000000000, 0.000000000000000000, -0.3125000000000000000 ) ) ;
#20 = CIRCLE ( 'NONE', #234, 0.3125000000000000000 ) ;
#21 = CARTESIAN_POINT ( 'NONE',  ( 2.449293598294705921E-16, 3.000000000000000444, 0.000000000000000000 ) ) ;
#22 = MANIFOLD_SOLID_BREP ( 'Revolve - Cutting Edge', #16 ) ;
#23 = CARTESIAN_POINT ( 'NONE',  ( 0.000000000000000000, 0.7499999999999998890, 0.000000000000000000 ) ) ;
#24 = CARTESIAN_POINT ( 'NONE',  ( -0.3124999999999994449, 3.000000000000000444, 0.000000000000000000 ) ) ;
#25 = SURFACE_SIDE_STYLE ('',( #215 ) ) ;
#26 = PRESENTATION_LAYER_ASSIGNMENT (  '', '', ( #260 ) ) ;
#27 = FACE_OUTER_BOUND ( 'NONE', #147, .T. ) ;
#28 =( GEOMETRIC_REPRESENTATION_CONTEXT ( 3 ) GLOBAL_UNCERTAINTY_ASSIGNED_CONTEXT ( ( #15 ) ) GLOBAL_UNIT_ASSIGNED_CONTEXT ( ( #269, #58, #86 ) ) REPRESENTATION_CONTEXT ( 'NONE', 'WORKASPACE' ) );
#29 =( LENGTH_UNIT ( ) NAMED_UNIT ( * ) SI_UNIT ( $, .METRE. ) );
#30 = ORIENTED_EDGE ( 'NONE', *, *, #258, .T. ) ;
#31 = ORIENTED_EDGE ( 'NONE', *, *, #97, .T. ) ;
#32 = EDGE_CURVE ( 'NONE', #217, #107, #67, .T. ) ;
#33 = FILL_AREA_STYLE ('',( #222 ) ) ;
#34 = DIRECTION ( 'NONE',  ( 1.088574932575424772E-16, 1.000000000000000000, -0.000000000000000000 ) ) ;
#35 = CARTESIAN_POINT ( 'NONE',  ( -0.3124999999999996114, 3.000000000000000444, 0.000000000000000000 ) ) ;
#36 =( CONVERSION_BASED_UNIT ( 'INCH', #186 ) LENGTH_UNIT ( ) NAMED_UNIT ( #74 ) );
#37 = CARTESIAN_POINT ( 'NONE',  ( 0.000000000000000000, 0.7499999999999998890, 0.000000000000000000 ) ) ;
#38 = VECTOR ( 'NONE', #144, 39.37007874015748143 ) ;
#39 = AXIS2_PLACEMENT_3D ( 'NONE', #23, #75, #240 ) ;
#40 = CARTESIAN_POINT ( 'NONE',  ( -3.032960542342103792E-32, 0.7499999999999998890, 0.000000000000000000 ) ) ;
#41 =( NAMED_UNIT ( * ) PLANE_ANGLE_UNIT ( ) SI_UNIT ( $, .RADIAN. ) );
#42 = CYLINDRICAL_SURFACE ( 'NONE', #105, 0.3124999999999998890 ) ;
#43 = PRESENTATION_LAYER_ASSIGNMENT (  '', '', ( #294 ) ) ;
#44 = FILL_AREA_STYLE ('',( #172 ) ) ;
#45 = ORIENTED_EDGE ( 'NONE', *, *, #118, .T. ) ;
#46 = LENGTH_MEASURE_WITH_UNIT ( LENGTH_MEASURE( 0.02539999999999999897 ), #192 );
#47 = AXIS2_PLACEMENT_3D ( 'NONE', #143, #185, #293 ) ;
#48 = CARTESIAN_POINT ( 'NONE',  ( 0.3125000000000000000, 3.000000000000000444, 3.827021247335477694E-17 ) ) ;
#49 = EDGE_CURVE ( 'NONE', #181, #217, #167, .T. ) ;
#50 = FACE_OUTER_BOUND ( 'NONE', #213, .T. ) ;
#51 = DIRECTION ( 'NONE',  ( -0.000000000000000000, -1.000000000000000000, -0.000000000000000000 ) ) ;
#52 = EDGE_LOOP ( 'NONE', ( #122, #225, #31, #80 ) ) ;
#53 = AXIS2_PLACEMENT_3D ( 'NONE', #131, #207, #187 ) ;
#54 = VERTEX_POINT ( 'NONE', #297 ) ;
#55 = PRESENTATION_LAYER_ASSIGNMENT (  '', '', ( #253 ) ) ;
#56 = ORIENTED_EDGE ( 'NONE', *, *, #306, .T. ) ;
#57 = SURFACE_SIDE_STYLE ('',( #4 ) ) ;
#58 =( NAMED_UNIT ( * ) PLANE_ANGLE_UNIT ( ) SI_UNIT ( $, .RADIAN. ) );
#59 = PRESENTATION_STYLE_ASSIGNMENT (( #159 ) ) ;
#60 = COLOUR_RGB ( '',0.7921568627450980005, 0.8196078431372548767, 0.9333333333333333481 ) ;
#61 = EDGE_CURVE ( 'NONE', #54, #292, #140, .T. ) ;
#62 =( NAMED_UNIT ( * ) PLANE_ANGLE_UNIT ( ) SI_UNIT ( $, .RADIAN. ) );
#63 = PLANE ( 'NONE',  #223 ) ;
#64 =( LENGTH_UNIT ( ) NAMED_UNIT ( * ) SI_UNIT ( $, .METRE. ) );
#65 = LINE ( 'NONE', #249, #271 ) ;
#66 = DIRECTION ( 'NONE',  ( 1.088574932575424772E-16, 1.000000000000000000, -0.000000000000000000 ) ) ;
#67 = CIRCLE ( 'NONE', #53, 0.3125000000000000000 ) ;
#68 = AXIS2_PLACEMENT_3D ( 'NONE', #102, #196, #111 ) ;
#69 = CARTESIAN_POINT ( 'NONE',  ( 2.449293598294705921E-16, 3.000000000000000444, 0.000000000000000000 ) ) ;
#70 = LENGTH_MEASURE_WITH_UNIT ( LENGTH_MEASURE( 0.02539999999999999897 ), #99 );
#71 = AXIS2_PLACEMENT_3D ( 'NONE', #21, #151, #101 ) ;
#72 = SURFACE_STYLE_FILL_AREA ( #275 ) ;
#73 = ORIENTED_EDGE ( 'NONE', *, *, #92, .T. ) ;
#74 = DIMENSIONAL_EXPONENTS ( 1.000000000000000000, 0.000000000000000000, 0.000000000000000000, 0.000000000000000000, 0.000000000000000000, 0.000000000000000000, 0.000000000000000000 ) ;
#75 = DIRECTION ( 'NONE',  ( 0.000000000000000000, 1.000000000000000000, 0.000000000000000000 ) ) ;
#76 = COLOUR_RGB ( '',1.000000000000000000, 0.000000000000000000, 0.000000000000000000 ) ;
#77 = SURFACE_STYLE_FILL_AREA ( #174 ) ;
#78 = CARTESIAN_POINT ( 'NONE',  ( 0.000000000000000000, 0.7499999999999998890, 0.000000000000000000 ) ) ;
#79 = CARTESIAN_POINT ( 'NONE',  ( 0.000000000000000000, 0.000000000000000000, 0.000000000000000000 ) ) ;
#80 = ORIENTED_EDGE ( 'NONE', *, *, #243, .F. ) ;
#81 = PRODUCT_DEFINITION ( 'UNKNOWN', '', #10, #164 ) ;
#82 = ORIENTED_EDGE ( 'NONE', *, *, #49, .T. ) ;
#83 = CARTESIAN_POINT ( 'NONE',  ( 0.000000000000000000, 0.000000000000000000, 0.000000000000000000 ) ) ;
#84 = ORIENTED_EDGE ( 'NONE', *, *, #221, .T. ) ;
#85 = SHAPE_DEFINITION_REPRESENTATION ( #152, #272 ) ;
#86 =( NAMED_UNIT ( * ) SI_UNIT ( $, .STERADIAN. ) SOLID_ANGLE_UNIT ( ) );
#87 = DIRECTION ( 'NONE',  ( -0.000000000000000000, -1.000000000000000000, -0.000000000000000000 ) ) ;
#88 =( GEOMETRIC_REPRESENTATION_CONTEXT ( 3 ) GLOBAL_UNCERTAINTY_ASSIGNED_CONTEXT ( ( #270 ) ) GLOBAL_UNIT_ASSIGNED_CONTEXT ( ( #36, #62, #267 ) ) REPRESENTATION_CONTEXT ( 'NONE', 'WORKASPACE' ) );
#89 = DIRECTION ( 'NONE',  ( 1.088574932575424772E-16, 1.000000000000000000, -0.000000000000000000 ) ) ;
#90 =( LENGTH_UNIT ( ) NAMED_UNIT ( * ) SI_UNIT ( $, .METRE. ) );
#91 = DIRECTION ( 'NONE',  ( -0.000000000000000000, -1.000000000000000000, -0.000000000000000000 ) ) ;
#92 = EDGE_CURVE ( 'NONE', #107, #217, #149, .T. ) ;
#93 = DIRECTION ( 'NONE',  ( -0.000000000000000000, -1.000000000000000000, -0.000000000000000000 ) ) ;
#94 = CLOSED_SHELL ( 'NONE', ( #148, #176, #153, #280 ) ) ;
#95 = CYLINDRICAL_SURFACE ( 'NONE', #5, 0.3124999999999998890 ) ;
#96 = UNCERTAINTY_MEASURE_WITH_UNIT (LENGTH_MEASURE( 1.000000000000000082E-05 ), #184, 'distance_accuracy_value', 'NONE');
#97 = EDGE_CURVE ( 'NONE', #292, #193, #298, .T. ) ;
#98 = DIRECTION ( 'NONE',  ( 0.000000000000000000, 0.000000000000000000, -1.000000000000000000 ) ) ;
#99 =( LENGTH_UNIT ( ) NAMED_UNIT ( * ) SI_UNIT ( $, .METRE. ) );
#100 =( NAMED_UNIT ( * ) SI_UNIT ( $, .STERADIAN. ) SOLID_ANGLE_UNIT ( ) );
#101 = DIRECTION ( 'NONE',  ( -1.000000000000000000, 0.000000000000000000, 0.000000000000000000 ) ) ;
#102 = CARTESIAN_POINT ( 'NONE',  ( 0.3125000000000000000, 3.000000000000000444, 0.000000000000000000 ) ) ;
#103 = ORIENTED_EDGE ( 'NONE', *, *, #49, .F. ) ;
#104 = LENGTH_MEASURE_WITH_UNIT ( LENGTH_MEASURE( 0.02539999999999999897 ), #241 );
#105 = AXIS2_PLACEMENT_3D ( 'NONE', #69, #235, #114 ) ;
#106 = CYLINDRICAL_SURFACE ( 'NONE', #183, 0.3125000000000000000 ) ;
#107 = VERTEX_POINT ( 'NONE', #116 ) ;
#108 = PRESENTATION_STYLE_ASSIGNMENT (( #173 ) ) ;
#109 = PRODUCT_CONTEXT ( 'NONE', #115, 'mechanical' ) ;
#110 = FILL_AREA_STYLE_COLOUR ( '', #76 ) ;
#111 = DIRECTION ( 'NONE',  ( 1.000000000000000000, -1.088574932575424895E-16, 0.000000000000000000 ) ) ;
#112 = STYLED_ITEM ( 'NONE', ( #198 ), #256 ) ;
#113 = UNCERTAINTY_MEASURE_WITH_UNIT (LENGTH_MEASURE( 1.000000000000000082E-05 ), #305, 'distance_accuracy_value', 'NONE');
#114 = DIRECTION ( 'NONE',  ( -1.000000000000000000, 0.000000000000000000, 0.000000000000000000 ) ) ;
#115 = APPLICATION_CONTEXT ( 'automotive_design' ) ;
#116 = CARTESIAN_POINT ( 'NONE',  ( 3.827021247335478926E-17, 0.000000000000000000, 0.3125000000000000000 ) ) ;
#117 = PRESENTATION_LAYER_ASSIGNMENT (  '', '', ( #246 ) ) ;
#118 = EDGE_CURVE ( 'NONE', #170, #181, #124, .T. ) ;
#119 = CARTESIAN_POINT ( 'NONE',  ( 0.000000000000000000, 0.000000000000000000, -0.3125000000000000000 ) ) ;
#120 = UNCERTAINTY_MEASURE_WITH_UNIT (LENGTH_MEASURE( 1.000000000000000082E-05 ), #214, 'distance_accuracy_value', 'NONE');
#121 = CARTESIAN_POINT ( 'NONE',  ( 0.000000000000000000, 0.000000000000000000, 0.000000000000000000 ) ) ;
#122 = ORIENTED_EDGE ( 'NONE', *, *, #254, .F. ) ;
#123 = CARTESIAN_POINT ( 'NONE',  ( 2.449293598294705921E-16, 3.000000000000000444, 0.000000000000000000 ) ) ;
#124 = CIRCLE ( 'NONE', #287, 0.3125000000000000000 ) ;
#125 = AXIS2_PLACEMENT_3D ( 'NONE', #79, #252, #228 ) ;
#126 =( LENGTH_UNIT ( ) NAMED_UNIT ( * ) SI_UNIT ( $, .METRE. ) );
#127 = SURFACE_STYLE_USAGE ( .BOTH. , #301 ) ;
#128 = SURFACE_SIDE_STYLE ('',( #77 ) ) ;
#129 = PRESENTATION_LAYER_ASSIGNMENT (  '', '', ( #112 ) ) ;
#130 =( NAMED_UNIT ( * ) PLANE_ANGLE_UNIT ( ) SI_UNIT ( $, .RADIAN. ) );
#131 = CARTESIAN_POINT ( 'NONE',  ( 0.000000000000000000, 0.000000000000000000, 0.000000000000000000 ) ) ;
#132 = EDGE_LOOP ( 'NONE', ( #84, #7 ) ) ;
#133 = APPLICATION_CONTEXT ( 'automotive_design' ) ;
#134 = DIRECTION ( 'NONE',  ( 0.000000000000000000, 0.000000000000000000, -1.000000000000000000 ) ) ;
#135 = LENGTH_MEASURE_WITH_UNIT ( LENGTH_MEASURE( 0.02539999999999999897 ), #90 );
#136 = DIRECTION ( 'NONE',  ( 1.088574932575424895E-16, 1.000000000000000000, -0.000000000000000000 ) ) ;
#137 =( NAMED_UNIT ( * ) PLANE_ANGLE_UNIT ( ) SI_UNIT ( $, .RADIAN. ) );
#138 = APPLICATION_PROTOCOL_DEFINITION ( 'draft international standard', 'automotive_design', 1998, #115 ) ;
#139 = DIRECTION ( 'NONE',  ( 1.088574932575424895E-16, 1.000000000000000000, -0.000000000000000000 ) ) ;
#140 = CIRCLE ( 'NONE', #245, 0.3125000000000000000 ) ;
#141 = DIRECTION ( 'NONE',  ( -1.000000000000000000, 1.088574932575424895E-16, 0.000000000000000000 ) ) ;
#142 = DIMENSIONAL_EXPONENTS ( 1.000000000000000000, 0.000000000000000000, 0.000000000000000000, 0.000000000000000000, 0.000000000000000000, 0.000000000000000000, 0.000000000000000000 ) ;
#143 = CARTESIAN_POINT ( 'NONE',  ( 0.000000000000000000, 0.000000000000000000, 0.000000000000000000 ) ) ;
#144 = DIRECTION ( 'NONE',  ( 1.088574932575424895E-16, 1.000000000000000000, -0.000000000000000000 ) ) ;
#145 =( GEOMETRIC_REPRESENTATION_CONTEXT ( 3 ) GLOBAL_UNCERTAINTY_ASSIGNED_CONTEXT ( ( #290 ) ) GLOBAL_UNIT_ASSIGNED_CONTEXT ( ( #251, #137, #190 ) ) REPRESENTATION_CONTEXT ( 'NONE', 'WORKASPACE' ) );
#146 = LENGTH_MEASURE_WITH_UNIT ( LENGTH_MEASURE( 0.02539999999999999897 ), #126 );
#147 = EDGE_LOOP ( 'NONE', ( #197, #45, #82, #158 ) ) ;
#148 = ADVANCED_FACE ( 'NONE', ( #210 ), #42, .T. ) ;
#149 = CIRCLE ( 'NONE', #179, 0.3125000000000000000 ) ;
#150 = AXIS2_PLACEMENT_3D ( 'NONE', #121, #212, #98 ) ;
#151 = DIRECTION ( 'NONE',  ( 1.088574932575424772E-16, 1.000000000000000000, -0.000000000000000000 ) ) ;
#152 = PRODUCT_DEFINITION_SHAPE ( 'NONE', 'NONE',  #81 ) ;
#153 = ADVANCED_FACE ( 'NONE', ( #166 ), #95, .T. ) ;
#154 = DIRECTION ( 'NONE',  ( 0.000000000000000000, 0.000000000000000000, -1.000000000000000000 ) ) ;
#155 = EDGE_LOOP ( 'NONE', ( #30, #178, #2, #200 ) ) ;
#156 = LENGTH_MEASURE_WITH_UNIT ( LENGTH_MEASURE( 0.02539999999999999897 ), #29 );
#157 =( NAMED_UNIT ( * ) SI_UNIT ( $, .STERADIAN. ) SOLID_ANGLE_UNIT ( ) );
#158 = ORIENTED_EDGE ( 'NONE', *, *, #92, .F. ) ;
#159 = SURFACE_STYLE_USAGE ( .BOTH. , #57 ) ;
#160 = UNCERTAINTY_MEASURE_WITH_UNIT (LENGTH_MEASURE( 1.000000000000000082E-05 ), #3, 'distance_accuracy_value', 'NONE');
#161 = CARTESIAN_POINT ( 'NONE',  ( 1.851555287236860585E-33, 0.7499999999999998890, 0.000000000000000000 ) ) ;
#162 = AXIS2_PLACEMENT_3D ( 'NONE', #123, #34, #261 ) ;
#163 = CARTESIAN_POINT ( 'NONE',  ( 0.000000000000000000, 0.000000000000000000, 0.000000000000000000 ) ) ;
#164 = PRODUCT_DEFINITION_CONTEXT ( 'detailed design', #133, 'design' ) ;
#165 = EDGE_CURVE ( 'NONE', #170, #107, #65, .T. ) ;
#166 = FACE_OUTER_BOUND ( 'NONE', #52, .T. ) ;
#167 = LINE ( 'NONE', #119, #250 ) ;
#168 = COLOUR_RGB ( '',1.000000000000000000, 0.000000000000000000, 0.000000000000000000 ) ;
#169 = FACE_OUTER_BOUND ( 'NONE', #18, .T. ) ;
#170 = VERTEX_POINT ( 'NONE', #266 ) ;
#171 = FILL_AREA_STYLE ('',( #220 ) ) ;
#172 = FILL_AREA_STYLE_COLOUR ( '', #168 ) ;
#173 = SURFACE_STYLE_USAGE ( .BOTH. , #25 ) ;
#174 = FILL_AREA_STYLE ('',( #238 ) ) ;
#175 = CIRCLE ( 'NONE', #71, 0.3124999999999997224 ) ;
#176 = ADVANCED_FACE ( 'NONE', ( #232 ), #63, .F. ) ;
#177 = LINE ( 'NONE', #206, #199 ) ;
#178 = ORIENTED_EDGE ( 'NONE', *, *, #254, .T. ) ;
#179 = AXIS2_PLACEMENT_3D ( 'NONE', #163, #91, #189 ) ;
#180 = DIRECTION ( 'NONE',  ( -0.000000000000000000, -1.000000000000000000, -0.000000000000000000 ) ) ;
#181 = VERTEX_POINT ( 'NONE', #231 ) ;
#182 = VERTEX_POINT ( 'NONE', #48 ) ;
#183 = AXIS2_PLACEMENT_3D ( 'NONE', #83, #180, #134 ) ;
#184 =( CONVERSION_BASED_UNIT ( 'INCH', #156 ) LENGTH_UNIT ( ) NAMED_UNIT ( #304 ) );
#185 = DIRECTION ( 'NONE',  ( 0.000000000000000000, 0.000000000000000000, 1.000000000000000000 ) ) ;
#186 = LENGTH_MEASURE_WITH_UNIT ( LENGTH_MEASURE( 0.02539999999999999897 ), #64 );
#187 = DIRECTION ( 'NONE',  ( 0.000000000000000000, 0.000000000000000000, -1.000000000000000000 ) ) ;
#188 = PRESENTATION_STYLE_ASSIGNMENT (( #1 ) ) ;
#189 = DIRECTION ( 'NONE',  ( 0.000000000000000000, 0.000000000000000000, -1.000000000000000000 ) ) ;
#190 =( NAMED_UNIT ( * ) SI_UNIT ( $, .STERADIAN. ) SOLID_ANGLE_UNIT ( ) );
#191 = FILL_AREA_STYLE_COLOUR ( '', #60 ) ;
#192 =( LENGTH_UNIT ( ) NAMED_UNIT ( * ) SI_UNIT ( $, .METRE. ) );
#193 = VERTEX_POINT ( 'NONE', #24 ) ;
#194 = SURFACE_STYLE_USAGE ( .BOTH. , #128 ) ;
#195 = COLOUR_RGB ( '',1.000000000000000000, 0.000000000000000000, 0.000000000000000000 ) ;
#196 = DIRECTION ( 'NONE',  ( -1.088574932575424895E-16, -1.000000000000000000, 0.000000000000000000 ) ) ;
#197 = ORIENTED_EDGE ( 'NONE', *, *, #165, .F. ) ;
#198 = PRESENTATION_STYLE_ASSIGNMENT (( #248 ) ) ;
#199 = VECTOR ( 'NONE', #139, 39.37007874015748143 ) ;
#200 = ORIENTED_EDGE ( 'NONE', *, *, #97, .F. ) ;
#201 = ADVANCED_FACE ( 'NONE', ( #50 ), #278, .T. ) ;
#202 = APPLICATION_PROTOCOL_DEFINITION ( 'draft international standard', 'automotive_design', 1998, #133 ) ;
#203 = STYLED_ITEM ( 'NONE', ( #59 ), #13 ) ;
#204 =( GEOMETRIC_REPRESENTATION_CONTEXT ( 3 ) GLOBAL_UNCERTAINTY_ASSIGNED_CONTEXT ( ( #113 ) ) GLOBAL_UNIT_ASSIGNED_CONTEXT ( ( #305, #282, #239 ) ) REPRESENTATION_CONTEXT ( 'NONE', 'WORKASPACE' ) );
#205 = CARTESIAN_POINT ( 'NONE',  ( -3.032960542342103792E-32, 0.7499999999999998890, 0.000000000000000000 ) ) ;
#206 = CARTESIAN_POINT ( 'NONE',  ( 0.3125000000000001665, 3.000000000000000444, 3.827021247335477078E-17 ) ) ;
#207 = DIRECTION ( 'NONE',  ( -0.000000000000000000, -1.000000000000000000, -0.000000000000000000 ) ) ;
#208 = MECHANICAL_DESIGN_GEOMETRIC_PRESENTATION_REPRESENTATION (  '', ( #203 ), #265 ) ;
#209 = MECHANICAL_DESIGN_GEOMETRIC_PRESENTATION_REPRESENTATION (  '', ( #253 ), #289 ) ;
#210 = FACE_OUTER_BOUND ( 'NONE', #155, .T. ) ;
#211 = DIRECTION ( 'NONE',  ( -1.000000000000000000, 0.000000000000000000, 0.000000000000000000 ) ) ;
#212 = DIRECTION ( 'NONE',  ( 0.000000000000000000, -1.000000000000000000, -0.000000000000000000 ) ) ;
#213 = EDGE_LOOP ( 'NONE', ( #264, #279 ) ) ;
#214 =( CONVERSION_BASED_UNIT ( 'INCH', #146 ) LENGTH_UNIT ( ) NAMED_UNIT ( #142 ) );
#215 = SURFACE_STYLE_FILL_AREA ( #171 ) ;
#216 = DIRECTION ( 'NONE',  ( 1.088574932575424772E-16, 1.000000000000000000, -0.000000000000000000 ) ) ;
#217 = VERTEX_POINT ( 'NONE', #19 ) ;
#218 = MECHANICAL_DESIGN_GEOMETRIC_PRESENTATION_REPRESENTATION (  '', ( #260 ), #229 ) ;
#219 = PRODUCT ( '83204', '83204', '', ( #109 ) ) ;
#220 = FILL_AREA_STYLE_COLOUR ( '', #9 ) ;
#221 = EDGE_CURVE ( 'NONE', #193, #182, #175, .T. ) ;
#222 = FILL_AREA_STYLE_COLOUR ( '', #307 ) ;
#223 = AXIS2_PLACEMENT_3D ( 'NONE', #161, #136, #141 ) ;
#224 = MECHANICAL_DESIGN_GEOMETRIC_PRESENTATION_REPRESENTATION (  '', ( #246 ), #88 ) ;
#225 = ORIENTED_EDGE ( 'NONE', *, *, #61, .T. ) ;
#226 = ADVANCED_FACE ( 'NONE', ( #169 ), #17, .T. ) ;
#227 = DIRECTION ( 'NONE',  ( -1.000000000000000000, 0.000000000000000000, 0.000000000000000000 ) ) ;
#228 = DIRECTION ( 'NONE',  ( 0.000000000000000000, 0.000000000000000000, -1.000000000000000000 ) ) ;
#229 =( GEOMETRIC_REPRESENTATION_CONTEXT ( 3 ) GLOBAL_UNCERTAINTY_ASSIGNED_CONTEXT ( ( #96 ) ) GLOBAL_UNIT_ASSIGNED_CONTEXT ( ( #184, #41, #12 ) ) REPRESENTATION_CONTEXT ( 'NONE', 'WORKASPACE' ) );
#230 = CIRCLE ( 'NONE', #242, 0.3125000000000000000 ) ;
#231 = CARTESIAN_POINT ( 'NONE',  ( 0.000000000000000000, 0.7499999999999998890, -0.3125000000000000000 ) ) ;
#232 = FACE_OUTER_BOUND ( 'NONE', #309, .T. ) ;
#233 = PRODUCT_RELATED_PRODUCT_CATEGORY ( 'part', '', ( #219 ) ) ;
#234 = AXIS2_PLACEMENT_3D ( 'NONE', #78, #51, #154 ) ;
#235 = DIRECTION ( 'NONE',  ( 1.088574932575424772E-16, 1.000000000000000000, -0.000000000000000000 ) ) ;
#236 = MANIFOLD_SOLID_BREP ( 'Revolve - Tool Body (Straight Shanked)', #94 ) ;
#237 = DIMENSIONAL_EXPONENTS ( 1.000000000000000000, 0.000000000000000000, 0.000000000000000000, 0.000000000000000000, 0.000000000000000000, 0.000000000000000000, 0.000000000000000000 ) ;
#238 = FILL_AREA_STYLE_COLOUR ( '', #195 ) ;
#239 =( NAMED_UNIT ( * ) SI_UNIT ( $, .STERADIAN. ) SOLID_ANGLE_UNIT ( ) );
#240 = DIRECTION ( 'NONE',  ( 0.000000000000000000, -0.000000000000000000, 1.000000000000000000 ) ) ;
#241 =( LENGTH_UNIT ( ) NAMED_UNIT ( * ) SI_UNIT ( $, .METRE. ) );
#242 = AXIS2_PLACEMENT_3D ( 'NONE', #40, #216, #227 ) ;
#243 = EDGE_CURVE ( 'NONE', #182, #193, #288, .T. ) ;
#244 = FACE_OUTER_BOUND ( 'NONE', #263, .T. ) ;
#245 = AXIS2_PLACEMENT_3D ( 'NONE', #205, #89, #299 ) ;
#246 = STYLED_ITEM ( 'NONE', ( #188 ), #236 ) ;
#247 = FILL_AREA_STYLE ('',( #110 ) ) ;
#248 = SURFACE_STYLE_USAGE ( .BOTH. , #295 ) ;
#249 = CARTESIAN_POINT ( 'NONE',  ( 3.827021247335478926E-17, 0.000000000000000000, 0.3125000000000000000 ) ) ;
#250 = VECTOR ( 'NONE', #93, 39.37007874015748143 ) ;
#251 =( CONVERSION_BASED_UNIT ( 'INCH', #70 ) LENGTH_UNIT ( ) NAMED_UNIT ( #302 ) );
#252 = DIRECTION ( 'NONE',  ( -0.000000000000000000, -1.000000000000000000, -0.000000000000000000 ) ) ;
#253 = STYLED_ITEM ( 'NONE', ( #259 ), #226 ) ;
#254 = EDGE_CURVE ( 'NONE', #54, #182, #177, .T. ) ;
#255 = DIRECTION ( 'NONE',  ( -0.000000000000000000, -1.000000000000000000, -0.000000000000000000 ) ) ;
#256 = ADVANCED_FACE ( 'NONE', ( #27 ), #296, .T. ) ;
#257 = ORIENTED_EDGE ( 'NONE', *, *, #61, .F. ) ;
#258 = EDGE_CURVE ( 'NONE', #292, #54, #230, .T. ) ;
#259 = PRESENTATION_STYLE_ASSIGNMENT (( #127 ) ) ;
#260 = STYLED_ITEM ( 'NONE', ( #108 ), #22 ) ;
#261 = DIRECTION ( 'NONE',  ( -1.000000000000000000, 0.000000000000000000, 0.000000000000000000 ) ) ;
#262 = ORIENTED_EDGE ( 'NONE', *, *, #32, .F. ) ;
#263 = EDGE_LOOP ( 'NONE', ( #56, #277, #262, #103 ) ) ;
#264 = ORIENTED_EDGE ( 'NONE', *, *, #306, .F. ) ;
#265 =( GEOMETRIC_REPRESENTATION_CONTEXT ( 3 ) GLOBAL_UNCERTAINTY_ASSIGNED_CONTEXT ( ( #160 ) ) GLOBAL_UNIT_ASSIGNED_CONTEXT ( ( #3, #130, #157 ) ) REPRESENTATION_CONTEXT ( 'NONE', 'WORKASPACE' ) );
#266 = CARTESIAN_POINT ( 'NONE',  ( 3.827021247335478926E-17, 0.7499999999999998890, 0.3125000000000000000 ) ) ;
#267 =( NAMED_UNIT ( * ) SI_UNIT ( $, .STERADIAN. ) SOLID_ANGLE_UNIT ( ) );
#268 = CARTESIAN_POINT ( 'NONE',  ( 2.449293598294705921E-16, 3.000000000000000444, 0.000000000000000000 ) ) ;
#269 =( CONVERSION_BASED_UNIT ( 'INCH', #135 ) LENGTH_UNIT ( ) NAMED_UNIT ( #276 ) );
#270 = UNCERTAINTY_MEASURE_WITH_UNIT (LENGTH_MEASURE( 1.000000000000000082E-05 ), #36, 'distance_accuracy_value', 'NONE');
#271 = VECTOR ( 'NONE', #87, 39.37007874015748143 ) ;
#272 = ADVANCED_BREP_SHAPE_REPRESENTATION ( '83204', ( #22, #236, #47 ), #145 ) ;
#273 = DIRECTION ( 'NONE',  ( 0.000000000000000000, 0.000000000000000000, -1.000000000000000000 ) ) ;
#274 = SURFACE_STYLE_FILL_AREA ( #44 ) ;
#275 = FILL_AREA_STYLE ('',( #191 ) ) ;
#276 = DIMENSIONAL_EXPONENTS ( 1.000000000000000000, 0.000000000000000000, 0.000000000000000000, 0.000000000000000000, 0.000000000000000000, 0.000000000000000000, 0.000000000000000000 ) ;
#277 = ORIENTED_EDGE ( 'NONE', *, *, #165, .T. ) ;
#278 = PLANE ( 'NONE',  #39 ) ;
#279 = ORIENTED_EDGE ( 'NONE', *, *, #118, .F. ) ;
#280 = ADVANCED_FACE ( 'NONE', ( #8 ), #308, .F. ) ;
#281 =( NAMED_UNIT ( * ) PLANE_ANGLE_UNIT ( ) SI_UNIT ( $, .RADIAN. ) );
#282 =( NAMED_UNIT ( * ) PLANE_ANGLE_UNIT ( ) SI_UNIT ( $, .RADIAN. ) );
#283 = MECHANICAL_DESIGN_GEOMETRIC_PRESENTATION_REPRESENTATION (  '', ( #112 ), #28 ) ;
#284 = CARTESIAN_POINT ( 'NONE',  ( -0.3125000000000000000, 0.7499999999999998890, 0.000000000000000000 ) ) ;
#285 = SURFACE_STYLE_FILL_AREA ( #247 ) ;
#286 = ORIENTED_EDGE ( 'NONE', *, *, #32, .T. ) ;
#287 = AXIS2_PLACEMENT_3D ( 'NONE', #37, #255, #273 ) ;
#288 = CIRCLE ( 'NONE', #162, 0.3124999999999997224 ) ;
#289 =( GEOMETRIC_REPRESENTATION_CONTEXT ( 3 ) GLOBAL_UNCERTAINTY_ASSIGNED_CONTEXT ( ( #120 ) ) GLOBAL_UNIT_ASSIGNED_CONTEXT ( ( #214, #281, #100 ) ) REPRESENTATION_CONTEXT ( 'NONE', 'WORKASPACE' ) );
#290 = UNCERTAINTY_MEASURE_WITH_UNIT (LENGTH_MEASURE( 1.000000000000000082E-05 ), #251, 'distance_accuracy_value', 'NONE');
#291 = ORIENTED_EDGE ( 'NONE', *, *, #258, .F. ) ;
#292 = VERTEX_POINT ( 'NONE', #284 ) ;
#293 = DIRECTION ( 'NONE',  ( 1.000000000000000000, 0.000000000000000000, 0.000000000000000000 ) ) ;
#294 = STYLED_ITEM ( 'NONE', ( #300 ), #201 ) ;
#295 = SURFACE_SIDE_STYLE ('',( #285 ) ) ;
#296 = CYLINDRICAL_SURFACE ( 'NONE', #125, 0.3125000000000000000 ) ;
#297 = CARTESIAN_POINT ( 'NONE',  ( 0.3125000000000000000, 0.7499999999999998890, 3.827021247335477694E-17 ) ) ;
#298 = LINE ( 'NONE', #35, #38 ) ;
#299 = DIRECTION ( 'NONE',  ( -1.000000000000000000, 0.000000000000000000, 0.000000000000000000 ) ) ;
#300 = PRESENTATION_STYLE_ASSIGNMENT (( #194 ) ) ;
#301 = SURFACE_SIDE_STYLE ('',( #274 ) ) ;
#302 = DIMENSIONAL_EXPONENTS ( 1.000000000000000000, 0.000000000000000000, 0.000000000000000000, 0.000000000000000000, 0.000000000000000000, 0.000000000000000000, 0.000000000000000000 ) ;
#303 = PRESENTATION_LAYER_ASSIGNMENT (  '', '', ( #203 ) ) ;
#304 = DIMENSIONAL_EXPONENTS ( 1.000000000000000000, 0.000000000000000000, 0.000000000000000000, 0.000000000000000000, 0.000000000000000000, 0.000000000000000000, 0.000000000000000000 ) ;
#305 =( CONVERSION_BASED_UNIT ( 'INCH', #46 ) LENGTH_UNIT ( ) NAMED_UNIT ( #237 ) );
#306 = EDGE_CURVE ( 'NONE', #181, #170, #20, .T. ) ;
#307 = COLOUR_RGB ( '',1.000000000000000000, 0.000000000000000000, 0.000000000000000000 ) ;
#308 = PLANE ( 'NONE',  #68 ) ;
#309 = EDGE_LOOP ( 'NONE', ( #291, #257 ) ) ;
ENDSEC;
END-ISO-10303-21;
