ISO-10303-21;
HEADER;
FILE_DESCRIPTION (( 'STEP AP214' ),
    '1' );
FILE_NAME ('59791.STEP',
    '2023-07-24T15:58:11',
    ( '' ),
    ( '' ),
    'SwSTEP 2.0',
    'SolidWorks 2023',
    '' );
FILE_SCHEMA (( 'AUTOMOTIVE_DESIGN' ));
ENDSEC;

DATA;
#1 = PRESENTATION_LAYER_ASSIGNMENT (  '', '', ( #7 ) ) ;
#2 = DIRECTION ( 'NONE',  ( -7.227423732672903446E-17, 1.000000000000000000, -0.000000000000000000 ) ) ;
#3 = DIRECTION ( 'NONE',  ( -0.000000000000000000, -1.000000000000000000, -0.000000000000000000 ) ) ;
#4 = ORIENTED_EDGE ( 'NONE', *, *, #19, .F. ) ;
#5 = PLANE ( 'NONE',  #109 ) ;
#6 =( LENGTH_UNIT ( ) NAMED_UNIT ( * ) SI_UNIT ( .MILLI., .METRE. ) );
#7 = STYLED_ITEM ( 'NONE', ( #168 ), #23 ) ;
#8 = LINE ( 'NONE', #278, #65 ) ;
#9 = SURFACE_SIDE_STYLE ('',( #169 ) ) ;
#10 = CLOSED_SHELL ( 'NONE', ( #39, #62, #15, #95 ) ) ;
#11 = SURFACE_STYLE_FILL_AREA ( #63 ) ;
#12 = CYLINDRICAL_SURFACE ( 'NONE', #228, 12.50000000000000355 ) ;
#13 = PRODUCT_CONTEXT ( 'NONE', #249, 'mechanical' ) ;
#14 =( GEOMETRIC_REPRESENTATION_CONTEXT ( 3 ) GLOBAL_UNCERTAINTY_ASSIGNED_CONTEXT ( ( #80 ) ) GLOBAL_UNIT_ASSIGNED_CONTEXT ( ( #94, #223, #239 ) ) REPRESENTATION_CONTEXT ( 'NONE', 'WORKASPACE' ) );
#15 = ADVANCED_FACE ( 'NONE', ( #233 ), #230, .T. ) ;
#16 = ORIENTED_EDGE ( 'NONE', *, *, #191, .T. ) ;
#17 = COLOUR_RGB ( '',1.000000000000000000, 0.000000000000000000, 0.000000000000000000 ) ;
#18 = DIRECTION ( 'NONE',  ( -7.227423732672903446E-17, 1.000000000000000000, -0.000000000000000000 ) ) ;
#19 = EDGE_CURVE ( 'NONE', #132, #221, #120, .T. ) ;
#20 = COLOUR_RGB ( '',1.000000000000000000, 0.000000000000000000, 0.000000000000000000 ) ;
#21 = CARTESIAN_POINT ( 'NONE',  ( -12.50000000000000000, 64.00000000000000000, 0.000000000000000000 ) ) ;
#22 = FILL_AREA_STYLE_COLOUR ( '', #183 ) ;
#23 = ADVANCED_FACE ( 'NONE', ( #73 ), #207, .T. ) ;
#24 = FACE_OUTER_BOUND ( 'NONE', #32, .T. ) ;
#25 = UNCERTAINTY_MEASURE_WITH_UNIT (LENGTH_MEASURE( 1.000000000000000082E-05 ), #242, 'distance_accuracy_value', 'NONE');
#26 = ORIENTED_EDGE ( 'NONE', *, *, #93, .F. ) ;
#27 = DIRECTION ( 'NONE',  ( 1.000000000000000000, 7.227423732672903446E-17, 0.000000000000000000 ) ) ;
#28 = CARTESIAN_POINT ( 'NONE',  ( 0.000000000000000000, 64.00000000000000000, 0.000000000000000000 ) ) ;
#29 = CARTESIAN_POINT ( 'NONE',  ( 0.000000000000000000, 64.00000000000000000, 0.000000000000000000 ) ) ;
#30 = PLANE ( 'NONE',  #171 ) ;
#31 = CARTESIAN_POINT ( 'NONE',  ( 0.000000000000000000, 0.000000000000000000, -12.50000000000000000 ) ) ;
#32 = EDGE_LOOP ( 'NONE', ( #70, #71, #237, #238 ) ) ;
#33 = DIRECTION ( 'NONE',  ( -1.000000000000000000, 0.000000000000000000, 0.000000000000000000 ) ) ;
#34 = MECHANICAL_DESIGN_GEOMETRIC_PRESENTATION_REPRESENTATION (  '', ( #170 ), #162 ) ;
#35 = DIRECTION ( 'NONE',  ( -7.227423732672903446E-17, 1.000000000000000000, 0.000000000000000000 ) ) ;
#36 = EDGE_CURVE ( 'NONE', #221, #41, #131, .T. ) ;
#37 = DIRECTION ( 'NONE',  ( -1.000000000000000000, -7.227423732672903446E-17, 0.000000000000000000 ) ) ;
#38 =( GEOMETRIC_REPRESENTATION_CONTEXT ( 3 ) GLOBAL_UNCERTAINTY_ASSIGNED_CONTEXT ( ( #25 ) ) GLOBAL_UNIT_ASSIGNED_CONTEXT ( ( #242, #192, #100 ) ) REPRESENTATION_CONTEXT ( 'NONE', 'WORKASPACE' ) );
#39 = ADVANCED_FACE ( 'NONE', ( #267 ), #12, .T. ) ;
#40 = ORIENTED_EDGE ( 'NONE', *, *, #261, .T. ) ;
#41 = VERTEX_POINT ( 'NONE', #55 ) ;
#42 = ORIENTED_EDGE ( 'NONE', *, *, #36, .F. ) ;
#43 = DIRECTION ( 'NONE',  ( -1.000000000000000000, 0.000000000000000000, 0.000000000000000000 ) ) ;
#44 = VECTOR ( 'NONE', #51, 1000.000000000000000 ) ;
#45 = STYLED_ITEM ( 'NONE', ( #196 ), #279 ) ;
#46 = UNCERTAINTY_MEASURE_WITH_UNIT (LENGTH_MEASURE( 1.000000000000000082E-05 ), #6, 'distance_accuracy_value', 'NONE');
#47 = VERTEX_POINT ( 'NONE', #21 ) ;
#48 = CARTESIAN_POINT ( 'NONE',  ( -4.408728476930469278E-15, 124.9999999999999858, 0.000000000000000000 ) ) ;
#49 =( GEOMETRIC_REPRESENTATION_CONTEXT ( 3 ) GLOBAL_UNCERTAINTY_ASSIGNED_CONTEXT ( ( #186 ) ) GLOBAL_UNIT_ASSIGNED_CONTEXT ( ( #139, #90, #67 ) ) REPRESENTATION_CONTEXT ( 'NONE', 'WORKASPACE' ) );
#50 = EDGE_CURVE ( 'NONE', #47, #41, #203, .T. ) ;
#51 = DIRECTION ( 'NONE',  ( -7.227423732672903446E-17, 1.000000000000000000, -0.000000000000000000 ) ) ;
#52 = DIRECTION ( 'NONE',  ( 0.000000000000000000, 0.000000000000000000, -1.000000000000000000 ) ) ;
#53 = PRESENTATION_LAYER_ASSIGNMENT (  '', '', ( #45 ) ) ;
#54 =( NAMED_UNIT ( * ) PLANE_ANGLE_UNIT ( ) SI_UNIT ( $, .RADIAN. ) );
#55 = CARTESIAN_POINT ( 'NONE',  ( -12.50000000000001066, 125.0000000000000000, 0.000000000000000000 ) ) ;
#56 = CARTESIAN_POINT ( 'NONE',  ( 0.000000000000000000, 0.000000000000000000, 0.000000000000000000 ) ) ;
#57 = CIRCLE ( 'NONE', #219, 12.50000000000000533 ) ;
#58 = FILL_AREA_STYLE_COLOUR ( '', #179 ) ;
#59 =( GEOMETRIC_REPRESENTATION_CONTEXT ( 3 ) GLOBAL_UNCERTAINTY_ASSIGNED_CONTEXT ( ( #116 ) ) GLOBAL_UNIT_ASSIGNED_CONTEXT ( ( #107, #54, #174 ) ) REPRESENTATION_CONTEXT ( 'NONE', 'WORKASPACE' ) );
#60 = MECHANICAL_DESIGN_GEOMETRIC_PRESENTATION_REPRESENTATION (  '', ( #45 ), #163 ) ;
#61 = EDGE_LOOP ( 'NONE', ( #26, #91 ) ) ;
#62 = ADVANCED_FACE ( 'NONE', ( #138 ), #86, .F. ) ;
#63 = FILL_AREA_STYLE ('',( #58 ) ) ;
#64 = SURFACE_STYLE_USAGE ( .BOTH. , #216 ) ;
#65 = VECTOR ( 'NONE', #195, 1000.000000000000000 ) ;
#66 = EDGE_LOOP ( 'NONE', ( #4, #133, #145, #42 ) ) ;
#67 =( NAMED_UNIT ( * ) SI_UNIT ( $, .STERADIAN. ) SOLID_ANGLE_UNIT ( ) );
#68 = SURFACE_SIDE_STYLE ('',( #11 ) ) ;
#69 = CARTESIAN_POINT ( 'NONE',  ( 0.000000000000000000, 64.00000000000000000, -12.50000000000000000 ) ) ;
#70 = ORIENTED_EDGE ( 'NONE', *, *, #191, .F. ) ;
#71 = ORIENTED_EDGE ( 'NONE', *, *, #286, .T. ) ;
#72 = MECHANICAL_DESIGN_GEOMETRIC_PRESENTATION_REPRESENTATION (  '', ( #101 ), #14 ) ;
#73 = FACE_OUTER_BOUND ( 'NONE', #140, .T. ) ;
#74 = DIRECTION ( 'NONE',  ( -1.000000000000000000, 0.000000000000000000, 0.000000000000000000 ) ) ;
#75 = EDGE_CURVE ( 'NONE', #235, #161, #283, .T. ) ;
#76 = ORIENTED_EDGE ( 'NONE', *, *, #225, .T. ) ;
#77 = FILL_AREA_STYLE_COLOUR ( '', #17 ) ;
#78 = DIRECTION ( 'NONE',  ( 0.000000000000000000, 0.000000000000000000, -1.000000000000000000 ) ) ;
#79 = PRODUCT_DEFINITION_SHAPE ( 'NONE', 'NONE',  #187 ) ;
#80 = UNCERTAINTY_MEASURE_WITH_UNIT (LENGTH_MEASURE( 1.000000000000000082E-05 ), #94, 'distance_accuracy_value', 'NONE');
#81 = SURFACE_STYLE_FILL_AREA ( #272 ) ;
#82 = SURFACE_SIDE_STYLE ('',( #105 ) ) ;
#83 = MANIFOLD_SOLID_BREP ( 'Revolve - Tool Body (Straight Shanked)', #10 ) ;
#84 = CYLINDRICAL_SURFACE ( 'NONE', #166, 12.50000000000000000 ) ;
#85 = SURFACE_STYLE_USAGE ( .BOTH. , #268 ) ;
#86 = PLANE ( 'NONE',  #119 ) ;
#87 = VECTOR ( 'NONE', #173, 1000.000000000000000 ) ;
#88 = AXIS2_PLACEMENT_3D ( 'NONE', #218, #165, #141 ) ;
#89 = ORIENTED_EDGE ( 'NONE', *, *, #164, .T. ) ;
#90 =( NAMED_UNIT ( * ) PLANE_ANGLE_UNIT ( ) SI_UNIT ( $, .RADIAN. ) );
#91 = ORIENTED_EDGE ( 'NONE', *, *, #286, .F. ) ;
#92 = PRODUCT ( '59791', '59791', '', ( #13 ) ) ;
#93 = EDGE_CURVE ( 'NONE', #235, #106, #182, .T. ) ;
#94 =( LENGTH_UNIT ( ) NAMED_UNIT ( * ) SI_UNIT ( .MILLI., .METRE. ) );
#95 = ADVANCED_FACE ( 'NONE', ( #153 ), #118, .F. ) ;
#96 = CARTESIAN_POINT ( 'NONE',  ( 0.000000000000000000, 0.000000000000000000, 0.000000000000000000 ) ) ;
#97 = CARTESIAN_POINT ( 'NONE',  ( 1.530808498934191521E-15, 0.000000000000000000, 12.50000000000000000 ) ) ;
#98 = DIRECTION ( 'NONE',  ( 0.000000000000000000, -1.000000000000000000, -0.000000000000000000 ) ) ;
#99 = FILL_AREA_STYLE ('',( #104 ) ) ;
#100 =( NAMED_UNIT ( * ) SI_UNIT ( $, .STERADIAN. ) SOLID_ANGLE_UNIT ( ) );
#101 = STYLED_ITEM ( 'NONE', ( #282 ), #194 ) ;
#102 = DIRECTION ( 'NONE',  ( -1.000000000000000000, 0.000000000000000000, 0.000000000000000000 ) ) ;
#103 = SURFACE_STYLE_USAGE ( .BOTH. , #208 ) ;
#104 = FILL_AREA_STYLE_COLOUR ( '', #20 ) ;
#105 = SURFACE_STYLE_FILL_AREA ( #274 ) ;
#106 = VERTEX_POINT ( 'NONE', #121 ) ;
#107 =( LENGTH_UNIT ( ) NAMED_UNIT ( * ) SI_UNIT ( .MILLI., .METRE. ) );
#108 = FACE_OUTER_BOUND ( 'NONE', #284, .T. ) ;
#109 = AXIS2_PLACEMENT_3D ( 'NONE', #29, #277, #193 ) ;
#110 = ORIENTED_EDGE ( 'NONE', *, *, #93, .T. ) ;
#111 = APPLICATION_CONTEXT ( 'automotive_design' ) ;
#112 = SHAPE_DEFINITION_REPRESENTATION ( #79, #260 ) ;
#113 = ORIENTED_EDGE ( 'NONE', *, *, #129, .T. ) ;
#114 = ORIENTED_EDGE ( 'NONE', *, *, #19, .T. ) ;
#115 = AXIS2_PLACEMENT_3D ( 'NONE', #212, #231, #246 ) ;
#116 = UNCERTAINTY_MEASURE_WITH_UNIT (LENGTH_MEASURE( 1.000000000000000082E-05 ), #107, 'distance_accuracy_value', 'NONE');
#117 = DIRECTION ( 'NONE',  ( -0.000000000000000000, -1.000000000000000000, -0.000000000000000000 ) ) ;
#118 = PLANE ( 'NONE',  #258 ) ;
#119 = AXIS2_PLACEMENT_3D ( 'NONE', #157, #35, #37 ) ;
#120 = LINE ( 'NONE', #122, #87 ) ;
#121 = CARTESIAN_POINT ( 'NONE',  ( 1.530808498934191521E-15, 64.00000000000000000, 12.50000000000000000 ) ) ;
#122 = CARTESIAN_POINT ( 'NONE',  ( 12.49999999999999822, 124.9999999999999858, 1.530808498934191916E-15 ) ) ;
#123 =( NAMED_UNIT ( * ) PLANE_ANGLE_UNIT ( ) SI_UNIT ( $, .RADIAN. ) );
#124 = CARTESIAN_POINT ( 'NONE',  ( 0.000000000000000000, 0.000000000000000000, 0.000000000000000000 ) ) ;
#125 = CARTESIAN_POINT ( 'NONE',  ( -4.408728476930469278E-15, 124.9999999999999858, 0.000000000000000000 ) ) ;
#126 = SURFACE_STYLE_USAGE ( .BOTH. , #82 ) ;
#127 = DIRECTION ( 'NONE',  ( 1.000000000000000000, 0.000000000000000000, 0.000000000000000000 ) ) ;
#128 = PRODUCT_RELATED_PRODUCT_CATEGORY ( 'part', '', ( #92 ) ) ;
#129 = EDGE_CURVE ( 'NONE', #130, #161, #185, .T. ) ;
#130 = VERTEX_POINT ( 'NONE', #97 ) ;
#131 = CIRCLE ( 'NONE', #201, 12.50000000000000533 ) ;
#132 = VERTEX_POINT ( 'NONE', #247 ) ;
#133 = ORIENTED_EDGE ( 'NONE', *, *, #172, .T. ) ;
#134 = COLOUR_RGB ( '',0.7921568627450980005, 0.8196078431372548767, 0.9333333333333333481 ) ;
#135 = SURFACE_STYLE_FILL_AREA ( #177 ) ;
#136 = PRODUCT_DEFINITION_FORMATION_WITH_SPECIFIED_SOURCE ( 'ANY', '', #92, .NOT_KNOWN. ) ;
#137 = EDGE_LOOP ( 'NONE', ( #159, #257 ) ) ;
#138 = FACE_OUTER_BOUND ( 'NONE', #137, .T. ) ;
#139 =( LENGTH_UNIT ( ) NAMED_UNIT ( * ) SI_UNIT ( .MILLI., .METRE. ) );
#140 = EDGE_LOOP ( 'NONE', ( #110, #16, #184, #263 ) ) ;
#141 = DIRECTION ( 'NONE',  ( 0.000000000000000000, 0.000000000000000000, -1.000000000000000000 ) ) ;
#142 = FILL_AREA_STYLE ('',( #271 ) ) ;
#143 = AXIS2_PLACEMENT_3D ( 'NONE', #270, #190, #155 ) ;
#144 = CIRCLE ( 'NONE', #215, 12.50000000000000000 ) ;
#145 = ORIENTED_EDGE ( 'NONE', *, *, #50, .T. ) ;
#146 = DIRECTION ( 'NONE',  ( -0.000000000000000000, -1.000000000000000000, -0.000000000000000000 ) ) ;
#147 =( LENGTH_UNIT ( ) NAMED_UNIT ( * ) SI_UNIT ( .MILLI., .METRE. ) );
#148 = UNCERTAINTY_MEASURE_WITH_UNIT (LENGTH_MEASURE( 1.000000000000000082E-05 ), #147, 'distance_accuracy_value', 'NONE');
#149 = CARTESIAN_POINT ( 'NONE',  ( -12.50000000000000888, 124.9999999999999858, 0.000000000000000000 ) ) ;
#150 =( LENGTH_UNIT ( ) NAMED_UNIT ( * ) SI_UNIT ( .MILLI., .METRE. ) );
#151 = ADVANCED_FACE ( 'NONE', ( #189 ), #5, .T. ) ;
#152 = PRESENTATION_STYLE_ASSIGNMENT (( #103 ) ) ;
#153 = FACE_OUTER_BOUND ( 'NONE', #285, .T. ) ;
#154 = DIRECTION ( 'NONE',  ( 0.000000000000000000, 0.000000000000000000, 1.000000000000000000 ) ) ;
#155 = DIRECTION ( 'NONE',  ( -1.000000000000000000, 0.000000000000000000, 0.000000000000000000 ) ) ;
#156 =( NAMED_UNIT ( * ) SI_UNIT ( $, .STERADIAN. ) SOLID_ANGLE_UNIT ( ) );
#157 = CARTESIAN_POINT ( 'NONE',  ( 3.264728363225220430E-32, 64.00000000000000000, 0.000000000000000000 ) ) ;
#158 = MECHANICAL_DESIGN_GEOMETRIC_PRESENTATION_REPRESENTATION (  '', ( #210 ), #49 ) ;
#159 = ORIENTED_EDGE ( 'NONE', *, *, #261, .F. ) ;
#160 = ORIENTED_EDGE ( 'NONE', *, *, #50, .F. ) ;
#161 = VERTEX_POINT ( 'NONE', #31 ) ;
#162 =( GEOMETRIC_REPRESENTATION_CONTEXT ( 3 ) GLOBAL_UNCERTAINTY_ASSIGNED_CONTEXT ( ( #148 ) ) GLOBAL_UNIT_ASSIGNED_CONTEXT ( ( #147, #254, #156 ) ) REPRESENTATION_CONTEXT ( 'NONE', 'WORKASPACE' ) );
#163 =( GEOMETRIC_REPRESENTATION_CONTEXT ( 3 ) GLOBAL_UNCERTAINTY_ASSIGNED_CONTEXT ( ( #46 ) ) GLOBAL_UNIT_ASSIGNED_CONTEXT ( ( #6, #227, #205 ) ) REPRESENTATION_CONTEXT ( 'NONE', 'WORKASPACE' ) );
#164 = EDGE_CURVE ( 'NONE', #161, #130, #234, .T. ) ;
#165 = DIRECTION ( 'NONE',  ( -0.000000000000000000, -1.000000000000000000, -0.000000000000000000 ) ) ;
#166 = AXIS2_PLACEMENT_3D ( 'NONE', #124, #209, #176 ) ;
#167 = CARTESIAN_POINT ( 'NONE',  ( 12.50000000000000000, 125.0000000000000000, 0.000000000000000000 ) ) ;
#168 = PRESENTATION_STYLE_ASSIGNMENT (( #85 ) ) ;
#169 = SURFACE_STYLE_FILL_AREA ( #99 ) ;
#170 = STYLED_ITEM ( 'NONE', ( #152 ), #151 ) ;
#171 = AXIS2_PLACEMENT_3D ( 'NONE', #211, #98, #269 ) ;
#172 = EDGE_CURVE ( 'NONE', #132, #47, #281, .T. ) ;
#173 = DIRECTION ( 'NONE',  ( -7.227423732672903446E-17, 1.000000000000000000, -0.000000000000000000 ) ) ;
#174 =( NAMED_UNIT ( * ) SI_UNIT ( $, .STERADIAN. ) SOLID_ANGLE_UNIT ( ) );
#175 = SURFACE_STYLE_USAGE ( .BOTH. , #9 ) ;
#176 = DIRECTION ( 'NONE',  ( 0.000000000000000000, 0.000000000000000000, -1.000000000000000000 ) ) ;
#177 = FILL_AREA_STYLE ('',( #253 ) ) ;
#178 = CLOSED_SHELL ( 'NONE', ( #23, #151, #181, #279 ) ) ;
#179 = COLOUR_RGB ( '',0.7921568627450980005, 0.8196078431372548767, 0.9333333333333333481 ) ;
#180 = CIRCLE ( 'NONE', #259, 12.50000000000000000 ) ;
#181 = ADVANCED_FACE ( 'NONE', ( #24 ), #84, .T. ) ;
#182 = CIRCLE ( 'NONE', #88, 12.50000000000000000 ) ;
#183 = COLOUR_RGB ( '',1.000000000000000000, 0.000000000000000000, 0.000000000000000000 ) ;
#184 = ORIENTED_EDGE ( 'NONE', *, *, #164, .F. ) ;
#185 = CIRCLE ( 'NONE', #287, 12.50000000000000000 ) ;
#186 = UNCERTAINTY_MEASURE_WITH_UNIT (LENGTH_MEASURE( 1.000000000000000082E-05 ), #139, 'distance_accuracy_value', 'NONE');
#187 = PRODUCT_DEFINITION ( 'UNKNOWN', '', #136, #206 ) ;
#188 = DIRECTION ( 'NONE',  ( -7.227423732672903446E-17, 1.000000000000000000, -0.000000000000000000 ) ) ;
#189 = FACE_OUTER_BOUND ( 'NONE', #61, .T. ) ;
#190 = DIRECTION ( 'NONE',  ( -7.227423732672903446E-17, 1.000000000000000000, -0.000000000000000000 ) ) ;
#191 = EDGE_CURVE ( 'NONE', #106, #130, #8, .T. ) ;
#192 =( NAMED_UNIT ( * ) PLANE_ANGLE_UNIT ( ) SI_UNIT ( $, .RADIAN. ) );
#193 = DIRECTION ( 'NONE',  ( 0.000000000000000000, -0.000000000000000000, 1.000000000000000000 ) ) ;
#194 = MANIFOLD_SOLID_BREP ( 'Revolve - Cutting Edge', #178 ) ;
#195 = DIRECTION ( 'NONE',  ( -0.000000000000000000, -1.000000000000000000, -0.000000000000000000 ) ) ;
#196 = PRESENTATION_STYLE_ASSIGNMENT (( #126 ) ) ;
#197 = PRESENTATION_LAYER_ASSIGNMENT (  '', '', ( #198 ) ) ;
#198 = STYLED_ITEM ( 'NONE', ( #252 ), #181 ) ;
#199 = SURFACE_STYLE_USAGE ( .BOTH. , #68 ) ;
#200 = CARTESIAN_POINT ( 'NONE',  ( 12.50000000000000000, 125.0000000000000000, 1.530808498934191916E-15 ) ) ;
#201 = AXIS2_PLACEMENT_3D ( 'NONE', #255, #2, #33 ) ;
#202 =( GEOMETRIC_REPRESENTATION_CONTEXT ( 3 ) GLOBAL_UNCERTAINTY_ASSIGNED_CONTEXT ( ( #229 ) ) GLOBAL_UNIT_ASSIGNED_CONTEXT ( ( #150, #123, #251 ) ) REPRESENTATION_CONTEXT ( 'NONE', 'WORKASPACE' ) );
#203 = LINE ( 'NONE', #149, #44 ) ;
#204 = CARTESIAN_POINT ( 'NONE',  ( 0.000000000000000000, 0.000000000000000000, 0.000000000000000000 ) ) ;
#205 =( NAMED_UNIT ( * ) SI_UNIT ( $, .STERADIAN. ) SOLID_ANGLE_UNIT ( ) );
#206 = PRODUCT_DEFINITION_CONTEXT ( 'detailed design', #111, 'design' ) ;
#207 = CYLINDRICAL_SURFACE ( 'NONE', #241, 12.50000000000000000 ) ;
#208 = SURFACE_SIDE_STYLE ('',( #81 ) ) ;
#209 = DIRECTION ( 'NONE',  ( -0.000000000000000000, -1.000000000000000000, -0.000000000000000000 ) ) ;
#210 = STYLED_ITEM ( 'NONE', ( #288 ), #83 ) ;
#211 = CARTESIAN_POINT ( 'NONE',  ( 0.000000000000000000, 0.000000000000000000, 0.000000000000000000 ) ) ;
#212 = CARTESIAN_POINT ( 'NONE',  ( 0.000000000000000000, 0.000000000000000000, 0.000000000000000000 ) ) ;
#213 = APPLICATION_PROTOCOL_DEFINITION ( 'draft international standard', 'automotive_design', 1998, #111 ) ;
#214 = MECHANICAL_DESIGN_GEOMETRIC_PRESENTATION_REPRESENTATION (  '', ( #198 ), #59 ) ;
#215 = AXIS2_PLACEMENT_3D ( 'NONE', #28, #146, #78 ) ;
#216 = SURFACE_SIDE_STYLE ('',( #135 ) ) ;
#217 = CARTESIAN_POINT ( 'NONE',  ( 0.000000000000000000, 0.000000000000000000, -12.50000000000000000 ) ) ;
#218 = CARTESIAN_POINT ( 'NONE',  ( 0.000000000000000000, 64.00000000000000000, 0.000000000000000000 ) ) ;
#219 = AXIS2_PLACEMENT_3D ( 'NONE', #275, #266, #43 ) ;
#220 = AXIS2_PLACEMENT_3D ( 'NONE', #56, #154, #127 ) ;
#221 = VERTEX_POINT ( 'NONE', #200 ) ;
#222 = COLOUR_RGB ( '',1.000000000000000000, 0.000000000000000000, 0.000000000000000000 ) ;
#223 =( NAMED_UNIT ( * ) PLANE_ANGLE_UNIT ( ) SI_UNIT ( $, .RADIAN. ) );
#224 = SURFACE_STYLE_FILL_AREA ( #142 ) ;
#225 = EDGE_CURVE ( 'NONE', #41, #221, #57, .T. ) ;
#226 = DIRECTION ( 'NONE',  ( -7.227423732672903446E-17, 1.000000000000000000, -0.000000000000000000 ) ) ;
#227 =( NAMED_UNIT ( * ) PLANE_ANGLE_UNIT ( ) SI_UNIT ( $, .RADIAN. ) );
#228 = AXIS2_PLACEMENT_3D ( 'NONE', #48, #226, #102 ) ;
#229 = UNCERTAINTY_MEASURE_WITH_UNIT (LENGTH_MEASURE( 1.000000000000000082E-05 ), #150, 'distance_accuracy_value', 'NONE');
#230 = CYLINDRICAL_SURFACE ( 'NONE', #240, 12.50000000000000355 ) ;
#231 = DIRECTION ( 'NONE',  ( -0.000000000000000000, -1.000000000000000000, -0.000000000000000000 ) ) ;
#232 = DIRECTION ( 'NONE',  ( -0.000000000000000000, -1.000000000000000000, -0.000000000000000000 ) ) ;
#233 = FACE_OUTER_BOUND ( 'NONE', #66, .T. ) ;
#234 = CIRCLE ( 'NONE', #115, 12.50000000000000000 ) ;
#235 = VERTEX_POINT ( 'NONE', #69 ) ;
#236 = PRESENTATION_LAYER_ASSIGNMENT (  '', '', ( #170 ) ) ;
#237 = ORIENTED_EDGE ( 'NONE', *, *, #75, .T. ) ;
#238 = ORIENTED_EDGE ( 'NONE', *, *, #129, .F. ) ;
#239 =( NAMED_UNIT ( * ) SI_UNIT ( $, .STERADIAN. ) SOLID_ANGLE_UNIT ( ) );
#240 = AXIS2_PLACEMENT_3D ( 'NONE', #125, #188, #265 ) ;
#241 = AXIS2_PLACEMENT_3D ( 'NONE', #96, #117, #244 ) ;
#242 =( LENGTH_UNIT ( ) NAMED_UNIT ( * ) SI_UNIT ( .MILLI., .METRE. ) );
#243 = CARTESIAN_POINT ( 'NONE',  ( 7.703719777548943412E-31, 64.00000000000000000, 0.000000000000000000 ) ) ;
#244 = DIRECTION ( 'NONE',  ( 0.000000000000000000, 0.000000000000000000, -1.000000000000000000 ) ) ;
#245 = VECTOR ( 'NONE', #232, 1000.000000000000000 ) ;
#246 = DIRECTION ( 'NONE',  ( 0.000000000000000000, 0.000000000000000000, -1.000000000000000000 ) ) ;
#247 = CARTESIAN_POINT ( 'NONE',  ( 12.50000000000000000, 64.00000000000000000, 1.530808498934191916E-15 ) ) ;
#248 = APPLICATION_PROTOCOL_DEFINITION ( 'draft international standard', 'automotive_design', 1998, #249 ) ;
#249 = APPLICATION_CONTEXT ( 'automotive_design' ) ;
#250 = DIRECTION ( 'NONE',  ( 7.227423732672903446E-17, -1.000000000000000000, 0.000000000000000000 ) ) ;
#251 =( NAMED_UNIT ( * ) SI_UNIT ( $, .STERADIAN. ) SOLID_ANGLE_UNIT ( ) );
#252 = PRESENTATION_STYLE_ASSIGNMENT (( #175 ) ) ;
#253 = FILL_AREA_STYLE_COLOUR ( '', #134 ) ;
#254 =( NAMED_UNIT ( * ) PLANE_ANGLE_UNIT ( ) SI_UNIT ( $, .RADIAN. ) );
#255 = CARTESIAN_POINT ( 'NONE',  ( -4.408728476930470067E-15, 125.0000000000000000, 0.000000000000000000 ) ) ;
#256 = PRESENTATION_LAYER_ASSIGNMENT (  '', '', ( #101 ) ) ;
#257 = ORIENTED_EDGE ( 'NONE', *, *, #172, .F. ) ;
#258 = AXIS2_PLACEMENT_3D ( 'NONE', #167, #250, #27 ) ;
#259 = AXIS2_PLACEMENT_3D ( 'NONE', #243, #18, #74 ) ;
#260 = ADVANCED_BREP_SHAPE_REPRESENTATION ( '59791', ( #194, #83, #220 ), #202 ) ;
#261 = EDGE_CURVE ( 'NONE', #47, #132, #180, .T. ) ;
#262 = ORIENTED_EDGE ( 'NONE', *, *, #225, .F. ) ;
#263 = ORIENTED_EDGE ( 'NONE', *, *, #75, .F. ) ;
#264 = ORIENTED_EDGE ( 'NONE', *, *, #36, .T. ) ;
#265 = DIRECTION ( 'NONE',  ( -1.000000000000000000, 0.000000000000000000, 0.000000000000000000 ) ) ;
#266 = DIRECTION ( 'NONE',  ( -7.227423732672903446E-17, 1.000000000000000000, -0.000000000000000000 ) ) ;
#267 = FACE_OUTER_BOUND ( 'NONE', #276, .T. ) ;
#268 = SURFACE_SIDE_STYLE ('',( #224 ) ) ;
#269 = DIRECTION ( 'NONE',  ( 0.000000000000000000, 0.000000000000000000, -1.000000000000000000 ) ) ;
#270 = CARTESIAN_POINT ( 'NONE',  ( 7.703719777548943412E-31, 64.00000000000000000, 0.000000000000000000 ) ) ;
#271 = FILL_AREA_STYLE_COLOUR ( '', #222 ) ;
#272 = FILL_AREA_STYLE ('',( #77 ) ) ;
#273 = MECHANICAL_DESIGN_GEOMETRIC_PRESENTATION_REPRESENTATION (  '', ( #7 ), #38 ) ;
#274 = FILL_AREA_STYLE ('',( #22 ) ) ;
#275 = CARTESIAN_POINT ( 'NONE',  ( -4.408728476930470067E-15, 125.0000000000000000, 0.000000000000000000 ) ) ;
#276 = EDGE_LOOP ( 'NONE', ( #40, #114, #262, #160 ) ) ;
#277 = DIRECTION ( 'NONE',  ( 0.000000000000000000, 1.000000000000000000, 0.000000000000000000 ) ) ;
#278 = CARTESIAN_POINT ( 'NONE',  ( 1.530808498934191521E-15, 0.000000000000000000, 12.50000000000000000 ) ) ;
#279 = ADVANCED_FACE ( 'NONE', ( #108 ), #30, .T. ) ;
#280 = PRESENTATION_LAYER_ASSIGNMENT (  '', '', ( #210 ) ) ;
#281 = CIRCLE ( 'NONE', #143, 12.50000000000000000 ) ;
#282 = PRESENTATION_STYLE_ASSIGNMENT (( #64 ) ) ;
#283 = LINE ( 'NONE', #217, #245 ) ;
#284 = EDGE_LOOP ( 'NONE', ( #89, #113 ) ) ;
#285 = EDGE_LOOP ( 'NONE', ( #76, #264 ) ) ;
#286 = EDGE_CURVE ( 'NONE', #106, #235, #144, .T. ) ;
#287 = AXIS2_PLACEMENT_3D ( 'NONE', #204, #3, #52 ) ;
#288 = PRESENTATION_STYLE_ASSIGNMENT (( #199 ) ) ;
ENDSEC;
END-ISO-10303-21;
