ISO-10303-21;
HEADER;
FILE_DESCRIPTION (( 'STEP AP214' ),
    '1' );
FILE_NAME ('44437W.STEP',
    '2023-06-22T20:36:57',
    ( '' ),
    ( '' ),
    'SwSTEP 2.0',
    'SolidWorks 2023',
    '' );
FILE_SCHEMA (( 'AUTOMOTIVE_DESIGN' ));
ENDSEC;

DATA;
#1 = DIRECTION ( 'NONE',  ( -0.000000000000000000, -1.000000000000000000, -0.000000000000000000 ) ) ;
#2 = DIRECTION ( 'NONE',  ( -2.578203787678635493E-17, 1.000000000000000000, -0.000000000000000000 ) ) ;
#3 = CIRCLE ( 'NONE', #122, 0.5000000000000000000 ) ;
#4 = DIRECTION ( 'NONE',  ( -1.000000000000000000, 0.000000000000000000, 0.000000000000000000 ) ) ;
#5 = CARTESIAN_POINT ( 'NONE',  ( 0.4999999999999999445, 5.000000000000000000, 6.123233995736766036E-17 ) ) ;
#6 = SURFACE_SIDE_STYLE ('',( #49 ) ) ;
#7 = FILL_AREA_STYLE ('',( #244 ) ) ;
#8 = CARTESIAN_POINT ( 'NONE',  ( -0.5000000000000001110, 5.000000000000000000, 0.000000000000000000 ) ) ;
#9 = DIRECTION ( 'NONE',  ( 0.000000000000000000, -1.000000000000000000, -0.000000000000000000 ) ) ;
#10 = DIRECTION ( 'NONE',  ( -1.000000000000000000, 0.000000000000000000, 0.000000000000000000 ) ) ;
#11 = PRODUCT ( '44437W', '44437W', '', ( #255 ) ) ;
#12 =( LENGTH_UNIT ( ) NAMED_UNIT ( * ) SI_UNIT ( $, .METRE. ) );
#13 = COLOUR_RGB ( '',1.000000000000000000, 0.000000000000000000, 0.000000000000000000 ) ;
#14 = ADVANCED_FACE ( 'NONE', ( #276 ), #278, .T. ) ;
#15 = DIRECTION ( 'NONE',  ( -1.000000000000000000, 0.000000000000000000, 0.000000000000000000 ) ) ;
#16 = DIRECTION ( 'NONE',  ( -0.000000000000000000, -1.000000000000000000, -0.000000000000000000 ) ) ;
#17 = EDGE_LOOP ( 'NONE', ( #110, #286 ) ) ;
#18 = ORIENTED_EDGE ( 'NONE', *, *, #126, .F. ) ;
#19 = DIRECTION ( 'NONE',  ( -2.578203787678635493E-17, 1.000000000000000000, -0.000000000000000000 ) ) ;
#20 =( GEOMETRIC_REPRESENTATION_CONTEXT ( 3 ) GLOBAL_UNCERTAINTY_ASSIGNED_CONTEXT ( ( #150 ) ) GLOBAL_UNIT_ASSIGNED_CONTEXT ( ( #204, #154, #283 ) ) REPRESENTATION_CONTEXT ( 'NONE', 'WORKASPACE' ) );
#21 = AXIS2_PLACEMENT_3D ( 'NONE', #241, #187, #144 ) ;
#22 = ORIENTED_EDGE ( 'NONE', *, *, #81, .F. ) ;
#23 = ORIENTED_EDGE ( 'NONE', *, *, #137, .F. ) ;
#24 = ADVANCED_FACE ( 'NONE', ( #35 ), #306, .T. ) ;
#25 = DIRECTION ( 'NONE',  ( -0.000000000000000000, -1.000000000000000000, -0.000000000000000000 ) ) ;
#26 = PRESENTATION_STYLE_ASSIGNMENT (( #293 ) ) ;
#27 = UNCERTAINTY_MEASURE_WITH_UNIT (LENGTH_MEASURE( 1.000000000000000082E-05 ), #36, 'distance_accuracy_value', 'NONE');
#28 = CARTESIAN_POINT ( 'NONE',  ( -6.123233995736759873E-17, 5.000000000000000000, 0.000000000000000000 ) ) ;
#29 =( GEOMETRIC_REPRESENTATION_CONTEXT ( 3 ) GLOBAL_UNCERTAINTY_ASSIGNED_CONTEXT ( ( #162 ) ) GLOBAL_UNIT_ASSIGNED_CONTEXT ( ( #267, #295, #48 ) ) REPRESENTATION_CONTEXT ( 'NONE', 'WORKASPACE' ) );
#30 = MECHANICAL_DESIGN_GEOMETRIC_PRESENTATION_REPRESENTATION (  '', ( #265 ), #20 ) ;
#31 =( LENGTH_UNIT ( ) NAMED_UNIT ( * ) SI_UNIT ( $, .METRE. ) );
#32 = LENGTH_MEASURE_WITH_UNIT ( LENGTH_MEASURE( 0.02539999999999999897 ), #149 );
#33 = VERTEX_POINT ( 'NONE', #164 ) ;
#34 = COLOUR_RGB ( '',0.7921568627450980005, 0.8196078431372548767, 0.9333333333333333481 ) ;
#35 = FACE_OUTER_BOUND ( 'NONE', #180, .T. ) ;
#36 =( CONVERSION_BASED_UNIT ( 'INCH', #277 ) LENGTH_UNIT ( ) NAMED_UNIT ( #266 ) );
#37 = PRESENTATION_STYLE_ASSIGNMENT (( #155 ) ) ;
#38 = FILL_AREA_STYLE_COLOUR ( '', #59 ) ;
#39 = DIMENSIONAL_EXPONENTS ( 1.000000000000000000, 0.000000000000000000, 0.000000000000000000, 0.000000000000000000, 0.000000000000000000, 0.000000000000000000, 0.000000000000000000 ) ;
#40 = DIRECTION ( 'NONE',  ( -1.000000000000000000, 0.000000000000000000, 0.000000000000000000 ) ) ;
#41 = ADVANCED_FACE ( 'NONE', ( #42 ), #69, .F. ) ;
#42 = FACE_OUTER_BOUND ( 'NONE', #184, .T. ) ;
#43 = AXIS2_PLACEMENT_3D ( 'NONE', #80, #176, #151 ) ;
#44 = PRESENTATION_STYLE_ASSIGNMENT (( #237 ) ) ;
#45 = CARTESIAN_POINT ( 'NONE',  ( 0.000000000000000000, 0.000000000000000000, 0.000000000000000000 ) ) ;
#46 = EDGE_CURVE ( 'NONE', #178, #56, #100, .T. ) ;
#47 = LINE ( 'NONE', #5, #54 ) ;
#48 =( NAMED_UNIT ( * ) SI_UNIT ( $, .STERADIAN. ) SOLID_ANGLE_UNIT ( ) );
#49 = SURFACE_STYLE_FILL_AREA ( #7 ) ;
#50 = FACE_OUTER_BOUND ( 'NONE', #203, .T. ) ;
#51 = ADVANCED_FACE ( 'NONE', ( #245 ), #99, .T. ) ;
#52 = UNCERTAINTY_MEASURE_WITH_UNIT (LENGTH_MEASURE( 1.000000000000000082E-05 ), #305, 'distance_accuracy_value', 'NONE');
#53 = LENGTH_MEASURE_WITH_UNIT ( LENGTH_MEASURE( 0.02539999999999999897 ), #31 );
#54 = VECTOR ( 'NONE', #102, 39.37007874015748143 ) ;
#55 = PRODUCT_RELATED_PRODUCT_CATEGORY ( 'part', '', ( #11 ) ) ;
#56 = VERTEX_POINT ( 'NONE', #210 ) ;
#57 = EDGE_CURVE ( 'NONE', #134, #206, #177, .T. ) ;
#58 =( NAMED_UNIT ( * ) PLANE_ANGLE_UNIT ( ) SI_UNIT ( $, .RADIAN. ) );
#59 = COLOUR_RGB ( '',1.000000000000000000, 0.000000000000000000, 0.000000000000000000 ) ;
#60 = CIRCLE ( 'NONE', #252, 0.5000000000000001110 ) ;
#61 = SURFACE_SIDE_STYLE ('',( #181 ) ) ;
#62 = DIMENSIONAL_EXPONENTS ( 1.000000000000000000, 0.000000000000000000, 0.000000000000000000, 0.000000000000000000, 0.000000000000000000, 0.000000000000000000, 0.000000000000000000 ) ;
#63 = ORIENTED_EDGE ( 'NONE', *, *, #68, .T. ) ;
#64 = FILL_AREA_STYLE ('',( #92 ) ) ;
#65 = FILL_AREA_STYLE ('',( #88 ) ) ;
#66 = STYLED_ITEM ( 'NONE', ( #26 ), #51 ) ;
#67 = MECHANICAL_DESIGN_GEOMETRIC_PRESENTATION_REPRESENTATION (  '', ( #118 ), #300 ) ;
#68 = EDGE_CURVE ( 'NONE', #282, #33, #78, .T. ) ;
#69 = PLANE ( 'NONE',  #21 ) ;
#70 =( LENGTH_UNIT ( ) NAMED_UNIT ( * ) SI_UNIT ( $, .METRE. ) );
#71 = DIRECTION ( 'NONE',  ( -0.000000000000000000, -1.000000000000000000, -0.000000000000000000 ) ) ;
#72 = MECHANICAL_DESIGN_GEOMETRIC_PRESENTATION_REPRESENTATION (  '', ( #225 ), #238 ) ;
#73 =( CONVERSION_BASED_UNIT ( 'INCH', #53 ) LENGTH_UNIT ( ) NAMED_UNIT ( #236 ) );
#74 = SURFACE_STYLE_FILL_AREA ( #297 ) ;
#75 = CARTESIAN_POINT ( 'NONE',  ( 1.661783692700115704E-34, 2.625000000000000000, 0.000000000000000000 ) ) ;
#76 = LENGTH_MEASURE_WITH_UNIT ( LENGTH_MEASURE( 0.02539999999999999897 ), #120 );
#77 =( GEOMETRIC_REPRESENTATION_CONTEXT ( 3 ) GLOBAL_UNCERTAINTY_ASSIGNED_CONTEXT ( ( #242 ) ) GLOBAL_UNIT_ASSIGNED_CONTEXT ( ( #161, #189, #97 ) ) REPRESENTATION_CONTEXT ( 'NONE', 'WORKASPACE' ) );
#78 = CIRCLE ( 'NONE', #296, 0.5000000000000000000 ) ;
#79 = SURFACE_SIDE_STYLE ('',( #74 ) ) ;
#80 = CARTESIAN_POINT ( 'NONE',  ( 0.000000000000000000, 0.000000000000000000, 0.000000000000000000 ) ) ;
#81 = EDGE_CURVE ( 'NONE', #129, #259, #60, .T. ) ;
#82 =( GEOMETRIC_REPRESENTATION_CONTEXT ( 3 ) GLOBAL_UNCERTAINTY_ASSIGNED_CONTEXT ( ( #52 ) ) GLOBAL_UNIT_ASSIGNED_CONTEXT ( ( #305, #58, #281 ) ) REPRESENTATION_CONTEXT ( 'NONE', 'WORKASPACE' ) );
#83 = AXIS2_PLACEMENT_3D ( 'NONE', #269, #1, #95 ) ;
#84 = ORIENTED_EDGE ( 'NONE', *, *, #137, .T. ) ;
#85 = PRESENTATION_STYLE_ASSIGNMENT (( #132 ) ) ;
#86 = ORIENTED_EDGE ( 'NONE', *, *, #224, .F. ) ;
#87 = SURFACE_STYLE_FILL_AREA ( #208 ) ;
#88 = FILL_AREA_STYLE_COLOUR ( '', #274 ) ;
#89 = CARTESIAN_POINT ( 'NONE',  ( -6.123233995736759873E-17, 5.000000000000000000, 0.000000000000000000 ) ) ;
#90 = VECTOR ( 'NONE', #124, 39.37007874015748143 ) ;
#91 =( LENGTH_UNIT ( ) NAMED_UNIT ( * ) SI_UNIT ( $, .METRE. ) );
#92 = FILL_AREA_STYLE_COLOUR ( '', #239 ) ;
#93 = APPLICATION_PROTOCOL_DEFINITION ( 'draft international standard', 'automotive_design', 1998, #212 ) ;
#94 = ORIENTED_EDGE ( 'NONE', *, *, #46, .T. ) ;
#95 = DIRECTION ( 'NONE',  ( 0.000000000000000000, 0.000000000000000000, -1.000000000000000000 ) ) ;
#96 = AXIS2_PLACEMENT_3D ( 'NONE', #89, #19, #10 ) ;
#97 =( NAMED_UNIT ( * ) SI_UNIT ( $, .STERADIAN. ) SOLID_ANGLE_UNIT ( ) );
#98 = DIRECTION ( 'NONE',  ( -0.000000000000000000, -1.000000000000000000, -0.000000000000000000 ) ) ;
#99 = PLANE ( 'NONE',  #260 ) ;
#100 = CIRCLE ( 'NONE', #130, 0.5000000000000000000 ) ;
#101 = AXIS2_PLACEMENT_3D ( 'NONE', #123, #9, #220 ) ;
#102 = DIRECTION ( 'NONE',  ( -2.578203787678635185E-17, 1.000000000000000000, -0.000000000000000000 ) ) ;
#103 = CARTESIAN_POINT ( 'NONE',  ( 0.000000000000000000, 2.625000000000000000, 0.000000000000000000 ) ) ;
#104 = DIRECTION ( 'NONE',  ( -1.000000000000000000, -2.578203787678635185E-17, 0.000000000000000000 ) ) ;
#105 = CARTESIAN_POINT ( 'NONE',  ( 0.000000000000000000, 0.000000000000000000, -0.5000000000000000000 ) ) ;
#106 = EDGE_CURVE ( 'NONE', #56, #178, #131, .T. ) ;
#107 = LINE ( 'NONE', #105, #246 ) ;
#108 = APPLICATION_PROTOCOL_DEFINITION ( 'draft international standard', 'automotive_design', 1998, #136 ) ;
#109 = FACE_OUTER_BOUND ( 'NONE', #111, .T. ) ;
#110 = ORIENTED_EDGE ( 'NONE', *, *, #171, .F. ) ;
#111 = EDGE_LOOP ( 'NONE', ( #234, #84, #141, #303 ) ) ;
#112 = CARTESIAN_POINT ( 'NONE',  ( 0.000000000000000000, 0.000000000000000000, 0.000000000000000000 ) ) ;
#113 = ORIENTED_EDGE ( 'NONE', *, *, #57, .T. ) ;
#114 = FILL_AREA_STYLE ('',( #38 ) ) ;
#115 = PRESENTATION_LAYER_ASSIGNMENT (  '', '', ( #265 ) ) ;
#116 = CARTESIAN_POINT ( 'NONE',  ( -6.123233995736759873E-17, 5.000000000000000000, 0.000000000000000000 ) ) ;
#117 = DIRECTION ( 'NONE',  ( -2.578203787678635493E-17, 1.000000000000000000, -0.000000000000000000 ) ) ;
#118 = STYLED_ITEM ( 'NONE', ( #170 ), #175 ) ;
#119 = CYLINDRICAL_SURFACE ( 'NONE', #197, 0.5000000000000000000 ) ;
#120 =( LENGTH_UNIT ( ) NAMED_UNIT ( * ) SI_UNIT ( $, .METRE. ) );
#121 = LENGTH_MEASURE_WITH_UNIT ( LENGTH_MEASURE( 0.02539999999999999897 ), #211 );
#122 = AXIS2_PLACEMENT_3D ( 'NONE', #302, #98, #186 ) ;
#123 = CARTESIAN_POINT ( 'NONE',  ( 0.000000000000000000, 0.000000000000000000, 0.000000000000000000 ) ) ;
#124 = DIRECTION ( 'NONE',  ( -2.578203787678635185E-17, 1.000000000000000000, -0.000000000000000000 ) ) ;
#125 = MECHANICAL_DESIGN_GEOMETRIC_PRESENTATION_REPRESENTATION (  '', ( #191 ), #29 ) ;
#126 = EDGE_CURVE ( 'NONE', #56, #129, #221, .T. ) ;
#127 = SURFACE_STYLE_USAGE ( .BOTH. , #79 ) ;
#128 = ADVANCED_FACE ( 'NONE', ( #270 ), #298, .F. ) ;
#129 = VERTEX_POINT ( 'NONE', #8 ) ;
#130 = AXIS2_PLACEMENT_3D ( 'NONE', #103, #2, #40 ) ;
#131 = CIRCLE ( 'NONE', #199, 0.5000000000000000000 ) ;
#132 = SURFACE_STYLE_USAGE ( .BOTH. , #200 ) ;
#133 = ADVANCED_FACE ( 'NONE', ( #50 ), #148, .T. ) ;
#134 = VERTEX_POINT ( 'NONE', #254 ) ;
#135 =( NAMED_UNIT ( * ) SI_UNIT ( $, .STERADIAN. ) SOLID_ANGLE_UNIT ( ) );
#136 = APPLICATION_CONTEXT ( 'automotive_design' ) ;
#137 = EDGE_CURVE ( 'NONE', #282, #206, #228, .T. ) ;
#138 = ORIENTED_EDGE ( 'NONE', *, *, #106, .T. ) ;
#139 = CIRCLE ( 'NONE', #96, 0.5000000000000001110 ) ;
#140 = CLOSED_SHELL ( 'NONE', ( #133, #128, #14, #41 ) ) ;
#141 = ORIENTED_EDGE ( 'NONE', *, *, #57, .F. ) ;
#142 = DIRECTION ( 'NONE',  ( -2.578203787678635493E-17, 1.000000000000000000, -0.000000000000000000 ) ) ;
#143 =( CONVERSION_BASED_UNIT ( 'INCH', #76 ) LENGTH_UNIT ( ) NAMED_UNIT ( #205 ) );
#144 = DIRECTION ( 'NONE',  ( 1.000000000000000000, 2.578203787678635185E-17, 0.000000000000000000 ) ) ;
#145 = PLANE ( 'NONE',  #101 ) ;
#146 = DIRECTION ( 'NONE',  ( 0.000000000000000000, 0.000000000000000000, -1.000000000000000000 ) ) ;
#147 = MECHANICAL_DESIGN_GEOMETRIC_PRESENTATION_REPRESENTATION (  '', ( #66 ), #77 ) ;
#148 = CYLINDRICAL_SURFACE ( 'NONE', #213, 0.5000000000000000000 ) ;
#149 =( LENGTH_UNIT ( ) NAMED_UNIT ( * ) SI_UNIT ( $, .METRE. ) );
#150 = UNCERTAINTY_MEASURE_WITH_UNIT (LENGTH_MEASURE( 1.000000000000000082E-05 ), #204, 'distance_accuracy_value', 'NONE');
#151 = DIRECTION ( 'NONE',  ( 1.000000000000000000, 0.000000000000000000, 0.000000000000000000 ) ) ;
#152 = ORIENTED_EDGE ( 'NONE', *, *, #271, .T. ) ;
#153 = AXIS2_PLACEMENT_3D ( 'NONE', #116, #249, #15 ) ;
#154 =( NAMED_UNIT ( * ) PLANE_ANGLE_UNIT ( ) SI_UNIT ( $, .RADIAN. ) );
#155 = SURFACE_STYLE_USAGE ( .BOTH. , #61 ) ;
#156 = ADVANCED_FACE ( 'NONE', ( #109 ), #119, .T. ) ;
#157 = DIRECTION ( 'NONE',  ( -2.578203787678635493E-17, 1.000000000000000000, -0.000000000000000000 ) ) ;
#158 = ORIENTED_EDGE ( 'NONE', *, *, #126, .T. ) ;
#159 = AXIS2_PLACEMENT_3D ( 'NONE', #75, #167, #104 ) ;
#160 = DIRECTION ( 'NONE',  ( -0.000000000000000000, -1.000000000000000000, -0.000000000000000000 ) ) ;
#161 =( CONVERSION_BASED_UNIT ( 'INCH', #121 ) LENGTH_UNIT ( ) NAMED_UNIT ( #62 ) );
#162 = UNCERTAINTY_MEASURE_WITH_UNIT (LENGTH_MEASURE( 1.000000000000000082E-05 ), #267, 'distance_accuracy_value', 'NONE');
#163 = VECTOR ( 'NONE', #202, 39.37007874015748143 ) ;
#164 = CARTESIAN_POINT ( 'NONE',  ( 0.000000000000000000, 2.625000000000000000, -0.5000000000000000000 ) ) ;
#165 = CARTESIAN_POINT ( 'NONE',  ( 0.5000000000000000000, 5.000000000000000000, 6.123233995736766036E-17 ) ) ;
#166 = DIRECTION ( 'NONE',  ( 0.000000000000000000, -0.000000000000000000, 1.000000000000000000 ) ) ;
#167 = DIRECTION ( 'NONE',  ( -2.578203787678635185E-17, 1.000000000000000000, 0.000000000000000000 ) ) ;
#168 = PRODUCT_DEFINITION_SHAPE ( 'NONE', 'NONE',  #285 ) ;
#169 = CIRCLE ( 'NONE', #289, 0.5000000000000000000 ) ;
#170 = PRESENTATION_STYLE_ASSIGNMENT (( #174 ) ) ;
#171 = EDGE_CURVE ( 'NONE', #33, #282, #3, .T. ) ;
#172 = UNCERTAINTY_MEASURE_WITH_UNIT (LENGTH_MEASURE( 1.000000000000000082E-05 ), #143, 'distance_accuracy_value', 'NONE');
#173 = MANIFOLD_SOLID_BREP ( 'Revolve - Cutting Edge', #233 ) ;
#174 = SURFACE_STYLE_USAGE ( .BOTH. , #284 ) ;
#175 = MANIFOLD_SOLID_BREP ( 'Revolve - Tool Body (Straight Shanked)', #140 ) ;
#176 = DIRECTION ( 'NONE',  ( 0.000000000000000000, 0.000000000000000000, 1.000000000000000000 ) ) ;
#177 = CIRCLE ( 'NONE', #83, 0.5000000000000000000 ) ;
#178 = VERTEX_POINT ( 'NONE', #223 ) ;
#179 = LENGTH_MEASURE_WITH_UNIT ( LENGTH_MEASURE( 0.02539999999999999897 ), #12 );
#180 = EDGE_LOOP ( 'NONE', ( #23, #63, #231, #226 ) ) ;
#181 = SURFACE_STYLE_FILL_AREA ( #65 ) ;
#182 = PRODUCT_DEFINITION_FORMATION_WITH_SPECIFIED_SOURCE ( 'ANY', '', #11, .NOT_KNOWN. ) ;
#183 = SURFACE_STYLE_FILL_AREA ( #64 ) ;
#184 = EDGE_LOOP ( 'NONE', ( #229, #301 ) ) ;
#185 = DIRECTION ( 'NONE',  ( 0.000000000000000000, 0.000000000000000000, -1.000000000000000000 ) ) ;
#186 = DIRECTION ( 'NONE',  ( 0.000000000000000000, 0.000000000000000000, -1.000000000000000000 ) ) ;
#187 = DIRECTION ( 'NONE',  ( 2.578203787678635185E-17, -1.000000000000000000, 0.000000000000000000 ) ) ;
#188 = CARTESIAN_POINT ( 'NONE',  ( 6.123233995736766036E-17, 0.000000000000000000, 0.5000000000000000000 ) ) ;
#189 =( NAMED_UNIT ( * ) PLANE_ANGLE_UNIT ( ) SI_UNIT ( $, .RADIAN. ) );
#190 = EDGE_CURVE ( 'NONE', #259, #129, #139, .T. ) ;
#191 = STYLED_ITEM ( 'NONE', ( #37 ), #24 ) ;
#192 = CARTESIAN_POINT ( 'NONE',  ( 6.123233995736766036E-17, 2.625000000000000000, 0.5000000000000000000 ) ) ;
#193 = DIRECTION ( 'NONE',  ( 0.000000000000000000, 1.000000000000000000, 0.000000000000000000 ) ) ;
#194 = PRESENTATION_STYLE_ASSIGNMENT (( #127 ) ) ;
#195 = CARTESIAN_POINT ( 'NONE',  ( -0.5000000000000001110, 5.000000000000000000, 0.000000000000000000 ) ) ;
#196 = PRESENTATION_LAYER_ASSIGNMENT (  '', '', ( #191 ) ) ;
#197 = AXIS2_PLACEMENT_3D ( 'NONE', #112, #16, #304 ) ;
#198 = DIRECTION ( 'NONE',  ( -0.000000000000000000, -1.000000000000000000, -0.000000000000000000 ) ) ;
#199 = AXIS2_PLACEMENT_3D ( 'NONE', #263, #142, #214 ) ;
#200 = SURFACE_SIDE_STYLE ('',( #258 ) ) ;
#201 = EDGE_LOOP ( 'NONE', ( #113, #152 ) ) ;
#202 = DIRECTION ( 'NONE',  ( -0.000000000000000000, -1.000000000000000000, -0.000000000000000000 ) ) ;
#203 = EDGE_LOOP ( 'NONE', ( #138, #257, #22, #18 ) ) ;
#204 =( CONVERSION_BASED_UNIT ( 'INCH', #179 ) LENGTH_UNIT ( ) NAMED_UNIT ( #39 ) );
#205 = DIMENSIONAL_EXPONENTS ( 1.000000000000000000, 0.000000000000000000, 0.000000000000000000, 0.000000000000000000, 0.000000000000000000, 0.000000000000000000, 0.000000000000000000 ) ;
#206 = VERTEX_POINT ( 'NONE', #188 ) ;
#207 = PRESENTATION_LAYER_ASSIGNMENT (  '', '', ( #225 ) ) ;
#208 = FILL_AREA_STYLE ('',( #264 ) ) ;
#209 = DIMENSIONAL_EXPONENTS ( 1.000000000000000000, 0.000000000000000000, 0.000000000000000000, 0.000000000000000000, 0.000000000000000000, 0.000000000000000000, 0.000000000000000000 ) ;
#210 = CARTESIAN_POINT ( 'NONE',  ( -0.5000000000000000000, 2.625000000000000000, 0.000000000000000000 ) ) ;
#211 =( LENGTH_UNIT ( ) NAMED_UNIT ( * ) SI_UNIT ( $, .METRE. ) );
#212 = APPLICATION_CONTEXT ( 'automotive_design' ) ;
#213 = AXIS2_PLACEMENT_3D ( 'NONE', #28, #157, #4 ) ;
#214 = DIRECTION ( 'NONE',  ( -1.000000000000000000, 0.000000000000000000, 0.000000000000000000 ) ) ;
#215 = CARTESIAN_POINT ( 'NONE',  ( 0.000000000000000000, 0.000000000000000000, 0.000000000000000000 ) ) ;
#216 = LENGTH_MEASURE_WITH_UNIT ( LENGTH_MEASURE( 0.02539999999999999897 ), #91 );
#217 =( NAMED_UNIT ( * ) SI_UNIT ( $, .STERADIAN. ) SOLID_ANGLE_UNIT ( ) );
#218 = CARTESIAN_POINT ( 'NONE',  ( 0.000000000000000000, 2.625000000000000000, 0.000000000000000000 ) ) ;
#219 = PRESENTATION_LAYER_ASSIGNMENT (  '', '', ( #275 ) ) ;
#220 = DIRECTION ( 'NONE',  ( 0.000000000000000000, 0.000000000000000000, -1.000000000000000000 ) ) ;
#221 = LINE ( 'NONE', #195, #90 ) ;
#222 = PRODUCT_DEFINITION_CONTEXT ( 'detailed design', #212, 'design' ) ;
#223 = CARTESIAN_POINT ( 'NONE',  ( 0.5000000000000000000, 2.625000000000000000, 6.123233995736766036E-17 ) ) ;
#224 = EDGE_CURVE ( 'NONE', #178, #259, #47, .T. ) ;
#225 = STYLED_ITEM ( 'NONE', ( #85 ), #156 ) ;
#226 = ORIENTED_EDGE ( 'NONE', *, *, #271, .F. ) ;
#227 = ORIENTED_EDGE ( 'NONE', *, *, #190, .F. ) ;
#228 = LINE ( 'NONE', #292, #163 ) ;
#229 = ORIENTED_EDGE ( 'NONE', *, *, #81, .T. ) ;
#230 = COLOUR_RGB ( '',1.000000000000000000, 0.000000000000000000, 0.000000000000000000 ) ;
#231 = ORIENTED_EDGE ( 'NONE', *, *, #235, .T. ) ;
#232 =( GEOMETRIC_REPRESENTATION_CONTEXT ( 3 ) GLOBAL_UNCERTAINTY_ASSIGNED_CONTEXT ( ( #172 ) ) GLOBAL_UNIT_ASSIGNED_CONTEXT ( ( #143, #247, #217 ) ) REPRESENTATION_CONTEXT ( 'NONE', 'WORKASPACE' ) );
#233 = CLOSED_SHELL ( 'NONE', ( #156, #51, #24, #290 ) ) ;
#234 = ORIENTED_EDGE ( 'NONE', *, *, #171, .T. ) ;
#235 = EDGE_CURVE ( 'NONE', #33, #134, #107, .T. ) ;
#236 = DIMENSIONAL_EXPONENTS ( 1.000000000000000000, 0.000000000000000000, 0.000000000000000000, 0.000000000000000000, 0.000000000000000000, 0.000000000000000000, 0.000000000000000000 ) ;
#237 = SURFACE_STYLE_USAGE ( .BOTH. , #279 ) ;
#238 =( GEOMETRIC_REPRESENTATION_CONTEXT ( 3 ) GLOBAL_UNCERTAINTY_ASSIGNED_CONTEXT ( ( #27 ) ) GLOBAL_UNIT_ASSIGNED_CONTEXT ( ( #36, #250, #135 ) ) REPRESENTATION_CONTEXT ( 'NONE', 'WORKASPACE' ) );
#239 = COLOUR_RGB ( '',0.7921568627450980005, 0.8196078431372548767, 0.9333333333333333481 ) ;
#240 =( NAMED_UNIT ( * ) PLANE_ANGLE_UNIT ( ) SI_UNIT ( $, .RADIAN. ) );
#241 = CARTESIAN_POINT ( 'NONE',  ( 0.5000000000000000000, 5.000000000000000000, 0.000000000000000000 ) ) ;
#242 = UNCERTAINTY_MEASURE_WITH_UNIT (LENGTH_MEASURE( 1.000000000000000082E-05 ), #161, 'distance_accuracy_value', 'NONE');
#243 =( NAMED_UNIT ( * ) SI_UNIT ( $, .STERADIAN. ) SOLID_ANGLE_UNIT ( ) );
#244 = FILL_AREA_STYLE_COLOUR ( '', #230 ) ;
#245 = FACE_OUTER_BOUND ( 'NONE', #17, .T. ) ;
#246 = VECTOR ( 'NONE', #25, 39.37007874015748143 ) ;
#247 =( NAMED_UNIT ( * ) PLANE_ANGLE_UNIT ( ) SI_UNIT ( $, .RADIAN. ) );
#248 = ADVANCED_BREP_SHAPE_REPRESENTATION ( '44437W', ( #173, #175, #43 ), #82 ) ;
#249 = DIRECTION ( 'NONE',  ( -2.578203787678635493E-17, 1.000000000000000000, -0.000000000000000000 ) ) ;
#250 =( NAMED_UNIT ( * ) PLANE_ANGLE_UNIT ( ) SI_UNIT ( $, .RADIAN. ) );
#251 = AXIS2_PLACEMENT_3D ( 'NONE', #45, #71, #146 ) ;
#252 = AXIS2_PLACEMENT_3D ( 'NONE', #262, #117, #291 ) ;
#253 = EDGE_LOOP ( 'NONE', ( #86, #94, #158, #227 ) ) ;
#254 = CARTESIAN_POINT ( 'NONE',  ( 0.000000000000000000, 0.000000000000000000, -0.5000000000000000000 ) ) ;
#255 = PRODUCT_CONTEXT ( 'NONE', #136, 'mechanical' ) ;
#256 = ORIENTED_EDGE ( 'NONE', *, *, #46, .F. ) ;
#257 = ORIENTED_EDGE ( 'NONE', *, *, #224, .T. ) ;
#258 = SURFACE_STYLE_FILL_AREA ( #114 ) ;
#259 = VERTEX_POINT ( 'NONE', #165 ) ;
#260 = AXIS2_PLACEMENT_3D ( 'NONE', #218, #193, #166 ) ;
#261 = SHAPE_DEFINITION_REPRESENTATION ( #168, #248 ) ;
#262 = CARTESIAN_POINT ( 'NONE',  ( -6.123233995736759873E-17, 5.000000000000000000, 0.000000000000000000 ) ) ;
#263 = CARTESIAN_POINT ( 'NONE',  ( 0.000000000000000000, 2.625000000000000000, 0.000000000000000000 ) ) ;
#264 = FILL_AREA_STYLE_COLOUR ( '', #34 ) ;
#265 = STYLED_ITEM ( 'NONE', ( #44 ), #173 ) ;
#266 = DIMENSIONAL_EXPONENTS ( 1.000000000000000000, 0.000000000000000000, 0.000000000000000000, 0.000000000000000000, 0.000000000000000000, 0.000000000000000000, 0.000000000000000000 ) ;
#267 =( CONVERSION_BASED_UNIT ( 'INCH', #216 ) LENGTH_UNIT ( ) NAMED_UNIT ( #307 ) );
#268 = FACE_OUTER_BOUND ( 'NONE', #201, .T. ) ;
#269 = CARTESIAN_POINT ( 'NONE',  ( 0.000000000000000000, 0.000000000000000000, 0.000000000000000000 ) ) ;
#270 = FACE_OUTER_BOUND ( 'NONE', #308, .T. ) ;
#271 = EDGE_CURVE ( 'NONE', #206, #134, #169, .T. ) ;
#272 = MECHANICAL_DESIGN_GEOMETRIC_PRESENTATION_REPRESENTATION (  '', ( #275 ), #232 ) ;
#273 = UNCERTAINTY_MEASURE_WITH_UNIT (LENGTH_MEASURE( 1.000000000000000082E-05 ), #73, 'distance_accuracy_value', 'NONE');
#274 = COLOUR_RGB ( '',1.000000000000000000, 0.000000000000000000, 0.000000000000000000 ) ;
#275 = STYLED_ITEM ( 'NONE', ( #194 ), #290 ) ;
#276 = FACE_OUTER_BOUND ( 'NONE', #253, .T. ) ;
#277 = LENGTH_MEASURE_WITH_UNIT ( LENGTH_MEASURE( 0.02539999999999999897 ), #70 );
#278 = CYLINDRICAL_SURFACE ( 'NONE', #153, 0.5000000000000000000 ) ;
#279 = SURFACE_SIDE_STYLE ('',( #87 ) ) ;
#280 = PRESENTATION_LAYER_ASSIGNMENT (  '', '', ( #118 ) ) ;
#281 =( NAMED_UNIT ( * ) SI_UNIT ( $, .STERADIAN. ) SOLID_ANGLE_UNIT ( ) );
#282 = VERTEX_POINT ( 'NONE', #192 ) ;
#283 =( NAMED_UNIT ( * ) SI_UNIT ( $, .STERADIAN. ) SOLID_ANGLE_UNIT ( ) );
#284 = SURFACE_SIDE_STYLE ('',( #183 ) ) ;
#285 = PRODUCT_DEFINITION ( 'UNKNOWN', '', #182, #222 ) ;
#286 = ORIENTED_EDGE ( 'NONE', *, *, #68, .F. ) ;
#287 = PRESENTATION_LAYER_ASSIGNMENT (  '', '', ( #66 ) ) ;
#288 = CARTESIAN_POINT ( 'NONE',  ( 0.000000000000000000, 2.625000000000000000, 0.000000000000000000 ) ) ;
#289 = AXIS2_PLACEMENT_3D ( 'NONE', #215, #198, #299 ) ;
#290 = ADVANCED_FACE ( 'NONE', ( #268 ), #145, .T. ) ;
#291 = DIRECTION ( 'NONE',  ( -1.000000000000000000, 0.000000000000000000, 0.000000000000000000 ) ) ;
#292 = CARTESIAN_POINT ( 'NONE',  ( 6.123233995736766036E-17, 0.000000000000000000, 0.5000000000000000000 ) ) ;
#293 = SURFACE_STYLE_USAGE ( .BOTH. , #6 ) ;
#294 = FILL_AREA_STYLE_COLOUR ( '', #13 ) ;
#295 =( NAMED_UNIT ( * ) PLANE_ANGLE_UNIT ( ) SI_UNIT ( $, .RADIAN. ) );
#296 = AXIS2_PLACEMENT_3D ( 'NONE', #288, #160, #185 ) ;
#297 = FILL_AREA_STYLE ('',( #294 ) ) ;
#298 = PLANE ( 'NONE',  #159 ) ;
#299 = DIRECTION ( 'NONE',  ( 0.000000000000000000, 0.000000000000000000, -1.000000000000000000 ) ) ;
#300 =( GEOMETRIC_REPRESENTATION_CONTEXT ( 3 ) GLOBAL_UNCERTAINTY_ASSIGNED_CONTEXT ( ( #273 ) ) GLOBAL_UNIT_ASSIGNED_CONTEXT ( ( #73, #240, #243 ) ) REPRESENTATION_CONTEXT ( 'NONE', 'WORKASPACE' ) );
#301 = ORIENTED_EDGE ( 'NONE', *, *, #190, .T. ) ;
#302 = CARTESIAN_POINT ( 'NONE',  ( 0.000000000000000000, 2.625000000000000000, 0.000000000000000000 ) ) ;
#303 = ORIENTED_EDGE ( 'NONE', *, *, #235, .F. ) ;
#304 = DIRECTION ( 'NONE',  ( 0.000000000000000000, 0.000000000000000000, -1.000000000000000000 ) ) ;
#305 =( CONVERSION_BASED_UNIT ( 'INCH', #32 ) LENGTH_UNIT ( ) NAMED_UNIT ( #209 ) );
#306 = CYLINDRICAL_SURFACE ( 'NONE', #251, 0.5000000000000000000 ) ;
#307 = DIMENSIONAL_EXPONENTS ( 1.000000000000000000, 0.000000000000000000, 0.000000000000000000, 0.000000000000000000, 0.000000000000000000, 0.000000000000000000, 0.000000000000000000 ) ;
#308 = EDGE_LOOP ( 'NONE', ( #309, #256 ) ) ;
#309 = ORIENTED_EDGE ( 'NONE', *, *, #106, .F. ) ;
ENDSEC;
END-ISO-10303-21;
