ISO-10303-21;
HEADER;
FILE_DESCRIPTION (( 'STEP AP214' ),
    '1' );
FILE_NAME ('Micro_GEC-312-2-010X.STEP',
    '2021-09-03T17:18:10',
    ( '' ),
    ( '' ),
    'SwSTEP 2.0',
    'SolidWorks 2020',
    '' );
FILE_SCHEMA (( 'AUTOMOTIVE_DESIGN' ));
ENDSEC;

DATA;
#1 = EDGE_CURVE ( 'NONE', #235, #230, #268, .T. ) ;
#2 =( GEOMETRIC_REPRESENTATION_CONTEXT ( 3 ) GLOBAL_UNCERTAINTY_ASSIGNED_CONTEXT ( ( #212 ) ) GLOBAL_UNIT_ASSIGNED_CONTEXT ( ( #262, #347, #181 ) ) REPRESENTATION_CONTEXT ( 'NONE', 'WORKASPACE' ) );
#3 = DIRECTION ( 'NONE',  ( -1.000000000000000000, 0.0000000000000000000, 0.0000000000000000000 ) ) ;
#4 = ORIENTED_EDGE ( 'NONE', *, *, #297, .F. ) ;
#5 = DIRECTION ( 'NONE',  ( -1.000000000000000000, 0.0000000000000000000, 0.0000000000000000000 ) ) ;
#6 = ORIENTED_EDGE ( 'NONE', *, *, #1, .T. ) ;
#7 = CARTESIAN_POINT ( 'NONE',  ( 1.224646799147353384E-18, 0.0000000000000000000, 0.0000000000000000000 ) ) ;
#8 = PRODUCT_DEFINITION_CONTEXT ( 'detailed design', #210, 'design' ) ;
#9 = EDGE_LOOP ( 'NONE', ( #314, #163, #6, #312 ) ) ;
#10 = LINE ( 'NONE', #276, #49 ) ;
#11 = AXIS2_PLACEMENT_3D ( 'NONE', #183, #18, #151 ) ;
#12 = ORIENTED_EDGE ( 'NONE', *, *, #303, .T. ) ;
#13 = AXIS2_PLACEMENT_3D ( 'NONE', #221, #52, #196 ) ;
#14 = ORIENTED_EDGE ( 'NONE', *, *, #147, .T. ) ;
#15 = DIRECTION ( 'NONE',  ( 0.0000000000000000000, 0.0000000000000000000, -1.000000000000000000 ) ) ;
#16 = ORIENTED_EDGE ( 'NONE', *, *, #25, .T. ) ;
#17 = DIRECTION ( 'NONE',  ( -0.0000000000000000000, -0.0000000000000000000, -1.000000000000000000 ) ) ;
#18 = DIRECTION ( 'NONE',  ( 0.0000000000000000000, 0.0000000000000000000, 1.000000000000000000 ) ) ;
#19 = TOROIDAL_SURFACE ( 'NONE', #291, 0.1460937499999999667, 0.01000000000000000021 ) ;
#20 = EDGE_CURVE ( 'NONE', #106, #82, #120, .T. ) ;
#21 = CARTESIAN_POINT ( 'NONE',  ( 0.0000000000000000000, 0.0000000000000000000, 2.500000000000000000 ) ) ;
#22 = CARTESIAN_POINT ( 'NONE',  ( 0.0000000000000000000, 0.0000000000000000000, 0.0000000000000000000 ) ) ;
#23 = PRESENTATION_LAYER_ASSIGNMENT (  '', '', ( #326 ) ) ;
#24 = AXIS2_PLACEMENT_3D ( 'NONE', #234, #209, #122 ) ;
#25 = EDGE_CURVE ( 'NONE', #42, #222, #80, .T. ) ;
#26 = FACE_OUTER_BOUND ( 'NONE', #169, .T. ) ;
#27 = ADVANCED_FACE ( 'NONE', ( #346 ), #239, .T. ) ;
#28 = DIRECTION ( 'NONE',  ( -1.224646799147353207E-16, -0.0000000000000000000, -1.000000000000000000 ) ) ;
#29 = EDGE_LOOP ( 'NONE', ( #286, #277, #195, #101 ) ) ;
#30 = DIRECTION ( 'NONE',  ( 0.0000000000000000000, 0.0000000000000000000, 1.000000000000000000 ) ) ;
#31 = ORIENTED_EDGE ( 'NONE', *, *, #265, .T. ) ;
#32 = DIRECTION ( 'NONE',  ( -1.000000000000000000, 0.0000000000000000000, 0.0000000000000000000 ) ) ;
#33 = ORIENTED_EDGE ( 'NONE', *, *, #20, .F. ) ;
#34 = CARTESIAN_POINT ( 'NONE',  ( 0.0000000000000000000, 0.0000000000000000000, 2.500000000000000000 ) ) ;
#35 = ORIENTED_EDGE ( 'NONE', *, *, #200, .F. ) ;
#36 = CARTESIAN_POINT ( 'NONE',  ( 0.1460937499999999667, 0.0000000000000000000, 0.01000000000000000021 ) ) ;
#37 = ORIENTED_EDGE ( 'NONE', *, *, #323, .F. ) ;
#38 = ADVANCED_FACE ( 'NONE', ( #64 ), #19, .T. ) ;
#39 = CARTESIAN_POINT ( 'NONE',  ( -0.1560937499999999478, 0.0000000000000000000, 0.01000000000000000194 ) ) ;
#40 = CARTESIAN_POINT ( 'NONE',  ( 0.1460937499999999667, 0.0000000000000000000, 0.0000000000000000000 ) ) ;
#41 = PRODUCT ( 'Micro_GEC-312-2-010X', 'Micro_GEC-312-2-010X', '', ( #237 ) ) ;
#42 = VERTEX_POINT ( 'NONE', #118 ) ;
#43 = CONICAL_SURFACE ( 'NONE', #193, 0.1412499999999994871, 0.7853981633974391752 ) ;
#44 = DIRECTION ( 'NONE',  ( 0.0000000000000000000, 0.0000000000000000000, 1.000000000000000000 ) ) ;
#45 = DIRECTION ( 'NONE',  ( -1.224646799147353207E-16, -0.0000000000000000000, -1.000000000000000000 ) ) ;
#46 = FILL_AREA_STYLE_COLOUR ( '', #336 ) ;
#47 = CARTESIAN_POINT ( 'NONE',  ( 0.1412499999999994871, 1.821662113731684786E-17, 2.500000000000000000 ) ) ;
#48 =( NAMED_UNIT ( * ) PLANE_ANGLE_UNIT ( ) SI_UNIT ( $, .RADIAN. ) );
#49 = VECTOR ( 'NONE', #257, 39.37007874015747433 ) ;
#50 = EDGE_CURVE ( 'NONE', #106, #42, #94, .T. ) ;
#51 = CIRCLE ( 'NONE', #243, 0.1560937499999999756 ) ;
#52 = DIRECTION ( 'NONE',  ( 1.224646799147353207E-16, 0.0000000000000000000, 1.000000000000000000 ) ) ;
#53 = CARTESIAN_POINT ( 'NONE',  ( 9.967230535079632947E-17, 0.0000000000000000000, 0.8138861377843152889 ) ) ;
#54 = AXIS2_PLACEMENT_3D ( 'NONE', #168, #189, #337 ) ;
#55 = FACE_OUTER_BOUND ( 'NONE', #9, .T. ) ;
#56 = VERTEX_POINT ( 'NONE', #236 ) ;
#57 = CARTESIAN_POINT ( 'NONE',  ( 0.1560937499999999478, 1.911597113044071073E-17, 0.01000000000000000194 ) ) ;
#58 = ORIENTED_EDGE ( 'NONE', *, *, #20, .T. ) ;
#59 = LINE ( 'NONE', #228, #99 ) ;
#60 = ORIENTED_EDGE ( 'NONE', *, *, #215, .T. ) ;
#61 = CIRCLE ( 'NONE', #124, 0.1560937499999999756 ) ;
#62 = CIRCLE ( 'NONE', #208, 0.1460937499999999667 ) ;
#63 = DIRECTION ( 'NONE',  ( 1.224646799147353207E-16, 1.000000000000000000, -0.0000000000000000000 ) ) ;
#64 = FACE_OUTER_BOUND ( 'NONE', #29, .T. ) ;
#65 = DIRECTION ( 'NONE',  ( 1.000000000000000000, 0.0000000000000000000, 0.0000000000000000000 ) ) ;
#66 = DIRECTION ( 'NONE',  ( 1.000000000000000000, 0.0000000000000000000, 0.0000000000000000000 ) ) ;
#67 = CIRCLE ( 'NONE', #113, 0.009999999999999995004 ) ;
#68 = LENGTH_MEASURE_WITH_UNIT ( LENGTH_MEASURE( 0.02539999999999999897 ), #93 );
#69 = CARTESIAN_POINT ( 'NONE',  ( 0.1560937500000000866, 0.0000000000000000000, 0.8129999999999999449 ) ) ;
#70 = EDGE_CURVE ( 'NONE', #235, #56, #61, .T. ) ;
#71 = LENGTH_MEASURE_WITH_UNIT ( LENGTH_MEASURE( 0.02539999999999999897 ), #74 );
#72 = AXIS2_PLACEMENT_3D ( 'NONE', #21, #296, #185 ) ;
#73 = PRODUCT_DEFINITION_FORMATION_WITH_SPECIFIED_SOURCE ( 'ANY', '', #41, .NOT_KNOWN. ) ;
#74 =( LENGTH_UNIT ( ) NAMED_UNIT ( * ) SI_UNIT ( $, .METRE. ) );
#75 = ORIENTED_EDGE ( 'NONE', *, *, #333, .T. ) ;
#76 = CARTESIAN_POINT ( 'NONE',  ( 0.0000000000000000000, 0.0000000000000000000, 2.484999999999999432 ) ) ;
#77 = FILL_AREA_STYLE_COLOUR ( '', #207 ) ;
#78 = CARTESIAN_POINT ( 'NONE',  ( 1.224646799147353384E-18, 0.0000000000000000000, 0.01000000000000000021 ) ) ;
#79 = VERTEX_POINT ( 'NONE', #206 ) ;
#80 = CIRCLE ( 'NONE', #132, 0.1562500000000000000 ) ;
#81 = DIRECTION ( 'NONE',  ( 0.0000000000000000000, 0.0000000000000000000, 1.000000000000000000 ) ) ;
#82 = VERTEX_POINT ( 'NONE', #203 ) ;
#83 = CYLINDRICAL_SURFACE ( 'NONE', #167, 0.1562500000000000000 ) ;
#84 = VERTEX_POINT ( 'NONE', #39 ) ;
#85 = DIRECTION ( 'NONE',  ( -1.000000000000000000, 0.0000000000000000000, 0.0000000000000000000 ) ) ;
#86 = CYLINDRICAL_SURFACE ( 'NONE', #334, 0.1560937499999999478 ) ;
#87 = AXIS2_PLACEMENT_3D ( 'NONE', #204, #44, #285 ) ;
#88 = DIRECTION ( 'NONE',  ( 0.0000000000000000000, 0.0000000000000000000, -1.000000000000000000 ) ) ;
#89 = SURFACE_STYLE_USAGE ( .BOTH. , #345 ) ;
#90 = DIRECTION ( 'NONE',  ( -1.000000000000000000, 0.0000000000000000000, 0.0000000000000000000 ) ) ;
#91 = DIRECTION ( 'NONE',  ( -0.7071067811865410224, 0.0000000000000000000, -0.7071067811865539010 ) ) ;
#92 = FACE_OUTER_BOUND ( 'NONE', #223, .T. ) ;
#93 =( LENGTH_UNIT ( ) NAMED_UNIT ( * ) SI_UNIT ( $, .METRE. ) );
#94 = LINE ( 'NONE', #111, #284 ) ;
#95 = CARTESIAN_POINT ( 'NONE',  ( 0.0000000000000000000, 0.0000000000000000000, 0.0000000000000000000 ) ) ;
#96 =( CONVERSION_BASED_UNIT ( 'INCH', #71 ) LENGTH_UNIT ( ) NAMED_UNIT ( #242 ) );
#97 = PRESENTATION_LAYER_ASSIGNMENT (  '', '', ( #186 ) ) ;
#98 = FILL_AREA_STYLE ('',( #77 ) ) ;
#99 = VECTOR ( 'NONE', #191, 39.37007874015748143 ) ;
#100 = DIRECTION ( 'NONE',  ( -1.224646799147353207E-16, -0.0000000000000000000, -1.000000000000000000 ) ) ;
#101 = ORIENTED_EDGE ( 'NONE', *, *, #322, .F. ) ;
#102 = ORIENTED_EDGE ( 'NONE', *, *, #200, .T. ) ;
#103 = DIRECTION ( 'NONE',  ( 1.000000000000000000, 0.0000000000000000000, 0.0000000000000000000 ) ) ;
#104 = ORIENTED_EDGE ( 'NONE', *, *, #322, .T. ) ;
#105 = FACE_OUTER_BOUND ( 'NONE', #219, .T. ) ;
#106 = VERTEX_POINT ( 'NONE', #47 ) ;
#107 = VECTOR ( 'NONE', #17, 39.37007874015748143 ) ;
#108 = VERTEX_POINT ( 'NONE', #343 ) ;
#109 = CARTESIAN_POINT ( 'NONE',  ( 9.956378477067980482E-17, 0.0000000000000000000, 0.8129999999999999449 ) ) ;
#110 = ORIENTED_EDGE ( 'NONE', *, *, #50, .F. ) ;
#111 = CARTESIAN_POINT ( 'NONE',  ( 0.1412499999999994871, 1.729813603795630110E-17, 2.500000000000000000 ) ) ;
#112 = SURFACE_STYLE_USAGE ( .BOTH. , #123 ) ;
#113 = AXIS2_PLACEMENT_3D ( 'NONE', #267, #63, #177 ) ;
#114 = FACE_OUTER_BOUND ( 'NONE', #227, .T. ) ;
#115 = DIRECTION ( 'NONE',  ( 0.0000000000000000000, 0.0000000000000000000, 1.000000000000000000 ) ) ;
#116 = EDGE_CURVE ( 'NONE', #222, #79, #320, .T. ) ;
#117 = PRESENTATION_STYLE_ASSIGNMENT (( #89 ) ) ;
#118 = CARTESIAN_POINT ( 'NONE',  ( 0.1562500000000000000, 1.913510623667739463E-17, 2.484999999999999432 ) ) ;
#119 = CARTESIAN_POINT ( 'NONE',  ( -0.1562500000000000000, 0.0000000000000000000, 2.500000000000000000 ) ) ;
#120 = CIRCLE ( 'NONE', #72, 0.1412499999999994871 ) ;
#121 = CARTESIAN_POINT ( 'NONE',  ( -0.1412499999999994871, 0.0000000000000000000, 2.500000000000000000 ) ) ;
#122 = DIRECTION ( 'NONE',  ( -1.000000000000000000, 0.0000000000000000000, 0.0000000000000000000 ) ) ;
#123 = SURFACE_SIDE_STYLE ('',( #344 ) ) ;
#124 = AXIS2_PLACEMENT_3D ( 'NONE', #198, #339, #90 ) ;
#125 = AXIS2_PLACEMENT_3D ( 'NONE', #332, #81, #194 ) ;
#126 = FACE_OUTER_BOUND ( 'NONE', #142, .T. ) ;
#127 = ADVANCED_FACE ( 'NONE', ( #92 ), #86, .T. ) ;
#128 = CIRCLE ( 'NONE', #327, 0.1560937499999999478 ) ;
#129 = DIRECTION ( 'NONE',  ( -0.0000000000000000000, -0.0000000000000000000, -1.000000000000000000 ) ) ;
#130 = ADVANCED_FACE ( 'NONE', ( #321 ), #175, .T. ) ;
#131 = EDGE_LOOP ( 'NONE', ( #248, #14, #35, #306 ) ) ;
#132 = AXIS2_PLACEMENT_3D ( 'NONE', #260, #88, #65 ) ;
#133 = AXIS2_PLACEMENT_3D ( 'NONE', #308, #136, #252 ) ;
#134 = DIRECTION ( 'NONE',  ( 1.000000000000000000, 0.0000000000000000000, 0.0000000000000000000 ) ) ;
#135 = ORIENTED_EDGE ( 'NONE', *, *, #25, .F. ) ;
#136 = DIRECTION ( 'NONE',  ( -1.224646799147353207E-16, -0.0000000000000000000, -1.000000000000000000 ) ) ;
#137 = VERTEX_POINT ( 'NONE', #40 ) ;
#138 = DIRECTION ( 'NONE',  ( 0.0000000000000000000, 0.0000000000000000000, 1.000000000000000000 ) ) ;
#139 = EDGE_LOOP ( 'NONE', ( #37, #60, #102, #165 ) ) ;
#140 = AXIS2_PLACEMENT_3D ( 'NONE', #76, #226, #103 ) ;
#141 = DIRECTION ( 'NONE',  ( 0.0000000000000000000, -1.000000000000000000, 0.0000000000000000000 ) ) ;
#142 = EDGE_LOOP ( 'NONE', ( #283, #329, #250, #144 ) ) ;
#143 = APPLICATION_PROTOCOL_DEFINITION ( 'draft international standard', 'automotive_design', 1998, #153 ) ;
#144 = ORIENTED_EDGE ( 'NONE', *, *, #157, .T. ) ;
#145 = APPLICATION_PROTOCOL_DEFINITION ( 'draft international standard', 'automotive_design', 1998, #210 ) ;
#146 = CARTESIAN_POINT ( 'NONE',  ( 0.1562500000000000000, 1.913510623667739463E-17, 2.500000000000000000 ) ) ;
#147 = EDGE_CURVE ( 'NONE', #42, #230, #263, .T. ) ;
#148 = CARTESIAN_POINT ( 'NONE',  ( 1.224646799147353577E-18, 0.0000000000000000000, 0.01000000000000000194 ) ) ;
#149 = CIRCLE ( 'NONE', #140, 0.1562500000000000000 ) ;
#150 = DIRECTION ( 'NONE',  ( 0.0000000000000000000, 0.0000000000000000000, 1.000000000000000000 ) ) ;
#151 = DIRECTION ( 'NONE',  ( 1.000000000000000000, 0.0000000000000000000, 0.0000000000000000000 ) ) ;
#152 = EDGE_LOOP ( 'NONE', ( #110, #197, #75, #135 ) ) ;
#153 = APPLICATION_CONTEXT ( 'automotive_design' ) ;
#154 = AXIS2_PLACEMENT_3D ( 'NONE', #305, #129, #3 ) ;
#155 = VECTOR ( 'NONE', #28, 39.37007874015748143 ) ;
#156 = DIMENSIONAL_EXPONENTS ( 1.000000000000000000, 0.0000000000000000000, 0.0000000000000000000, 0.0000000000000000000, 0.0000000000000000000, 0.0000000000000000000, 0.0000000000000000000 ) ;
#157 = EDGE_CURVE ( 'NONE', #84, #188, #224, .T. ) ;
#158 = UNCERTAINTY_MEASURE_WITH_UNIT (LENGTH_MEASURE( 1.000000000000000082E-05 ), #96, 'distance_accuracy_value', 'NONE');
#159 = EDGE_CURVE ( 'NONE', #108, #84, #67, .T. ) ;
#160 = VECTOR ( 'NONE', #182, 39.37007874015748143 ) ;
#161 = MANIFOLD_SOLID_BREP ( 'Fillet1', #281 ) ;
#162 = DIRECTION ( 'NONE',  ( -0.0000000000000000000, -0.0000000000000000000, -1.000000000000000000 ) ) ;
#163 = ORIENTED_EDGE ( 'NONE', *, *, #70, .F. ) ;
#164 = CARTESIAN_POINT ( 'NONE',  ( 0.1562500000000001110, 1.913510623667740388E-17, 0.8138861377843152889 ) ) ;
#165 = ORIENTED_EDGE ( 'NONE', *, *, #1, .F. ) ;
#166 = MECHANICAL_DESIGN_GEOMETRIC_PRESENTATION_REPRESENTATION (  '', ( #326 ), #216 ) ;
#167 = AXIS2_PLACEMENT_3D ( 'NONE', #34, #173, #5 ) ;
#168 = CARTESIAN_POINT ( 'NONE',  ( 1.224646799147353384E-18, 0.0000000000000000000, 0.0000000000000000000 ) ) ;
#169 = EDGE_LOOP ( 'NONE', ( #171, #58 ) ) ;
#170 = LINE ( 'NONE', #307, #155 ) ;
#171 = ORIENTED_EDGE ( 'NONE', *, *, #318, .T. ) ;
#172 = ADVANCED_FACE ( 'NONE', ( #126 ), #301, .T. ) ;
#173 = DIRECTION ( 'NONE',  ( -0.0000000000000000000, -0.0000000000000000000, -1.000000000000000000 ) ) ;
#174 = VECTOR ( 'NONE', #238, 39.37007874015748143 ) ;
#175 = CONICAL_SURFACE ( 'NONE', #24, 0.1412499999999994871, 0.7853981633974391752 ) ;
#176 = ADVANCED_FACE ( 'NONE', ( #26 ), #240, .T. ) ;
#177 = DIRECTION ( 'NONE',  ( -1.000000000000000000, 1.224646799147354933E-16, 0.0000000000000000000 ) ) ;
#178 = ADVANCED_BREP_SHAPE_REPRESENTATION ( 'Micro_GEC-312-2-010X', ( #161, #225 ), #317 ) ;
#179 = CARTESIAN_POINT ( 'NONE',  ( 0.0000000000000000000, 0.0000000000000000000, 0.0000000000000000000 ) ) ;
#180 = CARTESIAN_POINT ( 'NONE',  ( 1.224646799147353384E-18, 0.0000000000000000000, 0.01000000000000000021 ) ) ;
#181 =( NAMED_UNIT ( * ) SI_UNIT ( $, .STERADIAN. ) SOLID_ANGLE_UNIT ( ) );
#182 = DIRECTION ( 'NONE',  ( -0.0000000000000000000, -0.0000000000000000000, -1.000000000000000000 ) ) ;
#183 = CARTESIAN_POINT ( 'NONE',  ( 1.224646799147353577E-18, 0.0000000000000000000, 0.01000000000000000194 ) ) ;
#184 =( CONVERSION_BASED_UNIT ( 'INCH', #68 ) LENGTH_UNIT ( ) NAMED_UNIT ( #156 ) );
#185 = DIRECTION ( 'NONE',  ( 1.000000000000000000, 0.0000000000000000000, 0.0000000000000000000 ) ) ;
#186 = STYLED_ITEM ( 'NONE', ( #117 ), #178 ) ;
#187 = ADVANCED_FACE ( 'NONE', ( #105 ), #313, .T. ) ;
#188 = VERTEX_POINT ( 'NONE', #57 ) ;
#189 = DIRECTION ( 'NONE',  ( -0.0000000000000000000, -0.0000000000000000000, -1.000000000000000000 ) ) ;
#190 = ORIENTED_EDGE ( 'NONE', *, *, #116, .T. ) ;
#191 = DIRECTION ( 'NONE',  ( -1.224646799147353207E-16, -0.0000000000000000000, -1.000000000000000000 ) ) ;
#192 = ORIENTED_EDGE ( 'NONE', *, *, #159, .F. ) ;
#193 = AXIS2_PLACEMENT_3D ( 'NONE', #279, #249, #32 ) ;
#194 = DIRECTION ( 'NONE',  ( 1.000000000000000000, 0.0000000000000000000, 0.0000000000000000000 ) ) ;
#195 = ORIENTED_EDGE ( 'NONE', *, *, #351, .F. ) ;
#196 = DIRECTION ( 'NONE',  ( 1.000000000000000000, 0.0000000000000000000, 0.0000000000000000000 ) ) ;
#197 = ORIENTED_EDGE ( 'NONE', *, *, #318, .F. ) ;
#198 = CARTESIAN_POINT ( 'NONE',  ( 9.956378477067980482E-17, 0.0000000000000000000, 0.8129999999999999449 ) ) ;
#199 = AXIS2_PLACEMENT_3D ( 'NONE', #53, #100, #218 ) ;
#200 = EDGE_CURVE ( 'NONE', #79, #230, #316, .T. ) ;
#201 = DIRECTION ( 'NONE',  ( 1.000000000000000000, 0.0000000000000000000, 0.0000000000000000000 ) ) ;
#202 = DIRECTION ( 'NONE',  ( 1.000000000000000000, 0.0000000000000000000, 0.0000000000000000000 ) ) ;
#203 = CARTESIAN_POINT ( 'NONE',  ( -0.1412499999999994871, 0.0000000000000000000, 2.500000000000000000 ) ) ;
#204 = CARTESIAN_POINT ( 'NONE',  ( 0.0000000000000000000, 0.0000000000000000000, 0.0000000000000000000 ) ) ;
#205 = PRODUCT_RELATED_PRODUCT_CATEGORY ( 'part', '', ( #41 ) ) ;
#206 = CARTESIAN_POINT ( 'NONE',  ( -0.1562499999999999167, 0.0000000000000000000, 0.8138861377843152889 ) ) ;
#207 = COLOUR_RGB ( '',0.7921568627450980005, 0.8196078431372548767, 0.9333333333333333481 ) ;
#208 = AXIS2_PLACEMENT_3D ( 'NONE', #7, #162, #282 ) ;
#209 = DIRECTION ( 'NONE',  ( 0.0000000000000000000, 0.0000000000000000000, -1.000000000000000000 ) ) ;
#210 = APPLICATION_CONTEXT ( 'automotive_design' ) ;
#211 = DIRECTION ( 'NONE',  ( -1.000000000000000000, 0.0000000000000000000, 1.224646799147353207E-16 ) ) ;
#212 = UNCERTAINTY_MEASURE_WITH_UNIT (LENGTH_MEASURE( 1.000000000000000082E-05 ), #262, 'distance_accuracy_value', 'NONE');
#213 = AXIS2_PLACEMENT_3D ( 'NONE', #324, #138, #245 ) ;
#214 = CIRCLE ( 'NONE', #125, 0.1412499999999994871 ) ;
#215 = EDGE_CURVE ( 'NONE', #56, #79, #10, .T. ) ;
#216 =( GEOMETRIC_REPRESENTATION_CONTEXT ( 3 ) GLOBAL_UNCERTAINTY_ASSIGNED_CONTEXT ( ( #158 ) ) GLOBAL_UNIT_ASSIGNED_CONTEXT ( ( #96, #48, #302 ) ) REPRESENTATION_CONTEXT ( 'NONE', 'WORKASPACE' ) );
#217 = CONICAL_SURFACE ( 'NONE', #13, 0.1560937499999999756, 0.1745329251994339192 ) ;
#218 = DIRECTION ( 'NONE',  ( 1.000000000000000000, 0.0000000000000000000, 0.0000000000000000000 ) ) ;
#219 = EDGE_LOOP ( 'NONE', ( #220, #16, #190, #4 ) ) ;
#220 = ORIENTED_EDGE ( 'NONE', *, *, #147, .F. ) ;
#221 = CARTESIAN_POINT ( 'NONE',  ( 9.956378477067980482E-17, 0.0000000000000000000, 0.8129999999999999449 ) ) ;
#222 = VERTEX_POINT ( 'NONE', #330 ) ;
#223 = EDGE_LOOP ( 'NONE', ( #272, #253, #275, #331 ) ) ;
#224 = CIRCLE ( 'NONE', #11, 0.1560937499999999478 ) ;
#225 = AXIS2_PLACEMENT_3D ( 'NONE', #179, #287, #202 ) ;
#226 = DIRECTION ( 'NONE',  ( 0.0000000000000000000, 0.0000000000000000000, -1.000000000000000000 ) ) ;
#227 = EDGE_LOOP ( 'NONE', ( #31, #12 ) ) ;
#228 = CARTESIAN_POINT ( 'NONE',  ( 0.1560937499999999478, 1.911597113044071073E-17, -1.911597113044071073E-17 ) ) ;
#229 = UNCERTAINTY_MEASURE_WITH_UNIT (LENGTH_MEASURE( 1.000000000000000082E-05 ), #184, 'distance_accuracy_value', 'NONE');
#230 = VERTEX_POINT ( 'NONE', #164 ) ;
#231 = ADVANCED_FACE ( 'NONE', ( #311 ), #246, .T. ) ;
#232 = DIRECTION ( 'NONE',  ( 1.000000000000000000, 0.0000000000000000000, 0.0000000000000000000 ) ) ;
#233 =( LENGTH_UNIT ( ) NAMED_UNIT ( * ) SI_UNIT ( $, .METRE. ) );
#234 = CARTESIAN_POINT ( 'NONE',  ( 0.0000000000000000000, 0.0000000000000000000, 2.500000000000000000 ) ) ;
#235 = VERTEX_POINT ( 'NONE', #328 ) ;
#236 = CARTESIAN_POINT ( 'NONE',  ( -0.1560937499999998923, 1.912553868355905422E-17, 0.8129999999999999449 ) ) ;
#237 = PRODUCT_CONTEXT ( 'NONE', #153, 'mechanical' ) ;
#238 = DIRECTION ( 'NONE',  ( 0.1736481776669314137, 0.0000000000000000000, 0.9848077530122077983 ) ) ;
#239 = CONICAL_SURFACE ( 'NONE', #241, 0.1560937499999999756, 0.1745329251994339192 ) ;
#240 = PLANE ( 'NONE',  #213 ) ;
#241 = AXIS2_PLACEMENT_3D ( 'NONE', #315, #294, #201 ) ;
#242 = DIMENSIONAL_EXPONENTS ( 1.000000000000000000, 0.0000000000000000000, 0.0000000000000000000, 0.0000000000000000000, 0.0000000000000000000, 0.0000000000000000000, 0.0000000000000000000 ) ;
#243 = AXIS2_PLACEMENT_3D ( 'NONE', #109, #338, #85 ) ;
#244 = EDGE_CURVE ( 'NONE', #222, #42, #149, .T. ) ;
#245 = DIRECTION ( 'NONE',  ( 1.000000000000000000, 0.0000000000000000000, -0.0000000000000000000 ) ) ;
#246 = TOROIDAL_SURFACE ( 'NONE', #298, 0.1460937499999999667, 0.01000000000000000021 ) ;
#247 = ORIENTED_EDGE ( 'NONE', *, *, #265, .F. ) ;
#248 = ORIENTED_EDGE ( 'NONE', *, *, #244, .T. ) ;
#249 = DIRECTION ( 'NONE',  ( 0.0000000000000000000, 0.0000000000000000000, -1.000000000000000000 ) ) ;
#250 = ORIENTED_EDGE ( 'NONE', *, *, #269, .T. ) ;
#251 = ADVANCED_FACE ( 'NONE', ( #55 ), #217, .T. ) ;
#252 = DIRECTION ( 'NONE',  ( 1.000000000000000000, 0.0000000000000000000, 0.0000000000000000000 ) ) ;
#253 = ORIENTED_EDGE ( 'NONE', *, *, #290, .T. ) ;
#254 = FACE_OUTER_BOUND ( 'NONE', #131, .T. ) ;
#255 = ORIENTED_EDGE ( 'NONE', *, *, #244, .F. ) ;
#256 = AXIS2_PLACEMENT_3D ( 'NONE', #36, #141, #15 ) ;
#257 = DIRECTION ( 'NONE',  ( -0.1736481776669312194, 2.126576849575783625E-17, 0.9848077530122080203 ) ) ;
#258 = ORIENTED_EDGE ( 'NONE', *, *, #50, .T. ) ;
#259 = FILL_AREA_STYLE ('',( #46 ) ) ;
#260 = CARTESIAN_POINT ( 'NONE',  ( 0.0000000000000000000, 0.0000000000000000000, 2.484999999999999432 ) ) ;
#261 = PRODUCT_DEFINITION_SHAPE ( 'NONE', 'NONE',  #341 ) ;
#262 =( CONVERSION_BASED_UNIT ( 'INCH', #342 ) LENGTH_UNIT ( ) NAMED_UNIT ( #300 ) );
#263 = LINE ( 'NONE', #146, #107 ) ;
#264 = CIRCLE ( 'NONE', #133, 0.1562500000000000000 ) ;
#265 = EDGE_CURVE ( 'NONE', #137, #108, #350, .T. ) ;
#266 =( NAMED_UNIT ( * ) PLANE_ANGLE_UNIT ( ) SI_UNIT ( $, .RADIAN. ) );
#267 = CARTESIAN_POINT ( 'NONE',  ( -0.1460937499999999667, 1.789132433129335716E-17, 0.01000000000000000021 ) ) ;
#268 = LINE ( 'NONE', #69, #174 ) ;
#269 = EDGE_CURVE ( 'NONE', #56, #84, #170, .T. ) ;
#270 = LINE ( 'NONE', #121, #292 ) ;
#271 = EDGE_LOOP ( 'NONE', ( #33, #258, #255, #335 ) ) ;
#272 = ORIENTED_EDGE ( 'NONE', *, *, #323, .T. ) ;
#273 = FACE_OUTER_BOUND ( 'NONE', #152, .T. ) ;
#274 = ADVANCED_FACE ( 'NONE', ( #254 ), #83, .T. ) ;
#275 = ORIENTED_EDGE ( 'NONE', *, *, #351, .T. ) ;
#276 = CARTESIAN_POINT ( 'NONE',  ( -0.1560937499999998923, 1.911597113044071690E-17, 0.8129999999999999449 ) ) ;
#277 = ORIENTED_EDGE ( 'NONE', *, *, #159, .T. ) ;
#278 = ADVANCED_FACE ( 'NONE', ( #273 ), #43, .T. ) ;
#279 = CARTESIAN_POINT ( 'NONE',  ( 0.0000000000000000000, 0.0000000000000000000, 2.500000000000000000 ) ) ;
#280 = EDGE_LOOP ( 'NONE', ( #192, #247, #104, #309 ) ) ;
#281 = CLOSED_SHELL ( 'NONE', ( #38, #127, #27, #130, #274, #187, #176, #278, #251, #172, #349, #231 ) ) ;
#282 = DIRECTION ( 'NONE',  ( 1.000000000000000000, 0.0000000000000000000, 0.0000000000000000000 ) ) ;
#283 = ORIENTED_EDGE ( 'NONE', *, *, #290, .F. ) ;
#284 = VECTOR ( 'NONE', #289, 39.37007874015748854 ) ;
#285 = DIRECTION ( 'NONE',  ( 1.000000000000000000, 0.0000000000000000000, -0.0000000000000000000 ) ) ;
#286 = ORIENTED_EDGE ( 'NONE', *, *, #303, .F. ) ;
#287 = DIRECTION ( 'NONE',  ( 0.0000000000000000000, 0.0000000000000000000, 1.000000000000000000 ) ) ;
#288 = DIRECTION ( 'NONE',  ( -1.000000000000000000, 0.0000000000000000000, 1.224646799147353207E-16 ) ) ;
#289 = DIRECTION ( 'NONE',  ( 0.7071067811865410224, 8.659560562354852739E-17, -0.7071067811865539010 ) ) ;
#290 = EDGE_CURVE ( 'NONE', #235, #188, #59, .T. ) ;
#291 = AXIS2_PLACEMENT_3D ( 'NONE', #180, #115, #66 ) ;
#292 = VECTOR ( 'NONE', #91, 39.37007874015748854 ) ;
#293 = PLANE ( 'NONE',  #87 ) ;
#294 = DIRECTION ( 'NONE',  ( 1.224646799147353207E-16, 0.0000000000000000000, 1.000000000000000000 ) ) ;
#295 =( NAMED_UNIT ( * ) SI_UNIT ( $, .STERADIAN. ) SOLID_ANGLE_UNIT ( ) );
#296 = DIRECTION ( 'NONE',  ( 0.0000000000000000000, 0.0000000000000000000, 1.000000000000000000 ) ) ;
#297 = EDGE_CURVE ( 'NONE', #230, #79, #264, .T. ) ;
#298 = AXIS2_PLACEMENT_3D ( 'NONE', #78, #30, #134 ) ;
#299 = DIRECTION ( 'NONE',  ( -1.224646799147353207E-16, -0.0000000000000000000, -1.000000000000000000 ) ) ;
#300 = DIMENSIONAL_EXPONENTS ( 1.000000000000000000, 0.0000000000000000000, 0.0000000000000000000, 0.0000000000000000000, 0.0000000000000000000, 0.0000000000000000000, 0.0000000000000000000 ) ;
#301 = CYLINDRICAL_SURFACE ( 'NONE', #325, 0.1560937499999999478 ) ;
#302 =( NAMED_UNIT ( * ) SI_UNIT ( $, .STERADIAN. ) SOLID_ANGLE_UNIT ( ) );
#303 = EDGE_CURVE ( 'NONE', #108, #137, #62, .T. ) ;
#304 = CIRCLE ( 'NONE', #256, 0.01000000000000000021 ) ;
#305 = CARTESIAN_POINT ( 'NONE',  ( 0.0000000000000000000, 0.0000000000000000000, 2.500000000000000000 ) ) ;
#306 = ORIENTED_EDGE ( 'NONE', *, *, #116, .F. ) ;
#307 = CARTESIAN_POINT ( 'NONE',  ( -0.1560937499999999478, 0.0000000000000000000, 1.911597113044071073E-17 ) ) ;
#308 = CARTESIAN_POINT ( 'NONE',  ( 9.967230535079632947E-17, 0.0000000000000000000, 0.8138861377843152889 ) ) ;
#309 = ORIENTED_EDGE ( 'NONE', *, *, #157, .F. ) ;
#310 = MECHANICAL_DESIGN_GEOMETRIC_PRESENTATION_REPRESENTATION (  '', ( #186 ), #2 ) ;
#311 = FACE_OUTER_BOUND ( 'NONE', #280, .T. ) ;
#312 = ORIENTED_EDGE ( 'NONE', *, *, #297, .T. ) ;
#313 = CYLINDRICAL_SURFACE ( 'NONE', #154, 0.1562500000000000000 ) ;
#314 = ORIENTED_EDGE ( 'NONE', *, *, #215, .F. ) ;
#315 = CARTESIAN_POINT ( 'NONE',  ( 9.956378477067980482E-17, 0.0000000000000000000, 0.8129999999999999449 ) ) ;
#316 = CIRCLE ( 'NONE', #199, 0.1562500000000000000 ) ;
#317 =( GEOMETRIC_REPRESENTATION_CONTEXT ( 3 ) GLOBAL_UNCERTAINTY_ASSIGNED_CONTEXT ( ( #229 ) ) GLOBAL_UNIT_ASSIGNED_CONTEXT ( ( #184, #266, #295 ) ) REPRESENTATION_CONTEXT ( 'NONE', 'WORKASPACE' ) );
#318 = EDGE_CURVE ( 'NONE', #82, #106, #214, .T. ) ;
#319 = SHAPE_DEFINITION_REPRESENTATION ( #261, #178 ) ;
#320 = LINE ( 'NONE', #119, #160 ) ;
#321 = FACE_OUTER_BOUND ( 'NONE', #271, .T. ) ;
#322 = EDGE_CURVE ( 'NONE', #137, #188, #304, .T. ) ;
#323 = EDGE_CURVE ( 'NONE', #56, #235, #51, .T. ) ;
#324 = CARTESIAN_POINT ( 'NONE',  ( 0.0000000000000000000, 0.0000000000000000000, 2.500000000000000000 ) ) ;
#325 = AXIS2_PLACEMENT_3D ( 'NONE', #95, #299, #211 ) ;
#326 = STYLED_ITEM ( 'NONE', ( #348 ), #161 ) ;
#327 = AXIS2_PLACEMENT_3D ( 'NONE', #148, #150, #232 ) ;
#328 = CARTESIAN_POINT ( 'NONE',  ( 0.1560937500000000866, 0.0000000000000000000, 0.8129999999999999449 ) ) ;
#329 = ORIENTED_EDGE ( 'NONE', *, *, #70, .T. ) ;
#330 = CARTESIAN_POINT ( 'NONE',  ( -0.1562500000000000000, 0.0000000000000000000, 2.484999999999999432 ) ) ;
#331 = ORIENTED_EDGE ( 'NONE', *, *, #269, .F. ) ;
#332 = CARTESIAN_POINT ( 'NONE',  ( 0.0000000000000000000, 0.0000000000000000000, 2.500000000000000000 ) ) ;
#333 = EDGE_CURVE ( 'NONE', #82, #222, #270, .T. ) ;
#334 = AXIS2_PLACEMENT_3D ( 'NONE', #22, #45, #288 ) ;
#335 = ORIENTED_EDGE ( 'NONE', *, *, #333, .F. ) ;
#336 = COLOUR_RGB ( '',0.7921568627450980005, 0.8196078431372548767, 0.9333333333333333481 ) ;
#337 = DIRECTION ( 'NONE',  ( 1.000000000000000000, 0.0000000000000000000, 0.0000000000000000000 ) ) ;
#338 = DIRECTION ( 'NONE',  ( -1.224646799147353207E-16, -0.0000000000000000000, -1.000000000000000000 ) ) ;
#339 = DIRECTION ( 'NONE',  ( -1.224646799147353207E-16, -0.0000000000000000000, -1.000000000000000000 ) ) ;
#340 = SURFACE_STYLE_FILL_AREA ( #259 ) ;
#341 = PRODUCT_DEFINITION ( 'UNKNOWN', '', #73, #8 ) ;
#342 = LENGTH_MEASURE_WITH_UNIT ( LENGTH_MEASURE( 0.02539999999999999897 ), #233 );
#343 = CARTESIAN_POINT ( 'NONE',  ( -0.1460937499999999667, 1.850364773086703240E-17, 0.0000000000000000000 ) ) ;
#344 = SURFACE_STYLE_FILL_AREA ( #98 ) ;
#345 = SURFACE_SIDE_STYLE ('',( #340 ) ) ;
#346 = FACE_OUTER_BOUND ( 'NONE', #139, .T. ) ;
#347 =( NAMED_UNIT ( * ) PLANE_ANGLE_UNIT ( ) SI_UNIT ( $, .RADIAN. ) );
#348 = PRESENTATION_STYLE_ASSIGNMENT (( #112 ) ) ;
#349 = ADVANCED_FACE ( 'NONE', ( #114 ), #293, .F. ) ;
#350 = CIRCLE ( 'NONE', #54, 0.1460937499999999667 ) ;
#351 = EDGE_CURVE ( 'NONE', #188, #84, #128, .T. ) ;
ENDSEC;
END-ISO-10303-21;
