ISO-10303-21;
HEADER;
FILE_DESCRIPTION (( 'STEP AP214' ),
    '1' );
FILE_NAME ('59439.STEP',
    '2023-06-30T22:16:07',
    ( '' ),
    ( '' ),
    'SwSTEP 2.0',
    'SolidWorks 2023',
    '' );
FILE_SCHEMA (( 'AUTOMOTIVE_DESIGN' ));
ENDSEC;

DATA;
#1 = VERTEX_POINT ( 'NONE', #236 ) ;
#2 = ADVANCED_FACE ( 'NONE', ( #203 ), #64, .F. ) ;
#3 =( GEOMETRIC_REPRESENTATION_CONTEXT ( 3 ) GLOBAL_UNCERTAINTY_ASSIGNED_CONTEXT ( ( #24 ) ) GLOBAL_UNIT_ASSIGNED_CONTEXT ( ( #146, #291, #73 ) ) REPRESENTATION_CONTEXT ( 'NONE', 'WORKASPACE' ) );
#4 = ORIENTED_EDGE ( 'NONE', *, *, #251, .T. ) ;
#5 = UNCERTAINTY_MEASURE_WITH_UNIT (LENGTH_MEASURE( 1.000000000000000082E-05 ), #346, 'distance_accuracy_value', 'NONE');
#6 = ORIENTED_EDGE ( 'NONE', *, *, #212, .F. ) ;
#7 = SURFACE_STYLE_USAGE ( .BOTH. , #89 ) ;
#8 = FILL_AREA_STYLE ('',( #104 ) ) ;
#9 = CARTESIAN_POINT ( 'NONE',  ( 0.000000000000000000, 0.1562500000000000278, 0.000000000000000000 ) ) ;
#10 = PRESENTATION_LAYER_ASSIGNMENT (  '', '', ( #28 ) ) ;
#11 = CIRCLE ( 'NONE', #123, 0.1562499999999996392 ) ;
#12 = ORIENTED_EDGE ( 'NONE', *, *, #277, .T. ) ;
#13 = DIRECTION ( 'NONE',  ( 1.000000000000000000, 0.000000000000000000, -1.224646799147353207E-16 ) ) ;
#14 = FILL_AREA_STYLE_COLOUR ( '', #113 ) ;
#15 = ADVANCED_FACE ( 'NONE', ( #238 ), #16, .T. ) ;
#16 = CYLINDRICAL_SURFACE ( 'NONE', #368, 0.1562500000000000000 ) ;
#17 =( NAMED_UNIT ( * ) PLANE_ANGLE_UNIT ( ) SI_UNIT ( $, .RADIAN. ) );
#18 = DIRECTION ( 'NONE',  ( -0.000000000000000000, -1.000000000000000000, -0.000000000000000000 ) ) ;
#19 = APPLICATION_CONTEXT ( 'automotive_design' ) ;
#20 = CIRCLE ( 'NONE', #35, 0.1562499999999999722 ) ;
#21 = LENGTH_MEASURE_WITH_UNIT ( LENGTH_MEASURE( 0.02539999999999999897 ), #364 );
#22 = AXIS2_PLACEMENT_3D ( 'NONE', #141, #90, #199 ) ;
#23 = ORIENTED_EDGE ( 'NONE', *, *, #48, .T. ) ;
#24 = UNCERTAINTY_MEASURE_WITH_UNIT (LENGTH_MEASURE( 1.000000000000000082E-05 ), #146, 'distance_accuracy_value', 'NONE');
#25 = DIRECTION ( 'NONE',  ( -1.243473982070152692E-16, 1.000000000000000000, -0.000000000000000000 ) ) ;
#26 = DIRECTION ( 'NONE',  ( 1.000000000000000000, 1.243473982070152692E-16, 0.000000000000000000 ) ) ;
#27 = DIMENSIONAL_EXPONENTS ( 1.000000000000000000, 0.000000000000000000, 0.000000000000000000, 0.000000000000000000, 0.000000000000000000, 0.000000000000000000, 0.000000000000000000 ) ;
#28 = STYLED_ITEM ( 'NONE', ( #172 ), #182 ) ;
#29 = CARTESIAN_POINT ( 'NONE',  ( 1.224646799147353700E-16, 2.000000000000000000, 0.000000000000000000 ) ) ;
#30 = SURFACE_STYLE_FILL_AREA ( #144 ) ;
#31 = UNCERTAINTY_MEASURE_WITH_UNIT (LENGTH_MEASURE( 1.000000000000000082E-05 ), #322, 'distance_accuracy_value', 'NONE');
#32 = CARTESIAN_POINT ( 'NONE',  ( 1.224646799147353700E-16, 2.000000000000000000, 0.000000000000000000 ) ) ;
#33 = VERTEX_POINT ( 'NONE', #50 ) ;
#34 = SURFACE_SIDE_STYLE ('',( #30 ) ) ;
#35 = AXIS2_PLACEMENT_3D ( 'NONE', #197, #329, #195 ) ;
#36 = CARTESIAN_POINT ( 'NONE',  ( 0.000000000000000000, 0.000000000000000000, 0.000000000000000000 ) ) ;
#37 = VERTEX_POINT ( 'NONE', #49 ) ;
#38 = CARTESIAN_POINT ( 'NONE',  ( 0.000000000000000000, 0.1562500000000000278, 0.000000000000000000 ) ) ;
#39 = ORIENTED_EDGE ( 'NONE', *, *, #331, .T. ) ;
#40 = ORIENTED_EDGE ( 'NONE', *, *, #102, .T. ) ;
#41 = EDGE_LOOP ( 'NONE', ( #6, #176, #4, #207 ) ) ;
#42 = LENGTH_MEASURE_WITH_UNIT ( LENGTH_MEASURE( 0.02539999999999999897 ), #278 );
#43 = CARTESIAN_POINT ( 'NONE',  ( 1.913510623667739463E-17, 0.1562500000000000278, 0.1562500000000000000 ) ) ;
#44 = DIRECTION ( 'NONE',  ( 0.000000000000000000, 1.000000000000000000, 0.000000000000000000 ) ) ;
#45 = DIRECTION ( 'NONE',  ( -0.000000000000000000, -1.000000000000000000, -0.000000000000000000 ) ) ;
#46 = ORIENTED_EDGE ( 'NONE', *, *, #162, .F. ) ;
#47 = COLOUR_RGB ( '',0.7921568627450980005, 0.8196078431372548767, 0.9333333333333333481 ) ;
#48 = EDGE_CURVE ( 'NONE', #339, #79, #308, .T. ) ;
#49 = CARTESIAN_POINT ( 'NONE',  ( 0.1562500000000000000, 0.1562500000000000278, 0.000000000000000000 ) ) ;
#50 = CARTESIAN_POINT ( 'NONE',  ( -0.1562499999999993339, 0.4374999999999998890, 0.000000000000000000 ) ) ;
#51 = DIRECTION ( 'NONE',  ( 1.243473982070152692E-16, -1.000000000000000000, 0.000000000000000000 ) ) ;
#52 = MECHANICAL_DESIGN_GEOMETRIC_PRESENTATION_REPRESENTATION (  '', ( #160 ), #347 ) ;
#53 = MECHANICAL_DESIGN_GEOMETRIC_PRESENTATION_REPRESENTATION (  '', ( #143 ), #178 ) ;
#54 = AXIS2_PLACEMENT_3D ( 'NONE', #250, #121, #170 ) ;
#55 = UNCERTAINTY_MEASURE_WITH_UNIT (LENGTH_MEASURE( 1.000000000000000082E-05 ), #348, 'distance_accuracy_value', 'NONE');
#56 = PLANE ( 'NONE',  #274 ) ;
#57 = PRODUCT_DEFINITION ( 'UNKNOWN', '', #296, #252 ) ;
#58 = DIMENSIONAL_EXPONENTS ( 1.000000000000000000, 0.000000000000000000, 0.000000000000000000, 0.000000000000000000, 0.000000000000000000, 0.000000000000000000, 0.000000000000000000 ) ;
#59 = CARTESIAN_POINT ( 'NONE',  ( 3.167574896131967497E-16, 0.4374999999999998890, 0.000000000000000000 ) ) ;
#60 = DIRECTION ( 'NONE',  ( 1.000000000000000000, 0.000000000000000000, 0.000000000000000000 ) ) ;
#61 = FACE_OUTER_BOUND ( 'NONE', #135, .T. ) ;
#62 = APPLICATION_PROTOCOL_DEFINITION ( 'draft international standard', 'automotive_design', 1998, #326 ) ;
#63 = ORIENTED_EDGE ( 'NONE', *, *, #328, .F. ) ;
#64 = PLANE ( 'NONE',  #194 ) ;
#65 = ADVANCED_FACE ( 'NONE', ( #216 ), #213, .T. ) ;
#66 = SPHERICAL_SURFACE ( 'NONE', #353, 0.1562500000000000000 ) ;
#67 = CIRCLE ( 'NONE', #235, 0.1562500000000000000 ) ;
#68 = EDGE_CURVE ( 'NONE', #37, #208, #340, .T. ) ;
#69 = ORIENTED_EDGE ( 'NONE', *, *, #328, .T. ) ;
#70 = VERTEX_POINT ( 'NONE', #222 ) ;
#71 = COLOUR_RGB ( '',1.000000000000000000, 0.000000000000000000, 0.000000000000000000 ) ;
#72 = PRESENTATION_STYLE_ASSIGNMENT (( #137 ) ) ;
#73 =( NAMED_UNIT ( * ) SI_UNIT ( $, .STERADIAN. ) SOLID_ANGLE_UNIT ( ) );
#74 = CARTESIAN_POINT ( 'NONE',  ( 0.1562499999999998612, 2.000000000000000000, 1.913510623667736074E-17 ) ) ;
#75 = SURFACE_SIDE_STYLE ('',( #244 ) ) ;
#76 = DIRECTION ( 'NONE',  ( -1.243473982070152692E-16, 1.000000000000000000, -0.000000000000000000 ) ) ;
#77 = PRODUCT ( '59439', '59439', '', ( #148 ) ) ;
#78 = VECTOR ( 'NONE', #76, 39.37007874015748143 ) ;
#79 = VERTEX_POINT ( 'NONE', #253 ) ;
#80 =( NAMED_UNIT ( * ) PLANE_ANGLE_UNIT ( ) SI_UNIT ( $, .RADIAN. ) );
#81 =( NAMED_UNIT ( * ) PLANE_ANGLE_UNIT ( ) SI_UNIT ( $, .RADIAN. ) );
#82 =( CONVERSION_BASED_UNIT ( 'INCH', #21 ) LENGTH_UNIT ( ) NAMED_UNIT ( #290 ) );
#83 = CARTESIAN_POINT ( 'NONE',  ( 0.000000000000000000, 0.1562500000000000278, 0.000000000000000000 ) ) ;
#84 = LINE ( 'NONE', #94, #196 ) ;
#85 =( GEOMETRIC_REPRESENTATION_CONTEXT ( 3 ) GLOBAL_UNCERTAINTY_ASSIGNED_CONTEXT ( ( #55 ) ) GLOBAL_UNIT_ASSIGNED_CONTEXT ( ( #348, #133, #191 ) ) REPRESENTATION_CONTEXT ( 'NONE', 'WORKASPACE' ) );
#86 = CIRCLE ( 'NONE', #295, 0.1562499999999996392 ) ;
#87 = UNCERTAINTY_MEASURE_WITH_UNIT (LENGTH_MEASURE( 1.000000000000000082E-05 ), #118, 'distance_accuracy_value', 'NONE');
#88 = FACE_OUTER_BOUND ( 'NONE', #41, .T. ) ;
#89 = SURFACE_SIDE_STYLE ('',( #153 ) ) ;
#90 = DIRECTION ( 'NONE',  ( -0.000000000000000000, -1.000000000000000000, -0.000000000000000000 ) ) ;
#91 = CARTESIAN_POINT ( 'NONE',  ( 0.000000000000000000, 0.000000000000000000, -0.1562500000000000000 ) ) ;
#92 = AXIS2_PLACEMENT_3D ( 'NONE', #193, #280, #245 ) ;
#93 = CIRCLE ( 'NONE', #22, 0.1562499999999999722 ) ;
#94 = CARTESIAN_POINT ( 'NONE',  ( -0.1562499999999995837, 2.000000000000000000, 0.000000000000000000 ) ) ;
#95 =( LENGTH_UNIT ( ) NAMED_UNIT ( * ) SI_UNIT ( $, .METRE. ) );
#96 = EDGE_LOOP ( 'NONE', ( #69, #39, #161, #299, #233 ) ) ;
#97 = ORIENTED_EDGE ( 'NONE', *, *, #269, .F. ) ;
#98 = CLOSED_SHELL ( 'NONE', ( #120, #15, #65, #182, #200 ) ) ;
#99 = STYLED_ITEM ( 'NONE', ( #134 ), #200 ) ;
#100 = ORIENTED_EDGE ( 'NONE', *, *, #343, .F. ) ;
#101 = MANIFOLD_SOLID_BREP ( 'Revolve - Tool Body (Straight Shanked)', #183 ) ;
#102 = EDGE_CURVE ( 'NONE', #70, #154, #293, .T. ) ;
#103 = MECHANICAL_DESIGN_GEOMETRIC_PRESENTATION_REPRESENTATION (  '', ( #281 ), #85 ) ;
#104 = FILL_AREA_STYLE_COLOUR ( '', #71 ) ;
#105 = LINE ( 'NONE', #74, #78 ) ;
#106 = PRODUCT_RELATED_PRODUCT_CATEGORY ( 'part', '', ( #77 ) ) ;
#107 = CARTESIAN_POINT ( 'NONE',  ( 0.000000000000000000, 0.4374999999999998890, 0.000000000000000000 ) ) ;
#108 = SURFACE_SIDE_STYLE ('',( #214 ) ) ;
#109 = CIRCLE ( 'NONE', #189, 0.1562500000000000000 ) ;
#110 = ORIENTED_EDGE ( 'NONE', *, *, #187, .T. ) ;
#111 = CARTESIAN_POINT ( 'NONE',  ( 3.167574896131967497E-16, 0.4374999999999998890, 0.000000000000000000 ) ) ;
#112 = CYLINDRICAL_SURFACE ( 'NONE', #263, 0.1562499999999997224 ) ;
#113 = COLOUR_RGB ( '',1.000000000000000000, 0.000000000000000000, 0.000000000000000000 ) ;
#114 = DIMENSIONAL_EXPONENTS ( 1.000000000000000000, 0.000000000000000000, 0.000000000000000000, 0.000000000000000000, 0.000000000000000000, 0.000000000000000000, 0.000000000000000000 ) ;
#115 = DIRECTION ( 'NONE',  ( -0.000000000000000000, -1.000000000000000000, -0.000000000000000000 ) ) ;
#116 = EDGE_CURVE ( 'NONE', #339, #154, #109, .T. ) ;
#117 = FILL_AREA_STYLE_COLOUR ( '', #142 ) ;
#118 =( CONVERSION_BASED_UNIT ( 'INCH', #307 ) LENGTH_UNIT ( ) NAMED_UNIT ( #114 ) );
#119 = DIRECTION ( 'NONE',  ( 0.000000000000000000, 0.000000000000000000, 1.000000000000000000 ) ) ;
#120 = ADVANCED_FACE ( 'NONE', ( #122 ), #66, .T. ) ;
#121 = DIRECTION ( 'NONE',  ( -1.243473982070152692E-16, 1.000000000000000000, -0.000000000000000000 ) ) ;
#122 = FACE_OUTER_BOUND ( 'NONE', #243, .T. ) ;
#123 = AXIS2_PLACEMENT_3D ( 'NONE', #111, #25, #337 ) ;
#124 = VERTEX_POINT ( 'NONE', #147 ) ;
#125 = CARTESIAN_POINT ( 'NONE',  ( 0.000000000000000000, 0.1562500000000000278, -0.1562500000000000000 ) ) ;
#126 = AXIS2_PLACEMENT_3D ( 'NONE', #9, #45, #239 ) ;
#127 = ORIENTED_EDGE ( 'NONE', *, *, #48, .F. ) ;
#128 = ORIENTED_EDGE ( 'NONE', *, *, #331, .F. ) ;
#129 = CYLINDRICAL_SURFACE ( 'NONE', #316, 0.1562500000000000000 ) ;
#130 = LENGTH_MEASURE_WITH_UNIT ( LENGTH_MEASURE( 0.02539999999999999897 ), #241 );
#131 = FACE_OUTER_BOUND ( 'NONE', #315, .T. ) ;
#132 = AXIS2_PLACEMENT_3D ( 'NONE', #184, #335, #367 ) ;
#133 =( NAMED_UNIT ( * ) PLANE_ANGLE_UNIT ( ) SI_UNIT ( $, .RADIAN. ) );
#134 = PRESENTATION_STYLE_ASSIGNMENT (( #325 ) ) ;
#135 = EDGE_LOOP ( 'NONE', ( #341, #294, #139, #314 ) ) ;
#136 = FILL_AREA_STYLE_COLOUR ( '', #224 ) ;
#137 = SURFACE_STYLE_USAGE ( .BOTH. , #75 ) ;
#138 = PRESENTATION_LAYER_ASSIGNMENT (  '', '', ( #143 ) ) ;
#139 = ORIENTED_EDGE ( 'NONE', *, *, #277, .F. ) ;
#140 = UNCERTAINTY_MEASURE_WITH_UNIT (LENGTH_MEASURE( 1.000000000000000082E-05 ), #192, 'distance_accuracy_value', 'NONE');
#141 = CARTESIAN_POINT ( 'NONE',  ( 0.000000000000000000, 0.4374999999999998890, 0.000000000000000000 ) ) ;
#142 = COLOUR_RGB ( '',0.7921568627450980005, 0.8196078431372548767, 0.9333333333333333481 ) ;
#143 = STYLED_ITEM ( 'NONE', ( #350 ), #101 ) ;
#144 = FILL_AREA_STYLE ('',( #288 ) ) ;
#145 = DIRECTION ( 'NONE',  ( -1.243473982070152692E-16, 1.000000000000000000, -0.000000000000000000 ) ) ;
#146 =( CONVERSION_BASED_UNIT ( 'INCH', #204 ) LENGTH_UNIT ( ) NAMED_UNIT ( #354 ) );
#147 = CARTESIAN_POINT ( 'NONE',  ( 0.1562499999999999445, 0.4374999999999998890, 1.913510623667736382E-17 ) ) ;
#148 = PRODUCT_CONTEXT ( 'NONE', #326, 'mechanical' ) ;
#149 = EDGE_CURVE ( 'NONE', #154, #37, #67, .T. ) ;
#150 = PRESENTATION_STYLE_ASSIGNMENT (( #177 ) ) ;
#151 = AXIS2_PLACEMENT_3D ( 'NONE', #258, #168, #169 ) ;
#152 = CARTESIAN_POINT ( 'NONE',  ( 3.167574896131967004E-16, 0.4374999999999998890, 0.000000000000000000 ) ) ;
#153 = SURFACE_STYLE_FILL_AREA ( #174 ) ;
#154 = VERTEX_POINT ( 'NONE', #125 ) ;
#155 = EDGE_LOOP ( 'NONE', ( #128, #275, #40, #338, #261 ) ) ;
#156 = MECHANICAL_DESIGN_GEOMETRIC_PRESENTATION_REPRESENTATION (  '', ( #99 ), #247 ) ;
#157 = ORIENTED_EDGE ( 'NONE', *, *, #116, .T. ) ;
#158 = DIRECTION ( 'NONE',  ( 0.000000000000000000, -0.000000000000000000, 1.000000000000000000 ) ) ;
#159 = SURFACE_STYLE_FILL_AREA ( #271 ) ;
#160 = STYLED_ITEM ( 'NONE', ( #72 ), #65 ) ;
#161 = ORIENTED_EDGE ( 'NONE', *, *, #68, .F. ) ;
#162 = EDGE_CURVE ( 'NONE', #37, #79, #166, .T. ) ;
#163 = PRESENTATION_LAYER_ASSIGNMENT (  '', '', ( #171 ) ) ;
#164 = PRESENTATION_STYLE_ASSIGNMENT (( #237 ) ) ;
#165 = DIRECTION ( 'NONE',  ( -0.000000000000000000, -1.000000000000000000, -0.000000000000000000 ) ) ;
#166 = CIRCLE ( 'NONE', #132, 0.1562500000000000000 ) ;
#167 = CIRCLE ( 'NONE', #370, 0.1562499999999998335 ) ;
#168 = DIRECTION ( 'NONE',  ( -1.243473982070152692E-16, 1.000000000000000000, -0.000000000000000000 ) ) ;
#169 = DIRECTION ( 'NONE',  ( -1.000000000000000000, 0.000000000000000000, 0.000000000000000000 ) ) ;
#170 = DIRECTION ( 'NONE',  ( -1.000000000000000000, 0.000000000000000000, 0.000000000000000000 ) ) ;
#171 = STYLED_ITEM ( 'NONE', ( #150 ), #120 ) ;
#172 = PRESENTATION_STYLE_ASSIGNMENT (( #7 ) ) ;
#173 = DIRECTION ( 'NONE',  ( -1.243473982070152692E-16, 1.000000000000000000, -0.000000000000000000 ) ) ;
#174 = FILL_AREA_STYLE ('',( #363 ) ) ;
#175 = ADVANCED_BREP_SHAPE_REPRESENTATION ( '59439', ( #227, #101, #179 ), #304 ) ;
#176 = ORIENTED_EDGE ( 'NONE', *, *, #343, .T. ) ;
#177 = SURFACE_STYLE_USAGE ( .BOTH. , #34 ) ;
#178 =( GEOMETRIC_REPRESENTATION_CONTEXT ( 3 ) GLOBAL_UNCERTAINTY_ASSIGNED_CONTEXT ( ( #306 ) ) GLOBAL_UNIT_ASSIGNED_CONTEXT ( ( #82, #190, #231 ) ) REPRESENTATION_CONTEXT ( 'NONE', 'WORKASPACE' ) );
#179 = AXIS2_PLACEMENT_3D ( 'NONE', #36, #267, #180 ) ;
#180 = DIRECTION ( 'NONE',  ( 1.000000000000000000, 0.000000000000000000, 0.000000000000000000 ) ) ;
#181 = ORIENTED_EDGE ( 'NONE', *, *, #300, .T. ) ;
#182 = ADVANCED_FACE ( 'NONE', ( #310 ), #129, .T. ) ;
#183 = CLOSED_SHELL ( 'NONE', ( #230, #2, #361, #284 ) ) ;
#184 = CARTESIAN_POINT ( 'NONE',  ( -1.913510623667739463E-17, 0.1562500000000000000, 0.000000000000000000 ) ) ;
#185 = DIRECTION ( 'NONE',  ( 1.224646799147353207E-16, -0.000000000000000000, 1.000000000000000000 ) ) ;
#186 =( NAMED_UNIT ( * ) SI_UNIT ( $, .STERADIAN. ) SOLID_ANGLE_UNIT ( ) );
#187 = EDGE_CURVE ( 'NONE', #208, #339, #211, .T. ) ;
#188 = PRESENTATION_STYLE_ASSIGNMENT (( #273 ) ) ;
#189 = AXIS2_PLACEMENT_3D ( 'NONE', #83, #234, #209 ) ;
#190 =( NAMED_UNIT ( * ) PLANE_ANGLE_UNIT ( ) SI_UNIT ( $, .RADIAN. ) );
#191 =( NAMED_UNIT ( * ) SI_UNIT ( $, .STERADIAN. ) SOLID_ANGLE_UNIT ( ) );
#192 =( CONVERSION_BASED_UNIT ( 'INCH', #327 ) LENGTH_UNIT ( ) NAMED_UNIT ( #58 ) );
#193 = CARTESIAN_POINT ( 'NONE',  ( -1.913510623667739463E-17, 0.1562500000000000000, 0.000000000000000000 ) ) ;
#194 = AXIS2_PLACEMENT_3D ( 'NONE', #152, #265, #272 ) ;
#195 = DIRECTION ( 'NONE',  ( 0.000000000000000000, 0.000000000000000000, -1.000000000000000000 ) ) ;
#196 = VECTOR ( 'NONE', #334, 39.37007874015748143 ) ;
#197 = CARTESIAN_POINT ( 'NONE',  ( 0.000000000000000000, 0.4374999999999998890, 0.000000000000000000 ) ) ;
#198 = DIMENSIONAL_EXPONENTS ( 1.000000000000000000, 0.000000000000000000, 0.000000000000000000, 0.000000000000000000, 0.000000000000000000, 0.000000000000000000, 0.000000000000000000 ) ;
#199 = DIRECTION ( 'NONE',  ( 0.000000000000000000, 0.000000000000000000, -1.000000000000000000 ) ) ;
#200 = ADVANCED_FACE ( 'NONE', ( #131 ), #318, .T. ) ;
#201 = CARTESIAN_POINT ( 'NONE',  ( 0.1562499999999999722, 2.000000000000000000, 1.913510623667736382E-17 ) ) ;
#202 = ORIENTED_EDGE ( 'NONE', *, *, #162, .T. ) ;
#203 = FACE_OUTER_BOUND ( 'NONE', #266, .T. ) ;
#204 = LENGTH_MEASURE_WITH_UNIT ( LENGTH_MEASURE( 0.02539999999999999897 ), #255 );
#205 = ORIENTED_EDGE ( 'NONE', *, *, #257, .F. ) ;
#206 = COLOUR_RGB ( '',1.000000000000000000, 0.000000000000000000, 0.000000000000000000 ) ;
#207 = ORIENTED_EDGE ( 'NONE', *, *, #300, .F. ) ;
#208 = VERTEX_POINT ( 'NONE', #43 ) ;
#209 = DIRECTION ( 'NONE',  ( 0.000000000000000000, 0.000000000000000000, -1.000000000000000000 ) ) ;
#210 = AXIS2_PLACEMENT_3D ( 'NONE', #319, #185, #13 ) ;
#211 = CIRCLE ( 'NONE', #126, 0.1562500000000000000 ) ;
#212 = EDGE_CURVE ( 'NONE', #124, #371, #105, .T. ) ;
#213 = PLANE ( 'NONE',  #226 ) ;
#214 = SURFACE_STYLE_FILL_AREA ( #320 ) ;
#215 = CARTESIAN_POINT ( 'NONE',  ( 0.000000000000000000, 0.000000000000000000, 0.000000000000000000 ) ) ;
#216 = FACE_OUTER_BOUND ( 'NONE', #313, .T. ) ;
#217 = LENGTH_MEASURE_WITH_UNIT ( LENGTH_MEASURE( 0.02539999999999999897 ), #302 );
#218 = PRODUCT_DEFINITION_SHAPE ( 'NONE', 'NONE',  #57 ) ;
#219 = COLOUR_RGB ( '',1.000000000000000000, 0.000000000000000000, 0.000000000000000000 ) ;
#220 = CARTESIAN_POINT ( 'NONE',  ( 0.000000000000000000, 0.1562500000000000278, 0.000000000000000000 ) ) ;
#221 = DIRECTION ( 'NONE',  ( 0.000000000000000000, 0.000000000000000000, -1.000000000000000000 ) ) ;
#222 = CARTESIAN_POINT ( 'NONE',  ( 0.000000000000000000, 0.4374999999999998890, -0.1562499999999999722 ) ) ;
#223 =( NAMED_UNIT ( * ) PLANE_ANGLE_UNIT ( ) SI_UNIT ( $, .RADIAN. ) );
#224 = COLOUR_RGB ( '',1.000000000000000000, 0.000000000000000000, 0.000000000000000000 ) ;
#225 = FACE_OUTER_BOUND ( 'NONE', #301, .T. ) ;
#226 = AXIS2_PLACEMENT_3D ( 'NONE', #107, #44, #158 ) ;
#227 = MANIFOLD_SOLID_BREP ( 'Revolve - Cutting Edge', #98 ) ;
#228 =( NAMED_UNIT ( * ) SI_UNIT ( $, .STERADIAN. ) SOLID_ANGLE_UNIT ( ) );
#229 = SURFACE_STYLE_FILL_AREA ( #362 ) ;
#230 = ADVANCED_FACE ( 'NONE', ( #61 ), #242, .T. ) ;
#231 =( NAMED_UNIT ( * ) SI_UNIT ( $, .STERADIAN. ) SOLID_ANGLE_UNIT ( ) );
#232 = CARTESIAN_POINT ( 'NONE',  ( 1.913510623667739463E-17, 0.000000000000000000, 0.1562500000000000000 ) ) ;
#233 = ORIENTED_EDGE ( 'NONE', *, *, #102, .F. ) ;
#234 = DIRECTION ( 'NONE',  ( -0.000000000000000000, -1.000000000000000000, -0.000000000000000000 ) ) ;
#235 = AXIS2_PLACEMENT_3D ( 'NONE', #38, #332, #259 ) ;
#236 = CARTESIAN_POINT ( 'NONE',  ( -0.1562499999999996947, 2.000000000000000000, 0.000000000000000000 ) ) ;
#237 = SURFACE_STYLE_USAGE ( .BOTH. , #344 ) ;
#238 = FACE_OUTER_BOUND ( 'NONE', #96, .T. ) ;
#239 = DIRECTION ( 'NONE',  ( 0.000000000000000000, 0.000000000000000000, -1.000000000000000000 ) ) ;
#240 = AXIS2_PLACEMENT_3D ( 'NONE', #220, #18, #276 ) ;
#241 =( LENGTH_UNIT ( ) NAMED_UNIT ( * ) SI_UNIT ( $, .METRE. ) );
#242 = CYLINDRICAL_SURFACE ( 'NONE', #151, 0.1562499999999997224 ) ;
#243 = EDGE_LOOP ( 'NONE', ( #110, #23, #46, #292 ) ) ;
#244 = SURFACE_STYLE_FILL_AREA ( #351 ) ;
#245 = DIRECTION ( 'NONE',  ( 1.000000000000000000, 0.000000000000000000, 0.000000000000000000 ) ) ;
#246 =( NAMED_UNIT ( * ) SI_UNIT ( $, .STERADIAN. ) SOLID_ANGLE_UNIT ( ) );
#247 =( GEOMETRIC_REPRESENTATION_CONTEXT ( 3 ) GLOBAL_UNCERTAINTY_ASSIGNED_CONTEXT ( ( #140 ) ) GLOBAL_UNIT_ASSIGNED_CONTEXT ( ( #192, #81, #186 ) ) REPRESENTATION_CONTEXT ( 'NONE', 'WORKASPACE' ) );
#248 = CARTESIAN_POINT ( 'NONE',  ( 0.000000000000000000, 0.000000000000000000, 0.000000000000000000 ) ) ;
#249 = UNCERTAINTY_MEASURE_WITH_UNIT (LENGTH_MEASURE( 1.000000000000000082E-05 ), #372, 'distance_accuracy_value', 'NONE');
#250 = CARTESIAN_POINT ( 'NONE',  ( 1.224646799147353700E-16, 2.000000000000000000, 0.000000000000000000 ) ) ;
#251 = EDGE_CURVE ( 'NONE', #33, #1, #84, .T. ) ;
#252 = PRODUCT_DEFINITION_CONTEXT ( 'detailed design', #19, 'design' ) ;
#253 = CARTESIAN_POINT ( 'NONE',  ( -9.567553118338697316E-18, 0.000000000000000000, 0.000000000000000000 ) ) ;
#254 = STYLED_ITEM ( 'NONE', ( #188 ), #227 ) ;
#255 =( LENGTH_UNIT ( ) NAMED_UNIT ( * ) SI_UNIT ( $, .METRE. ) );
#256 = CARTESIAN_POINT ( 'NONE',  ( 0.1562499999999999722, 2.000000000000000000, 0.000000000000000000 ) ) ;
#257 = EDGE_CURVE ( 'NONE', #373, #70, #20, .T. ) ;
#258 = CARTESIAN_POINT ( 'NONE',  ( 1.224646799147353700E-16, 2.000000000000000000, 0.000000000000000000 ) ) ;
#259 = DIRECTION ( 'NONE',  ( 0.000000000000000000, 0.000000000000000000, -1.000000000000000000 ) ) ;
#260 = APPLICATION_PROTOCOL_DEFINITION ( 'draft international standard', 'automotive_design', 1998, #19 ) ;
#261 = ORIENTED_EDGE ( 'NONE', *, *, #187, .F. ) ;
#262 = PRESENTATION_LAYER_ASSIGNMENT (  '', '', ( #99 ) ) ;
#263 = AXIS2_PLACEMENT_3D ( 'NONE', #29, #330, #355 ) ;
#264 = LENGTH_MEASURE_WITH_UNIT ( LENGTH_MEASURE( 0.02539999999999999897 ), #95 );
#265 = DIRECTION ( 'NONE',  ( -1.243473982070152692E-16, 1.000000000000000000, 0.000000000000000000 ) ) ;
#266 = EDGE_LOOP ( 'NONE', ( #97, #100 ) ) ;
#267 = DIRECTION ( 'NONE',  ( 0.000000000000000000, 0.000000000000000000, 1.000000000000000000 ) ) ;
#268 = VECTOR ( 'NONE', #345, 39.37007874015748143 ) ;
#269 = EDGE_CURVE ( 'NONE', #33, #124, #86, .T. ) ;
#270 =( NAMED_UNIT ( * ) PLANE_ANGLE_UNIT ( ) SI_UNIT ( $, .RADIAN. ) );
#271 = FILL_AREA_STYLE ('',( #279 ) ) ;
#272 = DIRECTION ( 'NONE',  ( -1.000000000000000000, -1.243473982070152692E-16, 0.000000000000000000 ) ) ;
#273 = SURFACE_STYLE_USAGE ( .BOTH. , #349 ) ;
#274 = AXIS2_PLACEMENT_3D ( 'NONE', #256, #51, #26 ) ;
#275 = ORIENTED_EDGE ( 'NONE', *, *, #257, .T. ) ;
#276 = DIRECTION ( 'NONE',  ( 0.000000000000000000, 0.000000000000000000, -1.000000000000000000 ) ) ;
#277 = EDGE_CURVE ( 'NONE', #1, #371, #167, .T. ) ;
#278 =( LENGTH_UNIT ( ) NAMED_UNIT ( * ) SI_UNIT ( $, .METRE. ) );
#279 = FILL_AREA_STYLE_COLOUR ( '', #47 ) ;
#280 = DIRECTION ( 'NONE',  ( 0.000000000000000000, 0.000000000000000000, 1.000000000000000000 ) ) ;
#281 = STYLED_ITEM ( 'NONE', ( #164 ), #15 ) ;
#282 = CIRCLE ( 'NONE', #54, 0.1562499999999998335 ) ;
#283 = CARTESIAN_POINT ( 'NONE',  ( 1.913510623667738847E-17, 0.4374999999999998890, 0.1562499999999999722 ) ) ;
#284 = ADVANCED_FACE ( 'NONE', ( #225 ), #56, .F. ) ;
#285 = DIRECTION ( 'NONE',  ( -1.000000000000000000, 0.000000000000000000, 0.000000000000000000 ) ) ;
#286 =( LENGTH_UNIT ( ) NAMED_UNIT ( * ) SI_UNIT ( $, .METRE. ) );
#287 = MECHANICAL_DESIGN_GEOMETRIC_PRESENTATION_REPRESENTATION (  '', ( #28 ), #369 ) ;
#288 = FILL_AREA_STYLE_COLOUR ( '', #206 ) ;
#289 = SURFACE_STYLE_USAGE ( .BOTH. , #333 ) ;
#290 = DIMENSIONAL_EXPONENTS ( 1.000000000000000000, 0.000000000000000000, 0.000000000000000000, 0.000000000000000000, 0.000000000000000000, 0.000000000000000000, 0.000000000000000000 ) ;
#291 =( NAMED_UNIT ( * ) PLANE_ANGLE_UNIT ( ) SI_UNIT ( $, .RADIAN. ) );
#292 = ORIENTED_EDGE ( 'NONE', *, *, #68, .T. ) ;
#293 = LINE ( 'NONE', #91, #268 ) ;
#294 = ORIENTED_EDGE ( 'NONE', *, *, #212, .T. ) ;
#295 = AXIS2_PLACEMENT_3D ( 'NONE', #59, #145, #285 ) ;
#296 = PRODUCT_DEFINITION_FORMATION_WITH_SPECIFIED_SOURCE ( 'ANY', '', #77, .NOT_KNOWN. ) ;
#297 = CARTESIAN_POINT ( 'NONE',  ( -1.913510623667739463E-17, 0.1562500000000000000, 0.000000000000000000 ) ) ;
#298 = SHAPE_DEFINITION_REPRESENTATION ( #218, #175 ) ;
#299 = ORIENTED_EDGE ( 'NONE', *, *, #149, .F. ) ;
#300 = EDGE_CURVE ( 'NONE', #371, #1, #282, .T. ) ;
#301 = EDGE_LOOP ( 'NONE', ( #12, #181 ) ) ;
#302 =( LENGTH_UNIT ( ) NAMED_UNIT ( * ) SI_UNIT ( $, .METRE. ) );
#303 = MECHANICAL_DESIGN_GEOMETRIC_PRESENTATION_REPRESENTATION (  '', ( #254 ), #336 ) ;
#304 =( GEOMETRIC_REPRESENTATION_CONTEXT ( 3 ) GLOBAL_UNCERTAINTY_ASSIGNED_CONTEXT ( ( #87 ) ) GLOBAL_UNIT_ASSIGNED_CONTEXT ( ( #118, #223, #309 ) ) REPRESENTATION_CONTEXT ( 'NONE', 'WORKASPACE' ) );
#305 = DIRECTION ( 'NONE',  ( 0.000000000000000000, 0.000000000000000000, -1.000000000000000000 ) ) ;
#306 = UNCERTAINTY_MEASURE_WITH_UNIT (LENGTH_MEASURE( 1.000000000000000082E-05 ), #82, 'distance_accuracy_value', 'NONE');
#307 = LENGTH_MEASURE_WITH_UNIT ( LENGTH_MEASURE( 0.02539999999999999897 ), #286 );
#308 = CIRCLE ( 'NONE', #210, 0.1562500000000000000 ) ;
#309 =( NAMED_UNIT ( * ) SI_UNIT ( $, .STERADIAN. ) SOLID_ANGLE_UNIT ( ) );
#310 = FACE_OUTER_BOUND ( 'NONE', #155, .T. ) ;
#311 = DIMENSIONAL_EXPONENTS ( 1.000000000000000000, 0.000000000000000000, 0.000000000000000000, 0.000000000000000000, 0.000000000000000000, 0.000000000000000000, 0.000000000000000000 ) ;
#312 = PRESENTATION_LAYER_ASSIGNMENT (  '', '', ( #281 ) ) ;
#313 = EDGE_LOOP ( 'NONE', ( #63, #205 ) ) ;
#314 = ORIENTED_EDGE ( 'NONE', *, *, #251, .F. ) ;
#315 = EDGE_LOOP ( 'NONE', ( #127, #157, #342, #202 ) ) ;
#316 = AXIS2_PLACEMENT_3D ( 'NONE', #248, #165, #221 ) ;
#317 = DIRECTION ( 'NONE',  ( -0.000000000000000000, -1.000000000000000000, -0.000000000000000000 ) ) ;
#318 = SPHERICAL_SURFACE ( 'NONE', #92, 0.1562500000000000000 ) ;
#319 = CARTESIAN_POINT ( 'NONE',  ( -1.913510623667739463E-17, 0.1562500000000000000, 0.000000000000000000 ) ) ;
#320 = FILL_AREA_STYLE ('',( #14 ) ) ;
#321 =( NAMED_UNIT ( * ) SI_UNIT ( $, .STERADIAN. ) SOLID_ANGLE_UNIT ( ) );
#322 =( CONVERSION_BASED_UNIT ( 'INCH', #217 ) LENGTH_UNIT ( ) NAMED_UNIT ( #311 ) );
#323 = PRESENTATION_LAYER_ASSIGNMENT (  '', '', ( #254 ) ) ;
#324 = SURFACE_STYLE_FILL_AREA ( #8 ) ;
#325 = SURFACE_STYLE_USAGE ( .BOTH. , #108 ) ;
#326 = APPLICATION_CONTEXT ( 'automotive_design' ) ;
#327 = LENGTH_MEASURE_WITH_UNIT ( LENGTH_MEASURE( 0.02539999999999999897 ), #352 );
#328 = EDGE_CURVE ( 'NONE', #70, #373, #93, .T. ) ;
#329 = DIRECTION ( 'NONE',  ( -0.000000000000000000, -1.000000000000000000, -0.000000000000000000 ) ) ;
#330 = DIRECTION ( 'NONE',  ( -1.243473982070152692E-16, 1.000000000000000000, -0.000000000000000000 ) ) ;
#331 = EDGE_CURVE ( 'NONE', #373, #208, #356, .T. ) ;
#332 = DIRECTION ( 'NONE',  ( -0.000000000000000000, -1.000000000000000000, -0.000000000000000000 ) ) ;
#333 = SURFACE_SIDE_STYLE ('',( #229 ) ) ;
#334 = DIRECTION ( 'NONE',  ( -1.243473982070152692E-16, 1.000000000000000000, -0.000000000000000000 ) ) ;
#335 = DIRECTION ( 'NONE',  ( 0.000000000000000000, 0.000000000000000000, -1.000000000000000000 ) ) ;
#336 =( GEOMETRIC_REPRESENTATION_CONTEXT ( 3 ) GLOBAL_UNCERTAINTY_ASSIGNED_CONTEXT ( ( #31 ) ) GLOBAL_UNIT_ASSIGNED_CONTEXT ( ( #322, #17, #228 ) ) REPRESENTATION_CONTEXT ( 'NONE', 'WORKASPACE' ) );
#337 = DIRECTION ( 'NONE',  ( -1.000000000000000000, 0.000000000000000000, 0.000000000000000000 ) ) ;
#338 = ORIENTED_EDGE ( 'NONE', *, *, #116, .F. ) ;
#339 = VERTEX_POINT ( 'NONE', #365 ) ;
#340 = CIRCLE ( 'NONE', #240, 0.1562500000000000000 ) ;
#341 = ORIENTED_EDGE ( 'NONE', *, *, #269, .T. ) ;
#342 = ORIENTED_EDGE ( 'NONE', *, *, #149, .T. ) ;
#343 = EDGE_CURVE ( 'NONE', #124, #33, #11, .T. ) ;
#344 = SURFACE_SIDE_STYLE ('',( #324 ) ) ;
#345 = DIRECTION ( 'NONE',  ( -0.000000000000000000, -1.000000000000000000, -0.000000000000000000 ) ) ;
#346 =( CONVERSION_BASED_UNIT ( 'INCH', #42 ) LENGTH_UNIT ( ) NAMED_UNIT ( #198 ) );
#347 =( GEOMETRIC_REPRESENTATION_CONTEXT ( 3 ) GLOBAL_UNCERTAINTY_ASSIGNED_CONTEXT ( ( #5 ) ) GLOBAL_UNIT_ASSIGNED_CONTEXT ( ( #346, #270, #321 ) ) REPRESENTATION_CONTEXT ( 'NONE', 'WORKASPACE' ) );
#348 =( CONVERSION_BASED_UNIT ( 'INCH', #130 ) LENGTH_UNIT ( ) NAMED_UNIT ( #357 ) );
#349 = SURFACE_SIDE_STYLE ('',( #159 ) ) ;
#350 = PRESENTATION_STYLE_ASSIGNMENT (( #289 ) ) ;
#351 = FILL_AREA_STYLE ('',( #136 ) ) ;
#352 =( LENGTH_UNIT ( ) NAMED_UNIT ( * ) SI_UNIT ( $, .METRE. ) );
#353 = AXIS2_PLACEMENT_3D ( 'NONE', #297, #119, #60 ) ;
#354 = DIMENSIONAL_EXPONENTS ( 1.000000000000000000, 0.000000000000000000, 0.000000000000000000, 0.000000000000000000, 0.000000000000000000, 0.000000000000000000, 0.000000000000000000 ) ;
#355 = DIRECTION ( 'NONE',  ( -1.000000000000000000, 0.000000000000000000, 0.000000000000000000 ) ) ;
#356 = LINE ( 'NONE', #232, #360 ) ;
#357 = DIMENSIONAL_EXPONENTS ( 1.000000000000000000, 0.000000000000000000, 0.000000000000000000, 0.000000000000000000, 0.000000000000000000, 0.000000000000000000, 0.000000000000000000 ) ;
#358 = PRESENTATION_LAYER_ASSIGNMENT (  '', '', ( #160 ) ) ;
#359 = MECHANICAL_DESIGN_GEOMETRIC_PRESENTATION_REPRESENTATION (  '', ( #171 ), #3 ) ;
#360 = VECTOR ( 'NONE', #115, 39.37007874015748143 ) ;
#361 = ADVANCED_FACE ( 'NONE', ( #88 ), #112, .T. ) ;
#362 = FILL_AREA_STYLE ('',( #117 ) ) ;
#363 = FILL_AREA_STYLE_COLOUR ( '', #219 ) ;
#364 =( LENGTH_UNIT ( ) NAMED_UNIT ( * ) SI_UNIT ( $, .METRE. ) );
#365 = CARTESIAN_POINT ( 'NONE',  ( -0.1562500000000000000, 0.1562500000000000278, 1.913510623667738847E-17 ) ) ;
#366 = DIRECTION ( 'NONE',  ( -1.000000000000000000, 0.000000000000000000, 0.000000000000000000 ) ) ;
#367 = DIRECTION ( 'NONE',  ( -1.000000000000000000, 0.000000000000000000, 0.000000000000000000 ) ) ;
#368 = AXIS2_PLACEMENT_3D ( 'NONE', #215, #317, #305 ) ;
#369 =( GEOMETRIC_REPRESENTATION_CONTEXT ( 3 ) GLOBAL_UNCERTAINTY_ASSIGNED_CONTEXT ( ( #249 ) ) GLOBAL_UNIT_ASSIGNED_CONTEXT ( ( #372, #80, #246 ) ) REPRESENTATION_CONTEXT ( 'NONE', 'WORKASPACE' ) );
#370 = AXIS2_PLACEMENT_3D ( 'NONE', #32, #173, #366 ) ;
#371 = VERTEX_POINT ( 'NONE', #201 ) ;
#372 =( CONVERSION_BASED_UNIT ( 'INCH', #264 ) LENGTH_UNIT ( ) NAMED_UNIT ( #27 ) );
#373 = VERTEX_POINT ( 'NONE', #283 ) ;
ENDSEC;
END-ISO-10303-21;
