ISO-10303-21;
HEADER;
FILE_DESCRIPTION (( 'STEP AP214' ),
    '1' );
FILE_NAME ('82264W.STEP',
    '2023-06-23T04:42:57',
    ( '' ),
    ( '' ),
    'SwSTEP 2.0',
    'SolidWorks 2023',
    '' );
FILE_SCHEMA (( 'AUTOMOTIVE_DESIGN' ));
ENDSEC;

DATA;
#1 = COLOUR_RGB ( '',0.7921568627450980005, 0.8196078431372548767, 0.9333333333333333481 ) ;
#2 = VECTOR ( 'NONE', #141, 39.37007874015748143 ) ;
#3 = SURFACE_STYLE_FILL_AREA ( #300 ) ;
#4 = CIRCLE ( 'NONE', #108, 0.1250000000000000000 ) ;
#5 = LENGTH_MEASURE_WITH_UNIT ( LENGTH_MEASURE( 0.02539999999999999897 ), #81 );
#6 = COLOUR_RGB ( '',0.7921568627450980005, 0.8196078431372548767, 0.9333333333333333481 ) ;
#7 = VERTEX_POINT ( 'NONE', #103 ) ;
#8 = FILL_AREA_STYLE_COLOUR ( '', #1 ) ;
#9 = LENGTH_MEASURE_WITH_UNIT ( LENGTH_MEASURE( 0.02539999999999999897 ), #189 );
#10 = ADVANCED_FACE ( 'NONE', ( #294 ), #83, .T. ) ;
#11 = CLOSED_SHELL ( 'NONE', ( #137, #158, #162, #231 ) ) ;
#12 = ADVANCED_BREP_SHAPE_REPRESENTATION ( '82264W', ( #152, #147, #276 ), #114 ) ;
#13 = SURFACE_STYLE_FILL_AREA ( #259 ) ;
#14 =( CONVERSION_BASED_UNIT ( 'INCH', #61 ) LENGTH_UNIT ( ) NAMED_UNIT ( #252 ) );
#15 = STYLED_ITEM ( 'NONE', ( #28 ), #124 ) ;
#16 = MECHANICAL_DESIGN_GEOMETRIC_PRESENTATION_REPRESENTATION (  '', ( #199 ), #215 ) ;
#17 = DIRECTION ( 'NONE',  ( -1.000000000000000000, -3.498990854706726443E-17, 0.000000000000000000 ) ) ;
#18 = APPLICATION_PROTOCOL_DEFINITION ( 'draft international standard', 'automotive_design', 1998, #79 ) ;
#19 = ORIENTED_EDGE ( 'NONE', *, *, #220, .T. ) ;
#20 = PRESENTATION_STYLE_ASSIGNMENT (( #41 ) ) ;
#21 = ORIENTED_EDGE ( 'NONE', *, *, #288, .F. ) ;
#22 = SURFACE_SIDE_STYLE ('',( #95 ) ) ;
#23 = AXIS2_PLACEMENT_3D ( 'NONE', #212, #91, #44 ) ;
#24 = FACE_OUTER_BOUND ( 'NONE', #126, .T. ) ;
#25 = ORIENTED_EDGE ( 'NONE', *, *, #100, .T. ) ;
#26 = MECHANICAL_DESIGN_GEOMETRIC_PRESENTATION_REPRESENTATION (  '', ( #185 ), #102 ) ;
#27 = CARTESIAN_POINT ( 'NONE',  ( -0.1250000000000001110, 2.500000000000000000, 0.000000000000000000 ) ) ;
#28 = PRESENTATION_STYLE_ASSIGNMENT (( #155 ) ) ;
#29 = EDGE_CURVE ( 'NONE', #7, #290, #166, .T. ) ;
#30 = ORIENTED_EDGE ( 'NONE', *, *, #295, .F. ) ;
#31 = FACE_OUTER_BOUND ( 'NONE', #269, .T. ) ;
#32 = PRESENTATION_STYLE_ASSIGNMENT (( #161 ) ) ;
#33 = CARTESIAN_POINT ( 'NONE',  ( -0.1250000000000000000, 0.7499999999999998890, 0.000000000000000000 ) ) ;
#34 =( NAMED_UNIT ( * ) SI_UNIT ( $, .STERADIAN. ) SOLID_ANGLE_UNIT ( ) );
#35 = CARTESIAN_POINT ( 'NONE',  ( 0.000000000000000000, 0.000000000000000000, 0.000000000000000000 ) ) ;
#36 = STYLED_ITEM ( 'NONE', ( #296 ), #10 ) ;
#37 = CIRCLE ( 'NONE', #129, 0.1250000000000000000 ) ;
#38 = CARTESIAN_POINT ( 'NONE',  ( 0.000000000000000000, 0.7499999999999998890, 0.000000000000000000 ) ) ;
#39 = DIRECTION ( 'NONE',  ( -1.000000000000000000, 0.000000000000000000, 0.000000000000000000 ) ) ;
#40 = EDGE_LOOP ( 'NONE', ( #205, #267, #275, #47 ) ) ;
#41 = SURFACE_STYLE_USAGE ( .BOTH. , #22 ) ;
#42 = DIRECTION ( 'NONE',  ( 0.000000000000000000, 0.000000000000000000, -1.000000000000000000 ) ) ;
#43 = ORIENTED_EDGE ( 'NONE', *, *, #84, .T. ) ;
#44 = DIRECTION ( 'NONE',  ( -1.000000000000000000, 0.000000000000000000, 0.000000000000000000 ) ) ;
#45 = PRESENTATION_LAYER_ASSIGNMENT (  '', '', ( #15 ) ) ;
#46 = CARTESIAN_POINT ( 'NONE',  ( -6.123233995736772199E-17, 2.500000000000000000, 0.000000000000000000 ) ) ;
#47 = ORIENTED_EDGE ( 'NONE', *, *, #169, .F. ) ;
#48 = LINE ( 'NONE', #266, #2 ) ;
#49 = CARTESIAN_POINT ( 'NONE',  ( 0.000000000000000000, 0.000000000000000000, 0.000000000000000000 ) ) ;
#50 = SURFACE_SIDE_STYLE ('',( #271 ) ) ;
#51 = DIRECTION ( 'NONE',  ( -0.000000000000000000, -1.000000000000000000, -0.000000000000000000 ) ) ;
#52 = DIRECTION ( 'NONE',  ( -0.000000000000000000, -1.000000000000000000, -0.000000000000000000 ) ) ;
#53 = SURFACE_SIDE_STYLE ('',( #3 ) ) ;
#54 = SURFACE_STYLE_FILL_AREA ( #58 ) ;
#55 = AXIS2_PLACEMENT_3D ( 'NONE', #210, #182, #227 ) ;
#56 = AXIS2_PLACEMENT_3D ( 'NONE', #303, #164, #60 ) ;
#57 = SHAPE_DEFINITION_REPRESENTATION ( #248, #12 ) ;
#58 = FILL_AREA_STYLE ('',( #131 ) ) ;
#59 = DIRECTION ( 'NONE',  ( -1.000000000000000000, 0.000000000000000000, 0.000000000000000000 ) ) ;
#60 = DIRECTION ( 'NONE',  ( 0.000000000000000000, 0.000000000000000000, -1.000000000000000000 ) ) ;
#61 = LENGTH_MEASURE_WITH_UNIT ( LENGTH_MEASURE( 0.02539999999999999897 ), #283 );
#62 = LENGTH_MEASURE_WITH_UNIT ( LENGTH_MEASURE( 0.02539999999999999897 ), #280 );
#63 = UNCERTAINTY_MEASURE_WITH_UNIT (LENGTH_MEASURE( 1.000000000000000082E-05 ), #229, 'distance_accuracy_value', 'NONE');
#64 = CARTESIAN_POINT ( 'NONE',  ( -6.123233995736772199E-17, 2.500000000000000000, 0.000000000000000000 ) ) ;
#65 = DIRECTION ( 'NONE',  ( 1.000000000000000000, 0.000000000000000000, 0.000000000000000000 ) ) ;
#66 = DIRECTION ( 'NONE',  ( -3.498990854706726443E-17, 1.000000000000000000, -0.000000000000000000 ) ) ;
#67 = ORIENTED_EDGE ( 'NONE', *, *, #179, .F. ) ;
#68 = STYLED_ITEM ( 'NONE', ( #20 ), #305 ) ;
#69 = FACE_OUTER_BOUND ( 'NONE', #265, .T. ) ;
#70 = CARTESIAN_POINT ( 'NONE',  ( 0.1250000000000000278, 0.7499999999999998890, 1.530808498934192125E-17 ) ) ;
#71 = LINE ( 'NONE', #237, #274 ) ;
#72 = ORIENTED_EDGE ( 'NONE', *, *, #295, .T. ) ;
#73 = DIRECTION ( 'NONE',  ( 0.000000000000000000, 1.000000000000000000, 0.000000000000000000 ) ) ;
#74 = DIRECTION ( 'NONE',  ( 3.498990854706726443E-17, -1.000000000000000000, 0.000000000000000000 ) ) ;
#75 =( GEOMETRIC_REPRESENTATION_CONTEXT ( 3 ) GLOBAL_UNCERTAINTY_ASSIGNED_CONTEXT ( ( #260 ) ) GLOBAL_UNIT_ASSIGNED_CONTEXT ( ( #257, #112, #34 ) ) REPRESENTATION_CONTEXT ( 'NONE', 'WORKASPACE' ) );
#76 = AXIS2_PLACEMENT_3D ( 'NONE', #225, #209, #110 ) ;
#77 = DIRECTION ( 'NONE',  ( 0.000000000000000000, 0.000000000000000000, -1.000000000000000000 ) ) ;
#78 = SURFACE_STYLE_USAGE ( .BOTH. , #53 ) ;
#79 = APPLICATION_CONTEXT ( 'automotive_design' ) ;
#80 =( GEOMETRIC_REPRESENTATION_CONTEXT ( 3 ) GLOBAL_UNCERTAINTY_ASSIGNED_CONTEXT ( ( #63 ) ) GLOBAL_UNIT_ASSIGNED_CONTEXT ( ( #229, #133, #286 ) ) REPRESENTATION_CONTEXT ( 'NONE', 'WORKASPACE' ) );
#81 =( LENGTH_UNIT ( ) NAMED_UNIT ( * ) SI_UNIT ( $, .METRE. ) );
#82 = EDGE_LOOP ( 'NONE', ( #138, #19, #125, #170 ) ) ;
#83 = CYLINDRICAL_SURFACE ( 'NONE', #207, 0.1250000000000000000 ) ;
#84 = EDGE_CURVE ( 'NONE', #308, #150, #4, .T. ) ;
#85 = AXIS2_PLACEMENT_3D ( 'NONE', #157, #51, #203 ) ;
#86 =( NAMED_UNIT ( * ) PLANE_ANGLE_UNIT ( ) SI_UNIT ( $, .RADIAN. ) );
#87 = VECTOR ( 'NONE', #153, 39.37007874015748143 ) ;
#88 = FILL_AREA_STYLE ('',( #8 ) ) ;
#89 = EDGE_CURVE ( 'NONE', #146, #116, #285, .T. ) ;
#90 = SURFACE_SIDE_STYLE ('',( #13 ) ) ;
#91 = DIRECTION ( 'NONE',  ( -3.498990854706726443E-17, 1.000000000000000000, -0.000000000000000000 ) ) ;
#92 = SURFACE_STYLE_USAGE ( .BOTH. , #90 ) ;
#93 = CIRCLE ( 'NONE', #56, 0.1250000000000000000 ) ;
#94 = ORIENTED_EDGE ( 'NONE', *, *, #89, .T. ) ;
#95 = SURFACE_STYLE_FILL_AREA ( #195 ) ;
#96 = STYLED_ITEM ( 'NONE', ( #254 ), #152 ) ;
#97 = CARTESIAN_POINT ( 'NONE',  ( 0.000000000000000000, 0.7500000000000001110, 0.000000000000000000 ) ) ;
#98 = PLANE ( 'NONE',  #255 ) ;
#99 =( NAMED_UNIT ( * ) PLANE_ANGLE_UNIT ( ) SI_UNIT ( $, .RADIAN. ) );
#100 = EDGE_CURVE ( 'NONE', #116, #146, #302, .T. ) ;
#101 = PLANE ( 'NONE',  #76 ) ;
#102 =( GEOMETRIC_REPRESENTATION_CONTEXT ( 3 ) GLOBAL_UNCERTAINTY_ASSIGNED_CONTEXT ( ( #106 ) ) GLOBAL_UNIT_ASSIGNED_CONTEXT ( ( #14, #86, #163 ) ) REPRESENTATION_CONTEXT ( 'NONE', 'WORKASPACE' ) );
#103 = CARTESIAN_POINT ( 'NONE',  ( 0.1250000000000000278, 2.500000000000000000, 1.530808498934192125E-17 ) ) ;
#104 = SURFACE_SIDE_STYLE ('',( #54 ) ) ;
#105 = CARTESIAN_POINT ( 'NONE',  ( 7.651835625825817976E-35, 0.7500000000000001110, 0.000000000000000000 ) ) ;
#106 = UNCERTAINTY_MEASURE_WITH_UNIT (LENGTH_MEASURE( 1.000000000000000082E-05 ), #14, 'distance_accuracy_value', 'NONE');
#107 =( NAMED_UNIT ( * ) PLANE_ANGLE_UNIT ( ) SI_UNIT ( $, .RADIAN. ) );
#108 = AXIS2_PLACEMENT_3D ( 'NONE', #154, #128, #270 ) ;
#109 = VECTOR ( 'NONE', #262, 39.37007874015748143 ) ;
#110 = DIRECTION ( 'NONE',  ( 0.000000000000000000, 0.000000000000000000, -1.000000000000000000 ) ) ;
#111 = DIMENSIONAL_EXPONENTS ( 1.000000000000000000, 0.000000000000000000, 0.000000000000000000, 0.000000000000000000, 0.000000000000000000, 0.000000000000000000, 0.000000000000000000 ) ;
#112 =( NAMED_UNIT ( * ) PLANE_ANGLE_UNIT ( ) SI_UNIT ( $, .RADIAN. ) );
#113 = CLOSED_SHELL ( 'NONE', ( #124, #305, #10, #277 ) ) ;
#114 =( GEOMETRIC_REPRESENTATION_CONTEXT ( 3 ) GLOBAL_UNCERTAINTY_ASSIGNED_CONTEXT ( ( #187 ) ) GLOBAL_UNIT_ASSIGNED_CONTEXT ( ( #243, #263, #238 ) ) REPRESENTATION_CONTEXT ( 'NONE', 'WORKASPACE' ) );
#115 = FACE_OUTER_BOUND ( 'NONE', #216, .T. ) ;
#116 = VERTEX_POINT ( 'NONE', #246 ) ;
#117 = CARTESIAN_POINT ( 'NONE',  ( 0.000000000000000000, 0.7500000000000001110, 0.000000000000000000 ) ) ;
#118 = ORIENTED_EDGE ( 'NONE', *, *, #304, .F. ) ;
#119 = PRODUCT_RELATED_PRODUCT_CATEGORY ( 'part', '', ( #201 ) ) ;
#120 = COLOUR_RGB ( '',1.000000000000000000, 0.000000000000000000, 0.000000000000000000 ) ;
#121 = FACE_OUTER_BOUND ( 'NONE', #239, .T. ) ;
#122 = FACE_OUTER_BOUND ( 'NONE', #40, .T. ) ;
#123 = PRESENTATION_LAYER_ASSIGNMENT (  '', '', ( #185 ) ) ;
#124 = ADVANCED_FACE ( 'NONE', ( #122 ), #180, .T. ) ;
#125 = ORIENTED_EDGE ( 'NONE', *, *, #169, .T. ) ;
#126 = EDGE_LOOP ( 'NONE', ( #72, #244 ) ) ;
#127 = FACE_OUTER_BOUND ( 'NONE', #202, .T. ) ;
#128 = DIRECTION ( 'NONE',  ( -3.498990854706726443E-17, 1.000000000000000000, -0.000000000000000000 ) ) ;
#129 = AXIS2_PLACEMENT_3D ( 'NONE', #38, #140, #142 ) ;
#130 = DIRECTION ( 'NONE',  ( -3.498990854706726443E-17, 1.000000000000000000, -0.000000000000000000 ) ) ;
#131 = FILL_AREA_STYLE_COLOUR ( '', #282 ) ;
#132 = PRESENTATION_LAYER_ASSIGNMENT (  '', '', ( #96 ) ) ;
#133 =( NAMED_UNIT ( * ) PLANE_ANGLE_UNIT ( ) SI_UNIT ( $, .RADIAN. ) );
#134 = SURFACE_STYLE_FILL_AREA ( #88 ) ;
#135 = DIMENSIONAL_EXPONENTS ( 1.000000000000000000, 0.000000000000000000, 0.000000000000000000, 0.000000000000000000, 0.000000000000000000, 0.000000000000000000, 0.000000000000000000 ) ;
#136 = CARTESIAN_POINT ( 'NONE',  ( 0.000000000000000000, 0.000000000000000000, -0.1250000000000000000 ) ) ;
#137 = ADVANCED_FACE ( 'NONE', ( #31 ), #301, .T. ) ;
#138 = ORIENTED_EDGE ( 'NONE', *, *, #198, .F. ) ;
#139 = UNCERTAINTY_MEASURE_WITH_UNIT (LENGTH_MEASURE( 1.000000000000000082E-05 ), #151, 'distance_accuracy_value', 'NONE');
#140 = DIRECTION ( 'NONE',  ( -3.498990854706726443E-17, 1.000000000000000000, -0.000000000000000000 ) ) ;
#141 = DIRECTION ( 'NONE',  ( -3.498990854706726443E-17, 1.000000000000000000, -0.000000000000000000 ) ) ;
#142 = DIRECTION ( 'NONE',  ( -1.000000000000000000, 0.000000000000000000, 0.000000000000000000 ) ) ;
#143 = ORIENTED_EDGE ( 'NONE', *, *, #304, .T. ) ;
#144 =( NAMED_UNIT ( * ) PLANE_ANGLE_UNIT ( ) SI_UNIT ( $, .RADIAN. ) );
#145 = CARTESIAN_POINT ( 'NONE',  ( 0.000000000000000000, 0.000000000000000000, -0.1250000000000000000 ) ) ;
#146 = VERTEX_POINT ( 'NONE', #136 ) ;
#147 = MANIFOLD_SOLID_BREP ( 'Revolve - Tool Body (Straight Shanked)', #11 ) ;
#148 = MECHANICAL_DESIGN_GEOMETRIC_PRESENTATION_REPRESENTATION (  '', ( #36 ), #204 ) ;
#149 = LINE ( 'NONE', #27, #87 ) ;
#150 = VERTEX_POINT ( 'NONE', #33 ) ;
#151 =( CONVERSION_BASED_UNIT ( 'INCH', #197 ) LENGTH_UNIT ( ) NAMED_UNIT ( #111 ) );
#152 = MANIFOLD_SOLID_BREP ( 'Revolve - Cutting Edge', #113 ) ;
#153 = DIRECTION ( 'NONE',  ( -3.498990854706726443E-17, 1.000000000000000000, -0.000000000000000000 ) ) ;
#154 = CARTESIAN_POINT ( 'NONE',  ( 0.000000000000000000, 0.7499999999999998890, 0.000000000000000000 ) ) ;
#155 = SURFACE_STYLE_USAGE ( .BOTH. , #50 ) ;
#156 = FILL_AREA_STYLE_COLOUR ( '', #190 ) ;
#157 = CARTESIAN_POINT ( 'NONE',  ( 0.000000000000000000, 0.000000000000000000, 0.000000000000000000 ) ) ;
#158 = ADVANCED_FACE ( 'NONE', ( #69 ), #160, .F. ) ;
#159 =( CONVERSION_BASED_UNIT ( 'INCH', #9 ) LENGTH_UNIT ( ) NAMED_UNIT ( #135 ) );
#160 = PLANE ( 'NONE',  #247 ) ;
#161 = SURFACE_STYLE_USAGE ( .BOTH. , #104 ) ;
#162 = ADVANCED_FACE ( 'NONE', ( #115 ), #214, .T. ) ;
#163 =( NAMED_UNIT ( * ) SI_UNIT ( $, .STERADIAN. ) SOLID_ANGLE_UNIT ( ) );
#164 = DIRECTION ( 'NONE',  ( -0.000000000000000000, -1.000000000000000000, -0.000000000000000000 ) ) ;
#165 = CARTESIAN_POINT ( 'NONE',  ( 1.530808498934191509E-17, 0.7500000000000001110, 0.1250000000000000000 ) ) ;
#166 = CIRCLE ( 'NONE', #297, 0.1250000000000000555 ) ;
#167 = CIRCLE ( 'NONE', #23, 0.1250000000000000555 ) ;
#168 = VERTEX_POINT ( 'NONE', #165 ) ;
#169 = EDGE_CURVE ( 'NONE', #284, #146, #307, .T. ) ;
#170 = ORIENTED_EDGE ( 'NONE', *, *, #100, .F. ) ;
#171 = DIRECTION ( 'NONE',  ( -0.000000000000000000, -1.000000000000000000, -0.000000000000000000 ) ) ;
#172 = ORIENTED_EDGE ( 'NONE', *, *, #84, .F. ) ;
#173 =( LENGTH_UNIT ( ) NAMED_UNIT ( * ) SI_UNIT ( $, .METRE. ) );
#174 = DIRECTION ( 'NONE',  ( 1.000000000000000000, 3.498990854706726443E-17, 0.000000000000000000 ) ) ;
#175 = ORIENTED_EDGE ( 'NONE', *, *, #236, .F. ) ;
#176 = AXIS2_PLACEMENT_3D ( 'NONE', #49, #298, #245 ) ;
#177 =( LENGTH_UNIT ( ) NAMED_UNIT ( * ) SI_UNIT ( $, .METRE. ) );
#178 = AXIS2_PLACEMENT_3D ( 'NONE', #117, #171, #42 ) ;
#179 = EDGE_CURVE ( 'NONE', #150, #308, #37, .T. ) ;
#180 = CYLINDRICAL_SURFACE ( 'NONE', #55, 0.1250000000000000000 ) ;
#181 = ORIENTED_EDGE ( 'NONE', *, *, #179, .T. ) ;
#182 = DIRECTION ( 'NONE',  ( -0.000000000000000000, -1.000000000000000000, -0.000000000000000000 ) ) ;
#183 = DIMENSIONAL_EXPONENTS ( 1.000000000000000000, 0.000000000000000000, 0.000000000000000000, 0.000000000000000000, 0.000000000000000000, 0.000000000000000000, 0.000000000000000000 ) ;
#184 = APPLICATION_PROTOCOL_DEFINITION ( 'draft international standard', 'automotive_design', 1998, #291 ) ;
#185 = STYLED_ITEM ( 'NONE', ( #211 ), #147 ) ;
#186 = MECHANICAL_DESIGN_GEOMETRIC_PRESENTATION_REPRESENTATION (  '', ( #68 ), #251 ) ;
#187 = UNCERTAINTY_MEASURE_WITH_UNIT (LENGTH_MEASURE( 1.000000000000000082E-05 ), #243, 'distance_accuracy_value', 'NONE');
#188 = SURFACE_SIDE_STYLE ('',( #134 ) ) ;
#189 =( LENGTH_UNIT ( ) NAMED_UNIT ( * ) SI_UNIT ( $, .METRE. ) );
#190 = COLOUR_RGB ( '',1.000000000000000000, 0.000000000000000000, 0.000000000000000000 ) ;
#191 = MECHANICAL_DESIGN_GEOMETRIC_PRESENTATION_REPRESENTATION (  '', ( #15 ), #75 ) ;
#192 = PRODUCT_CONTEXT ( 'NONE', #291, 'mechanical' ) ;
#193 = PRODUCT_DEFINITION_CONTEXT ( 'detailed design', #79, 'design' ) ;
#194 = DIRECTION ( 'NONE',  ( -3.498990854706726443E-17, 1.000000000000000000, 0.000000000000000000 ) ) ;
#195 = FILL_AREA_STYLE ('',( #289 ) ) ;
#196 = CARTESIAN_POINT ( 'NONE',  ( 0.1250000000000000000, 2.500000000000000000, 0.000000000000000000 ) ) ;
#197 = LENGTH_MEASURE_WITH_UNIT ( LENGTH_MEASURE( 0.02539999999999999897 ), #177 );
#198 = EDGE_CURVE ( 'NONE', #168, #116, #71, .T. ) ;
#199 = STYLED_ITEM ( 'NONE', ( #32 ), #277 ) ;
#200 = ORIENTED_EDGE ( 'NONE', *, *, #29, .F. ) ;
#201 = PRODUCT ( '82264W', '82264W', '', ( #192 ) ) ;
#202 = EDGE_LOOP ( 'NONE', ( #94, #25 ) ) ;
#203 = DIRECTION ( 'NONE',  ( 0.000000000000000000, 0.000000000000000000, -1.000000000000000000 ) ) ;
#204 =( GEOMETRIC_REPRESENTATION_CONTEXT ( 3 ) GLOBAL_UNCERTAINTY_ASSIGNED_CONTEXT ( ( #228 ) ) GLOBAL_UNIT_ASSIGNED_CONTEXT ( ( #221, #99, #299 ) ) REPRESENTATION_CONTEXT ( 'NONE', 'WORKASPACE' ) );
#205 = ORIENTED_EDGE ( 'NONE', *, *, #288, .T. ) ;
#206 = FILL_AREA_STYLE_COLOUR ( '', #292 ) ;
#207 = AXIS2_PLACEMENT_3D ( 'NONE', #250, #52, #77 ) ;
#208 = MECHANICAL_DESIGN_GEOMETRIC_PRESENTATION_REPRESENTATION (  '', ( #96 ), #80 ) ;
#209 = DIRECTION ( 'NONE',  ( 0.000000000000000000, -1.000000000000000000, -0.000000000000000000 ) ) ;
#210 = CARTESIAN_POINT ( 'NONE',  ( 0.000000000000000000, 0.000000000000000000, 0.000000000000000000 ) ) ;
#211 = PRESENTATION_STYLE_ASSIGNMENT (( #213 ) ) ;
#212 = CARTESIAN_POINT ( 'NONE',  ( -6.123233995736772199E-17, 2.500000000000000000, 0.000000000000000000 ) ) ;
#213 = SURFACE_STYLE_USAGE ( .BOTH. , #188 ) ;
#214 = CYLINDRICAL_SURFACE ( 'NONE', #223, 0.1250000000000000278 ) ;
#215 =( GEOMETRIC_REPRESENTATION_CONTEXT ( 3 ) GLOBAL_UNCERTAINTY_ASSIGNED_CONTEXT ( ( #258 ) ) GLOBAL_UNIT_ASSIGNED_CONTEXT ( ( #159, #107, #278 ) ) REPRESENTATION_CONTEXT ( 'NONE', 'WORKASPACE' ) );
#216 = EDGE_LOOP ( 'NONE', ( #118, #43, #264, #200 ) ) ;
#217 =( NAMED_UNIT ( * ) SI_UNIT ( $, .STERADIAN. ) SOLID_ANGLE_UNIT ( ) );
#218 = CIRCLE ( 'NONE', #178, 0.1250000000000000000 ) ;
#219 = FILL_AREA_STYLE ('',( #156 ) ) ;
#220 = EDGE_CURVE ( 'NONE', #168, #284, #218, .T. ) ;
#221 =( CONVERSION_BASED_UNIT ( 'INCH', #5 ) LENGTH_UNIT ( ) NAMED_UNIT ( #224 ) );
#222 = CARTESIAN_POINT ( 'NONE',  ( -6.123233995736772199E-17, 2.500000000000000000, 0.000000000000000000 ) ) ;
#223 = AXIS2_PLACEMENT_3D ( 'NONE', #46, #66, #39 ) ;
#224 = DIMENSIONAL_EXPONENTS ( 1.000000000000000000, 0.000000000000000000, 0.000000000000000000, 0.000000000000000000, 0.000000000000000000, 0.000000000000000000, 0.000000000000000000 ) ;
#225 = CARTESIAN_POINT ( 'NONE',  ( 0.000000000000000000, 0.000000000000000000, 0.000000000000000000 ) ) ;
#226 = DIMENSIONAL_EXPONENTS ( 1.000000000000000000, 0.000000000000000000, 0.000000000000000000, 0.000000000000000000, 0.000000000000000000, 0.000000000000000000, 0.000000000000000000 ) ;
#227 = DIRECTION ( 'NONE',  ( 0.000000000000000000, 0.000000000000000000, -1.000000000000000000 ) ) ;
#228 = UNCERTAINTY_MEASURE_WITH_UNIT (LENGTH_MEASURE( 1.000000000000000082E-05 ), #221, 'distance_accuracy_value', 'NONE');
#229 =( CONVERSION_BASED_UNIT ( 'INCH', #62 ) LENGTH_UNIT ( ) NAMED_UNIT ( #183 ) );
#230 = DIRECTION ( 'NONE',  ( -3.498990854706726443E-17, 1.000000000000000000, -0.000000000000000000 ) ) ;
#231 = ADVANCED_FACE ( 'NONE', ( #24 ), #98, .F. ) ;
#232 = LENGTH_MEASURE_WITH_UNIT ( LENGTH_MEASURE( 0.02539999999999999897 ), #249 );
#233 = PRESENTATION_LAYER_ASSIGNMENT (  '', '', ( #36 ) ) ;
#234 = PRESENTATION_LAYER_ASSIGNMENT (  '', '', ( #68 ) ) ;
#235 = DIRECTION ( 'NONE',  ( 0.000000000000000000, 0.000000000000000000, 1.000000000000000000 ) ) ;
#236 = EDGE_CURVE ( 'NONE', #150, #290, #149, .T. ) ;
#237 = CARTESIAN_POINT ( 'NONE',  ( 1.530808498934191509E-17, 0.000000000000000000, 0.1250000000000000000 ) ) ;
#238 =( NAMED_UNIT ( * ) SI_UNIT ( $, .STERADIAN. ) SOLID_ANGLE_UNIT ( ) );
#239 = EDGE_LOOP ( 'NONE', ( #21, #242 ) ) ;
#240 = PLANE ( 'NONE',  #241 ) ;
#241 = AXIS2_PLACEMENT_3D ( 'NONE', #97, #73, #287 ) ;
#242 = ORIENTED_EDGE ( 'NONE', *, *, #220, .F. ) ;
#243 =( CONVERSION_BASED_UNIT ( 'INCH', #268 ) LENGTH_UNIT ( ) NAMED_UNIT ( #226 ) );
#244 = ORIENTED_EDGE ( 'NONE', *, *, #29, .T. ) ;
#245 = DIRECTION ( 'NONE',  ( 0.000000000000000000, 0.000000000000000000, -1.000000000000000000 ) ) ;
#246 = CARTESIAN_POINT ( 'NONE',  ( 1.530808498934191509E-17, 0.000000000000000000, 0.1250000000000000000 ) ) ;
#247 = AXIS2_PLACEMENT_3D ( 'NONE', #105, #194, #17 ) ;
#248 = PRODUCT_DEFINITION_SHAPE ( 'NONE', 'NONE',  #306 ) ;
#249 =( LENGTH_UNIT ( ) NAMED_UNIT ( * ) SI_UNIT ( $, .METRE. ) );
#250 = CARTESIAN_POINT ( 'NONE',  ( 0.000000000000000000, 0.000000000000000000, 0.000000000000000000 ) ) ;
#251 =( GEOMETRIC_REPRESENTATION_CONTEXT ( 3 ) GLOBAL_UNCERTAINTY_ASSIGNED_CONTEXT ( ( #139 ) ) GLOBAL_UNIT_ASSIGNED_CONTEXT ( ( #151, #144, #217 ) ) REPRESENTATION_CONTEXT ( 'NONE', 'WORKASPACE' ) );
#252 = DIMENSIONAL_EXPONENTS ( 1.000000000000000000, 0.000000000000000000, 0.000000000000000000, 0.000000000000000000, 0.000000000000000000, 0.000000000000000000, 0.000000000000000000 ) ;
#253 = FILL_AREA_STYLE_COLOUR ( '', #6 ) ;
#254 = PRESENTATION_STYLE_ASSIGNMENT (( #92 ) ) ;
#255 = AXIS2_PLACEMENT_3D ( 'NONE', #196, #74, #174 ) ;
#256 = CARTESIAN_POINT ( 'NONE',  ( -0.1250000000000001388, 2.500000000000000000, 0.000000000000000000 ) ) ;
#257 =( CONVERSION_BASED_UNIT ( 'INCH', #232 ) LENGTH_UNIT ( ) NAMED_UNIT ( #281 ) );
#258 = UNCERTAINTY_MEASURE_WITH_UNIT (LENGTH_MEASURE( 1.000000000000000082E-05 ), #159, 'distance_accuracy_value', 'NONE');
#259 = FILL_AREA_STYLE ('',( #253 ) ) ;
#260 = UNCERTAINTY_MEASURE_WITH_UNIT (LENGTH_MEASURE( 1.000000000000000082E-05 ), #257, 'distance_accuracy_value', 'NONE');
#261 = PRODUCT_DEFINITION_FORMATION_WITH_SPECIFIED_SOURCE ( 'ANY', '', #201, .NOT_KNOWN. ) ;
#262 = DIRECTION ( 'NONE',  ( -0.000000000000000000, -1.000000000000000000, -0.000000000000000000 ) ) ;
#263 =( NAMED_UNIT ( * ) PLANE_ANGLE_UNIT ( ) SI_UNIT ( $, .RADIAN. ) );
#264 = ORIENTED_EDGE ( 'NONE', *, *, #236, .T. ) ;
#265 = EDGE_LOOP ( 'NONE', ( #67, #172 ) ) ;
#266 = CARTESIAN_POINT ( 'NONE',  ( 0.1249999999999999584, 2.500000000000000000, 1.530808498934191817E-17 ) ) ;
#267 = ORIENTED_EDGE ( 'NONE', *, *, #198, .T. ) ;
#268 = LENGTH_MEASURE_WITH_UNIT ( LENGTH_MEASURE( 0.02539999999999999897 ), #173 );
#269 = EDGE_LOOP ( 'NONE', ( #181, #143, #30, #175 ) ) ;
#270 = DIRECTION ( 'NONE',  ( -1.000000000000000000, 0.000000000000000000, 0.000000000000000000 ) ) ;
#271 = SURFACE_STYLE_FILL_AREA ( #219 ) ;
#272 = AXIS2_PLACEMENT_3D ( 'NONE', #64, #230, #59 ) ;
#273 = DIRECTION ( 'NONE',  ( -1.000000000000000000, 0.000000000000000000, 0.000000000000000000 ) ) ;
#274 = VECTOR ( 'NONE', #309, 39.37007874015748143 ) ;
#275 = ORIENTED_EDGE ( 'NONE', *, *, #89, .F. ) ;
#276 = AXIS2_PLACEMENT_3D ( 'NONE', #35, #235, #65 ) ;
#277 = ADVANCED_FACE ( 'NONE', ( #127 ), #101, .T. ) ;
#278 =( NAMED_UNIT ( * ) SI_UNIT ( $, .STERADIAN. ) SOLID_ANGLE_UNIT ( ) );
#279 = CARTESIAN_POINT ( 'NONE',  ( 0.000000000000000000, 0.7500000000000001110, -0.1250000000000000000 ) ) ;
#280 =( LENGTH_UNIT ( ) NAMED_UNIT ( * ) SI_UNIT ( $, .METRE. ) );
#281 = DIMENSIONAL_EXPONENTS ( 1.000000000000000000, 0.000000000000000000, 0.000000000000000000, 0.000000000000000000, 0.000000000000000000, 0.000000000000000000, 0.000000000000000000 ) ;
#282 = COLOUR_RGB ( '',1.000000000000000000, 0.000000000000000000, 0.000000000000000000 ) ;
#283 =( LENGTH_UNIT ( ) NAMED_UNIT ( * ) SI_UNIT ( $, .METRE. ) );
#284 = VERTEX_POINT ( 'NONE', #279 ) ;
#285 = CIRCLE ( 'NONE', #85, 0.1250000000000000000 ) ;
#286 =( NAMED_UNIT ( * ) SI_UNIT ( $, .STERADIAN. ) SOLID_ANGLE_UNIT ( ) );
#287 = DIRECTION ( 'NONE',  ( 0.000000000000000000, -0.000000000000000000, 1.000000000000000000 ) ) ;
#288 = EDGE_CURVE ( 'NONE', #284, #168, #93, .T. ) ;
#289 = FILL_AREA_STYLE_COLOUR ( '', #120 ) ;
#290 = VERTEX_POINT ( 'NONE', #256 ) ;
#291 = APPLICATION_CONTEXT ( 'automotive_design' ) ;
#292 = COLOUR_RGB ( '',1.000000000000000000, 0.000000000000000000, 0.000000000000000000 ) ;
#293 = PRESENTATION_LAYER_ASSIGNMENT (  '', '', ( #199 ) ) ;
#294 = FACE_OUTER_BOUND ( 'NONE', #82, .T. ) ;
#295 = EDGE_CURVE ( 'NONE', #290, #7, #167, .T. ) ;
#296 = PRESENTATION_STYLE_ASSIGNMENT (( #78 ) ) ;
#297 = AXIS2_PLACEMENT_3D ( 'NONE', #222, #130, #273 ) ;
#298 = DIRECTION ( 'NONE',  ( -0.000000000000000000, -1.000000000000000000, -0.000000000000000000 ) ) ;
#299 =( NAMED_UNIT ( * ) SI_UNIT ( $, .STERADIAN. ) SOLID_ANGLE_UNIT ( ) );
#300 = FILL_AREA_STYLE ('',( #206 ) ) ;
#301 = CYLINDRICAL_SURFACE ( 'NONE', #272, 0.1250000000000000278 ) ;
#302 = CIRCLE ( 'NONE', #176, 0.1250000000000000000 ) ;
#303 = CARTESIAN_POINT ( 'NONE',  ( 0.000000000000000000, 0.7500000000000001110, 0.000000000000000000 ) ) ;
#304 = EDGE_CURVE ( 'NONE', #308, #7, #48, .T. ) ;
#305 = ADVANCED_FACE ( 'NONE', ( #121 ), #240, .T. ) ;
#306 = PRODUCT_DEFINITION ( 'UNKNOWN', '', #261, #193 ) ;
#307 = LINE ( 'NONE', #145, #109 ) ;
#308 = VERTEX_POINT ( 'NONE', #70 ) ;
#309 = DIRECTION ( 'NONE',  ( -0.000000000000000000, -1.000000000000000000, -0.000000000000000000 ) ) ;
ENDSEC;
END-ISO-10303-21;
