ISO-10303-21;
HEADER;
FILE_DESCRIPTION (( 'STEP AP214' ),
    '1' );
FILE_NAME ('00647.STEP',
    '2023-06-22T14:13:13',
    ( '' ),
    ( '' ),
    'SwSTEP 2.0',
    'SolidWorks 2023',
    '' );
FILE_SCHEMA (( 'AUTOMOTIVE_DESIGN' ));
ENDSEC;

DATA;
#1 = ORIENTED_EDGE ( 'NONE', *, *, #197, .T. ) ;
#2 = PLANE ( 'NONE',  #29 ) ;
#3 = CIRCLE ( 'NONE', #49, 0.3749999999999997780 ) ;
#4 = LENGTH_MEASURE_WITH_UNIT ( LENGTH_MEASURE( 0.02539999999999999897 ), #246 );
#5 = FACE_OUTER_BOUND ( 'NONE', #120, .T. ) ;
#6 = PRODUCT_RELATED_PRODUCT_CATEGORY ( 'part', '', ( #26 ) ) ;
#7 = PRESENTATION_STYLE_ASSIGNMENT (( #101 ) ) ;
#8 = LINE ( 'NONE', #201, #180 ) ;
#9 = DIRECTION ( 'NONE',  ( 8.164311994315692567E-17, 1.000000000000000000, -0.000000000000000000 ) ) ;
#10 =( NAMED_UNIT ( * ) PLANE_ANGLE_UNIT ( ) SI_UNIT ( $, .RADIAN. ) );
#11 =( GEOMETRIC_REPRESENTATION_CONTEXT ( 3 ) GLOBAL_UNCERTAINTY_ASSIGNED_CONTEXT ( ( #212 ) ) GLOBAL_UNIT_ASSIGNED_CONTEXT ( ( #133, #61, #160 ) ) REPRESENTATION_CONTEXT ( 'NONE', 'WORKASPACE' ) );
#12 = MECHANICAL_DESIGN_GEOMETRIC_PRESENTATION_REPRESENTATION (  '', ( #191 ), #289 ) ;
#13 = EDGE_CURVE ( 'NONE', #226, #195, #8, .T. ) ;
#14 = SURFACE_STYLE_USAGE ( .BOTH. , #142 ) ;
#15 = SURFACE_STYLE_USAGE ( .BOTH. , #232 ) ;
#16 = DIRECTION ( 'NONE',  ( 0.000000000000000000, 0.000000000000000000, -1.000000000000000000 ) ) ;
#17 =( LENGTH_UNIT ( ) NAMED_UNIT ( * ) SI_UNIT ( $, .METRE. ) );
#18 = CYLINDRICAL_SURFACE ( 'NONE', #19, 0.3750000000000000555 ) ;
#19 = AXIS2_PLACEMENT_3D ( 'NONE', #255, #108, #208 ) ;
#20 = PRODUCT_DEFINITION_CONTEXT ( 'detailed design', #156, 'design' ) ;
#21 = AXIS2_PLACEMENT_3D ( 'NONE', #287, #50, #218 ) ;
#22 =( NAMED_UNIT ( * ) SI_UNIT ( $, .STERADIAN. ) SOLID_ANGLE_UNIT ( ) );
#23 = CARTESIAN_POINT ( 'NONE',  ( 2.449293598294707400E-16, 4.000000000000000000, 0.000000000000000000 ) ) ;
#24 = LENGTH_MEASURE_WITH_UNIT ( LENGTH_MEASURE( 0.02539999999999999897 ), #236 );
#25 = ORIENTED_EDGE ( 'NONE', *, *, #276, .T. ) ;
#26 = PRODUCT ( '00647', '00647', '', ( #65 ) ) ;
#27 = PLANE ( 'NONE',  #187 ) ;
#28 = STYLED_ITEM ( 'NONE', ( #231 ), #146 ) ;
#29 = AXIS2_PLACEMENT_3D ( 'NONE', #96, #126, #31 ) ;
#30 = EDGE_LOOP ( 'NONE', ( #103, #147, #56, #222 ) ) ;
#31 = DIRECTION ( 'NONE',  ( -1.000000000000000000, 8.164311994315692567E-17, 0.000000000000000000 ) ) ;
#32 = ADVANCED_FACE ( 'NONE', ( #274 ), #272, .T. ) ;
#33 =( CONVERSION_BASED_UNIT ( 'INCH', #4 ) LENGTH_UNIT ( ) NAMED_UNIT ( #199 ) );
#34 = FILL_AREA_STYLE_COLOUR ( '', #43 ) ;
#35 = STYLED_ITEM ( 'NONE', ( #7 ), #304 ) ;
#36 = ORIENTED_EDGE ( 'NONE', *, *, #38, .F. ) ;
#37 =( CONVERSION_BASED_UNIT ( 'INCH', #84 ) LENGTH_UNIT ( ) NAMED_UNIT ( #104 ) );
#38 = EDGE_CURVE ( 'NONE', #226, #171, #283, .T. ) ;
#39 = SURFACE_STYLE_FILL_AREA ( #83 ) ;
#40 = AXIS2_PLACEMENT_3D ( 'NONE', #291, #296, #194 ) ;
#41 = SURFACE_SIDE_STYLE ('',( #39 ) ) ;
#42 =( NAMED_UNIT ( * ) SI_UNIT ( $, .STERADIAN. ) SOLID_ANGLE_UNIT ( ) );
#43 = COLOUR_RGB ( '',1.000000000000000000, 0.000000000000000000, 0.000000000000000000 ) ;
#44 = DIRECTION ( 'NONE',  ( 8.164311994315692567E-17, 1.000000000000000000, -0.000000000000000000 ) ) ;
#45 = SURFACE_SIDE_STYLE ('',( #188 ) ) ;
#46 = UNCERTAINTY_MEASURE_WITH_UNIT (LENGTH_MEASURE( 1.000000000000000082E-05 ), #33, 'distance_accuracy_value', 'NONE');
#47 = LENGTH_MEASURE_WITH_UNIT ( LENGTH_MEASURE( 0.02539999999999999897 ), #285 );
#48 = DIMENSIONAL_EXPONENTS ( 1.000000000000000000, 0.000000000000000000, 0.000000000000000000, 0.000000000000000000, 0.000000000000000000, 0.000000000000000000, 0.000000000000000000 ) ;
#49 = AXIS2_PLACEMENT_3D ( 'NONE', #161, #303, #278 ) ;
#50 = DIRECTION ( 'NONE',  ( -0.000000000000000000, -1.000000000000000000, -0.000000000000000000 ) ) ;
#51 = FILL_AREA_STYLE_COLOUR ( '', #95 ) ;
#52 =( NAMED_UNIT ( * ) PLANE_ANGLE_UNIT ( ) SI_UNIT ( $, .RADIAN. ) );
#53 = DIRECTION ( 'NONE',  ( 0.000000000000000000, 0.000000000000000000, -1.000000000000000000 ) ) ;
#54 = SURFACE_SIDE_STYLE ('',( #267 ) ) ;
#55 = MECHANICAL_DESIGN_GEOMETRIC_PRESENTATION_REPRESENTATION (  '', ( #28 ), #11 ) ;
#56 = ORIENTED_EDGE ( 'NONE', *, *, #224, .F. ) ;
#57 = LINE ( 'NONE', #145, #138 ) ;
#58 = DIRECTION ( 'NONE',  ( 0.000000000000000000, 1.000000000000000000, 0.000000000000000000 ) ) ;
#59 =( GEOMETRIC_REPRESENTATION_CONTEXT ( 3 ) GLOBAL_UNCERTAINTY_ASSIGNED_CONTEXT ( ( #305 ) ) GLOBAL_UNIT_ASSIGNED_CONTEXT ( ( #244, #10, #105 ) ) REPRESENTATION_CONTEXT ( 'NONE', 'WORKASPACE' ) );
#60 = PRESENTATION_STYLE_ASSIGNMENT (( #14 ) ) ;
#61 =( NAMED_UNIT ( * ) PLANE_ANGLE_UNIT ( ) SI_UNIT ( $, .RADIAN. ) );
#62 = CARTESIAN_POINT ( 'NONE',  ( 0.000000000000000000, 0.000000000000000000, 0.000000000000000000 ) ) ;
#63 = MECHANICAL_DESIGN_GEOMETRIC_PRESENTATION_REPRESENTATION (  '', ( #88 ), #59 ) ;
#64 =( GEOMETRIC_REPRESENTATION_CONTEXT ( 3 ) GLOBAL_UNCERTAINTY_ASSIGNED_CONTEXT ( ( #46 ) ) GLOBAL_UNIT_ASSIGNED_CONTEXT ( ( #33, #228, #200 ) ) REPRESENTATION_CONTEXT ( 'NONE', 'WORKASPACE' ) );
#65 = PRODUCT_CONTEXT ( 'NONE', #76, 'mechanical' ) ;
#66 = DIRECTION ( 'NONE',  ( -0.000000000000000000, -1.000000000000000000, -0.000000000000000000 ) ) ;
#67 = ADVANCED_BREP_SHAPE_REPRESENTATION ( '00647', ( #209, #304, #248 ), #64 ) ;
#68 = CARTESIAN_POINT ( 'NONE',  ( 0.000000000000000000, 1.000000000000000222, -0.3750000000000000555 ) ) ;
#69 = AXIS2_PLACEMENT_3D ( 'NONE', #62, #111, #16 ) ;
#70 = AXIS2_PLACEMENT_3D ( 'NONE', #23, #139, #258 ) ;
#71 = FILL_AREA_STYLE_COLOUR ( '', #112 ) ;
#72 = FACE_OUTER_BOUND ( 'NONE', #30, .T. ) ;
#73 = DIRECTION ( 'NONE',  ( 0.000000000000000000, 0.000000000000000000, -1.000000000000000000 ) ) ;
#74 = DIRECTION ( 'NONE',  ( 8.164311994315692567E-17, 1.000000000000000000, -0.000000000000000000 ) ) ;
#75 = FILL_AREA_STYLE_COLOUR ( '', #256 ) ;
#76 = APPLICATION_CONTEXT ( 'automotive_design' ) ;
#77 = FACE_OUTER_BOUND ( 'NONE', #81, .T. ) ;
#78 = COLOUR_RGB ( '',0.7921568627450980005, 0.8196078431372548767, 0.9333333333333333481 ) ;
#79 = SURFACE_STYLE_FILL_AREA ( #100 ) ;
#80 = CARTESIAN_POINT ( 'NONE',  ( 4.592425496802575451E-17, 1.000000000000000222, 0.3750000000000000555 ) ) ;
#81 = EDGE_LOOP ( 'NONE', ( #92, #118 ) ) ;
#82 = SHAPE_DEFINITION_REPRESENTATION ( #264, #67 ) ;
#83 = FILL_AREA_STYLE ('',( #131 ) ) ;
#84 = LENGTH_MEASURE_WITH_UNIT ( LENGTH_MEASURE( 0.02539999999999999897 ), #106 );
#85 = MECHANICAL_DESIGN_GEOMETRIC_PRESENTATION_REPRESENTATION (  '', ( #241 ), #90 ) ;
#86 = DIRECTION ( 'NONE',  ( -0.000000000000000000, -1.000000000000000000, -0.000000000000000000 ) ) ;
#87 = FACE_OUTER_BOUND ( 'NONE', #162, .T. ) ;
#88 = STYLED_ITEM ( 'NONE', ( #60 ), #115 ) ;
#89 = UNCERTAINTY_MEASURE_WITH_UNIT (LENGTH_MEASURE( 1.000000000000000082E-05 ), #217, 'distance_accuracy_value', 'NONE');
#90 =( GEOMETRIC_REPRESENTATION_CONTEXT ( 3 ) GLOBAL_UNCERTAINTY_ASSIGNED_CONTEXT ( ( #238 ) ) GLOBAL_UNIT_ASSIGNED_CONTEXT ( ( #216, #113, #235 ) ) REPRESENTATION_CONTEXT ( 'NONE', 'WORKASPACE' ) );
#91 = CARTESIAN_POINT ( 'NONE',  ( 2.449293598294707400E-16, 4.000000000000000000, 0.000000000000000000 ) ) ;
#92 = ORIENTED_EDGE ( 'NONE', *, *, #224, .T. ) ;
#93 = FILL_AREA_STYLE ('',( #71 ) ) ;
#94 = ORIENTED_EDGE ( 'NONE', *, *, #13, .F. ) ;
#95 = COLOUR_RGB ( '',0.7921568627450980005, 0.8196078431372548767, 0.9333333333333333481 ) ;
#96 = CARTESIAN_POINT ( 'NONE',  ( 1.249799818884882708E-33, 1.000000000000000222, 0.000000000000000000 ) ) ;
#97 = CARTESIAN_POINT ( 'NONE',  ( 2.449293598294707400E-16, 4.000000000000000000, 0.000000000000000000 ) ) ;
#98 = DIRECTION ( 'NONE',  ( -1.000000000000000000, 0.000000000000000000, 0.000000000000000000 ) ) ;
#99 =( CONVERSION_BASED_UNIT ( 'INCH', #265 ) LENGTH_UNIT ( ) NAMED_UNIT ( #150 ) );
#100 = FILL_AREA_STYLE ('',( #34 ) ) ;
#101 = SURFACE_STYLE_USAGE ( .BOTH. , #54 ) ;
#102 = AXIS2_PLACEMENT_3D ( 'NONE', #225, #9, #294 ) ;
#103 = ORIENTED_EDGE ( 'NONE', *, *, #129, .T. ) ;
#104 = DIMENSIONAL_EXPONENTS ( 1.000000000000000000, 0.000000000000000000, 0.000000000000000000, 0.000000000000000000, 0.000000000000000000, 0.000000000000000000, 0.000000000000000000 ) ;
#105 =( NAMED_UNIT ( * ) SI_UNIT ( $, .STERADIAN. ) SOLID_ANGLE_UNIT ( ) );
#106 =( LENGTH_UNIT ( ) NAMED_UNIT ( * ) SI_UNIT ( $, .METRE. ) );
#107 = AXIS2_PLACEMENT_3D ( 'NONE', #295, #58, #293 ) ;
#108 = DIRECTION ( 'NONE',  ( -0.000000000000000000, -1.000000000000000000, -0.000000000000000000 ) ) ;
#109 = PRESENTATION_LAYER_ASSIGNMENT (  '', '', ( #241 ) ) ;
#110 = DIRECTION ( 'NONE',  ( 8.164311994315692567E-17, 1.000000000000000000, -0.000000000000000000 ) ) ;
#111 = DIRECTION ( 'NONE',  ( 0.000000000000000000, -1.000000000000000000, -0.000000000000000000 ) ) ;
#112 = COLOUR_RGB ( '',1.000000000000000000, 0.000000000000000000, 0.000000000000000000 ) ;
#113 =( NAMED_UNIT ( * ) PLANE_ANGLE_UNIT ( ) SI_UNIT ( $, .RADIAN. ) );
#114 = LINE ( 'NONE', #167, #284 ) ;
#115 = ADVANCED_FACE ( 'NONE', ( #5 ), #249, .T. ) ;
#116 = PRODUCT_DEFINITION_FORMATION_WITH_SPECIFIED_SOURCE ( 'ANY', '', #26, .NOT_KNOWN. ) ;
#117 = CYLINDRICAL_SURFACE ( 'NONE', #21, 0.3750000000000000555 ) ;
#118 = ORIENTED_EDGE ( 'NONE', *, *, #184, .T. ) ;
#119 = ADVANCED_FACE ( 'NONE', ( #77 ), #174, .T. ) ;
#120 = EDGE_LOOP ( 'NONE', ( #219, #36 ) ) ;
#121 = ORIENTED_EDGE ( 'NONE', *, *, #276, .F. ) ;
#122 = CIRCLE ( 'NONE', #270, 0.3750000000000000555 ) ;
#123 = VERTEX_POINT ( 'NONE', #254 ) ;
#124 = ORIENTED_EDGE ( 'NONE', *, *, #168, .F. ) ;
#125 = EDGE_CURVE ( 'NONE', #242, #308, #302, .T. ) ;
#126 = DIRECTION ( 'NONE',  ( 8.164311994315692567E-17, 1.000000000000000000, -0.000000000000000000 ) ) ;
#127 = ORIENTED_EDGE ( 'NONE', *, *, #184, .F. ) ;
#128 = ORIENTED_EDGE ( 'NONE', *, *, #159, .T. ) ;
#129 = EDGE_CURVE ( 'NONE', #171, #226, #166, .T. ) ;
#130 = ORIENTED_EDGE ( 'NONE', *, *, #125, .F. ) ;
#131 = FILL_AREA_STYLE_COLOUR ( '', #134 ) ;
#132 =( GEOMETRIC_REPRESENTATION_CONTEXT ( 3 ) GLOBAL_UNCERTAINTY_ASSIGNED_CONTEXT ( ( #286 ) ) GLOBAL_UNIT_ASSIGNED_CONTEXT ( ( #99, #52, #300 ) ) REPRESENTATION_CONTEXT ( 'NONE', 'WORKASPACE' ) );
#133 =( CONVERSION_BASED_UNIT ( 'INCH', #250 ) LENGTH_UNIT ( ) NAMED_UNIT ( #48 ) );
#134 = COLOUR_RGB ( '',1.000000000000000000, 0.000000000000000000, 0.000000000000000000 ) ;
#135 = PRESENTATION_LAYER_ASSIGNMENT (  '', '', ( #35 ) ) ;
#136 = ORIENTED_EDGE ( 'NONE', *, *, #125, .T. ) ;
#137 = PRESENTATION_STYLE_ASSIGNMENT (( #190 ) ) ;
#138 = VECTOR ( 'NONE', #74, 39.37007874015748143 ) ;
#139 = DIRECTION ( 'NONE',  ( 8.164311994315692567E-17, 1.000000000000000000, -0.000000000000000000 ) ) ;
#140 = ORIENTED_EDGE ( 'NONE', *, *, #164, .T. ) ;
#141 = ORIENTED_EDGE ( 'NONE', *, *, #168, .T. ) ;
#142 = SURFACE_SIDE_STYLE ('',( #79 ) ) ;
#143 = PRESENTATION_LAYER_ASSIGNMENT (  '', '', ( #88 ) ) ;
#144 = AXIS2_PLACEMENT_3D ( 'NONE', #91, #44, #98 ) ;
#145 = CARTESIAN_POINT ( 'NONE',  ( -0.3749999999999996114, 4.000000000000000000, 0.000000000000000000 ) ) ;
#146 = ADVANCED_FACE ( 'NONE', ( #280 ), #18, .T. ) ;
#147 = ORIENTED_EDGE ( 'NONE', *, *, #13, .T. ) ;
#148 = DIRECTION ( 'NONE',  ( -8.164311994315692567E-17, -1.000000000000000000, 0.000000000000000000 ) ) ;
#149 = LENGTH_MEASURE_WITH_UNIT ( LENGTH_MEASURE( 0.02539999999999999897 ), #229 );
#150 = DIMENSIONAL_EXPONENTS ( 1.000000000000000000, 0.000000000000000000, 0.000000000000000000, 0.000000000000000000, 0.000000000000000000, 0.000000000000000000, 0.000000000000000000 ) ;
#151 = DIRECTION ( 'NONE',  ( 8.164311994315692567E-17, 1.000000000000000000, -0.000000000000000000 ) ) ;
#152 = CIRCLE ( 'NONE', #40, 0.3750000000000000555 ) ;
#153 = VERTEX_POINT ( 'NONE', #203 ) ;
#154 = SURFACE_STYLE_FILL_AREA ( #268 ) ;
#155 = CARTESIAN_POINT ( 'NONE',  ( 0.000000000000000000, 1.000000000000000222, 0.000000000000000000 ) ) ;
#156 = APPLICATION_CONTEXT ( 'automotive_design' ) ;
#157 = APPLICATION_PROTOCOL_DEFINITION ( 'draft international standard', 'automotive_design', 1998, #156 ) ;
#158 = AXIS2_PLACEMENT_3D ( 'NONE', #193, #247, #53 ) ;
#159 = EDGE_CURVE ( 'NONE', #171, #234, #230, .T. ) ;
#160 =( NAMED_UNIT ( * ) SI_UNIT ( $, .STERADIAN. ) SOLID_ANGLE_UNIT ( ) );
#161 = CARTESIAN_POINT ( 'NONE',  ( 2.449293598294707400E-16, 4.000000000000000000, 0.000000000000000000 ) ) ;
#162 = EDGE_LOOP ( 'NONE', ( #275, #136, #223, #124 ) ) ;
#163 = SURFACE_STYLE_USAGE ( .BOTH. , #41 ) ;
#164 = EDGE_CURVE ( 'NONE', #153, #123, #3, .T. ) ;
#165 = SURFACE_SIDE_STYLE ('',( #309 ) ) ;
#166 = CIRCLE ( 'NONE', #252, 0.3750000000000000555 ) ;
#167 = CARTESIAN_POINT ( 'NONE',  ( 0.3750000000000001665, 4.000000000000000000, 4.592425496802572986E-17 ) ) ;
#168 = EDGE_CURVE ( 'NONE', #123, #153, #196, .T. ) ;
#169 = PRESENTATION_LAYER_ASSIGNMENT (  '', '', ( #28 ) ) ;
#170 = SURFACE_STYLE_USAGE ( .BOTH. , #45 ) ;
#171 = VERTEX_POINT ( 'NONE', #68 ) ;
#172 = FACE_OUTER_BOUND ( 'NONE', #240, .T. ) ;
#173 = CARTESIAN_POINT ( 'NONE',  ( 0.3750000000000000555, 1.000000000000000222, 4.592425496802573602E-17 ) ) ;
#174 = PLANE ( 'NONE',  #69 ) ;
#175 = CLOSED_SHELL ( 'NONE', ( #32, #261, #221, #239 ) ) ;
#176 = ADVANCED_FACE ( 'NONE', ( #72 ), #117, .T. ) ;
#177 = DIRECTION ( 'NONE',  ( -0.000000000000000000, -1.000000000000000000, -0.000000000000000000 ) ) ;
#178 = DIMENSIONAL_EXPONENTS ( 1.000000000000000000, 0.000000000000000000, 0.000000000000000000, 0.000000000000000000, 0.000000000000000000, 0.000000000000000000, 0.000000000000000000 ) ;
#179 = EDGE_LOOP ( 'NONE', ( #140, #141 ) ) ;
#180 = VECTOR ( 'NONE', #177, 39.37007874015748143 ) ;
#181 =( NAMED_UNIT ( * ) PLANE_ANGLE_UNIT ( ) SI_UNIT ( $, .RADIAN. ) );
#182 = CARTESIAN_POINT ( 'NONE',  ( 0.000000000000000000, 0.000000000000000000, 0.000000000000000000 ) ) ;
#183 = CARTESIAN_POINT ( 'NONE',  ( 0.000000000000000000, 1.000000000000000222, 0.000000000000000000 ) ) ;
#184 = EDGE_CURVE ( 'NONE', #195, #234, #122, .T. ) ;
#185 = CYLINDRICAL_SURFACE ( 'NONE', #144, 0.3749999999999998890 ) ;
#186 = DIRECTION ( 'NONE',  ( -0.000000000000000000, -1.000000000000000000, -0.000000000000000000 ) ) ;
#187 = AXIS2_PLACEMENT_3D ( 'NONE', #243, #148, #299 ) ;
#188 = SURFACE_STYLE_FILL_AREA ( #257 ) ;
#189 = EDGE_LOOP ( 'NONE', ( #94, #237, #128, #127 ) ) ;
#190 = SURFACE_STYLE_USAGE ( .BOTH. , #165 ) ;
#191 = STYLED_ITEM ( 'NONE', ( #263 ), #209 ) ;
#192 = FILL_AREA_STYLE ('',( #51 ) ) ;
#193 = CARTESIAN_POINT ( 'NONE',  ( 0.000000000000000000, 1.000000000000000222, 0.000000000000000000 ) ) ;
#194 = DIRECTION ( 'NONE',  ( 0.000000000000000000, 0.000000000000000000, -1.000000000000000000 ) ) ;
#195 = VERTEX_POINT ( 'NONE', #214 ) ;
#196 = CIRCLE ( 'NONE', #70, 0.3749999999999997780 ) ;
#197 = EDGE_CURVE ( 'NONE', #242, #123, #114, .T. ) ;
#198 = CARTESIAN_POINT ( 'NONE',  ( -0.3750000000000000555, 1.000000000000000222, 0.000000000000000000 ) ) ;
#199 = DIMENSIONAL_EXPONENTS ( 1.000000000000000000, 0.000000000000000000, 0.000000000000000000, 0.000000000000000000, 0.000000000000000000, 0.000000000000000000, 0.000000000000000000 ) ;
#200 =( NAMED_UNIT ( * ) SI_UNIT ( $, .STERADIAN. ) SOLID_ANGLE_UNIT ( ) );
#201 = CARTESIAN_POINT ( 'NONE',  ( 4.592425496802575451E-17, 0.000000000000000000, 0.3750000000000000555 ) ) ;
#202 = APPLICATION_PROTOCOL_DEFINITION ( 'draft international standard', 'automotive_design', 1998, #76 ) ;
#203 = CARTESIAN_POINT ( 'NONE',  ( -0.3749999999999995004, 4.000000000000000000, 0.000000000000000000 ) ) ;
#204 = STYLED_ITEM ( 'NONE', ( #207 ), #119 ) ;
#205 = CARTESIAN_POINT ( 'NONE',  ( 0.000000000000000000, 0.000000000000000000, -0.3750000000000000555 ) ) ;
#206 = DIRECTION ( 'NONE',  ( 1.000000000000000000, 0.000000000000000000, 0.000000000000000000 ) ) ;
#207 = PRESENTATION_STYLE_ASSIGNMENT (( #15 ) ) ;
#208 = DIRECTION ( 'NONE',  ( 0.000000000000000000, 0.000000000000000000, -1.000000000000000000 ) ) ;
#209 = MANIFOLD_SOLID_BREP ( 'Revolve - Cutting Edge', #288 ) ;
#210 = PRODUCT_DEFINITION ( 'UNKNOWN', '', #116, #20 ) ;
#211 = MECHANICAL_DESIGN_GEOMETRIC_PRESENTATION_REPRESENTATION (  '', ( #35 ), #132 ) ;
#212 = UNCERTAINTY_MEASURE_WITH_UNIT (LENGTH_MEASURE( 1.000000000000000082E-05 ), #133, 'distance_accuracy_value', 'NONE');
#213 = CARTESIAN_POINT ( 'NONE',  ( 0.000000000000000000, 0.000000000000000000, 0.000000000000000000 ) ) ;
#214 = CARTESIAN_POINT ( 'NONE',  ( 4.592425496802575451E-17, 0.000000000000000000, 0.3750000000000000555 ) ) ;
#215 = UNCERTAINTY_MEASURE_WITH_UNIT (LENGTH_MEASURE( 1.000000000000000082E-05 ), #37, 'distance_accuracy_value', 'NONE');
#216 =( CONVERSION_BASED_UNIT ( 'INCH', #24 ) LENGTH_UNIT ( ) NAMED_UNIT ( #178 ) );
#217 =( CONVERSION_BASED_UNIT ( 'INCH', #47 ) LENGTH_UNIT ( ) NAMED_UNIT ( #262 ) );
#218 = DIRECTION ( 'NONE',  ( 0.000000000000000000, 0.000000000000000000, -1.000000000000000000 ) ) ;
#219 = ORIENTED_EDGE ( 'NONE', *, *, #129, .F. ) ;
#220 = CARTESIAN_POINT ( 'NONE',  ( 0.000000000000000000, 0.000000000000000000, -0.3750000000000000555 ) ) ;
#221 = ADVANCED_FACE ( 'NONE', ( #87 ), #185, .T. ) ;
#222 = ORIENTED_EDGE ( 'NONE', *, *, #159, .F. ) ;
#223 = ORIENTED_EDGE ( 'NONE', *, *, #245, .T. ) ;
#224 = EDGE_CURVE ( 'NONE', #234, #195, #152, .T. ) ;
#225 = CARTESIAN_POINT ( 'NONE',  ( 0.000000000000000000, 1.000000000000000222, 0.000000000000000000 ) ) ;
#226 = VERTEX_POINT ( 'NONE', #80 ) ;
#227 = PRESENTATION_LAYER_ASSIGNMENT (  '', '', ( #191 ) ) ;
#228 =( NAMED_UNIT ( * ) PLANE_ANGLE_UNIT ( ) SI_UNIT ( $, .RADIAN. ) );
#229 =( LENGTH_UNIT ( ) NAMED_UNIT ( * ) SI_UNIT ( $, .METRE. ) );
#230 = LINE ( 'NONE', #205, #259 ) ;
#231 = PRESENTATION_STYLE_ASSIGNMENT (( #163 ) ) ;
#232 = SURFACE_SIDE_STYLE ('',( #154 ) ) ;
#233 = PRESENTATION_LAYER_ASSIGNMENT (  '', '', ( #204 ) ) ;
#234 = VERTEX_POINT ( 'NONE', #220 ) ;
#235 =( NAMED_UNIT ( * ) SI_UNIT ( $, .STERADIAN. ) SOLID_ANGLE_UNIT ( ) );
#236 =( LENGTH_UNIT ( ) NAMED_UNIT ( * ) SI_UNIT ( $, .METRE. ) );
#237 = ORIENTED_EDGE ( 'NONE', *, *, #38, .T. ) ;
#238 = UNCERTAINTY_MEASURE_WITH_UNIT (LENGTH_MEASURE( 1.000000000000000082E-05 ), #216, 'distance_accuracy_value', 'NONE');
#239 = ADVANCED_FACE ( 'NONE', ( #271 ), #27, .F. ) ;
#240 = EDGE_LOOP ( 'NONE', ( #121, #130 ) ) ;
#241 = STYLED_ITEM ( 'NONE', ( #137 ), #176 ) ;
#242 = VERTEX_POINT ( 'NONE', #173 ) ;
#243 = CARTESIAN_POINT ( 'NONE',  ( 0.3750000000000000555, 4.000000000000000000, 0.000000000000000000 ) ) ;
#244 =( CONVERSION_BASED_UNIT ( 'INCH', #149 ) LENGTH_UNIT ( ) NAMED_UNIT ( #292 ) );
#245 = EDGE_CURVE ( 'NONE', #308, #153, #57, .T. ) ;
#246 =( LENGTH_UNIT ( ) NAMED_UNIT ( * ) SI_UNIT ( $, .METRE. ) );
#247 = DIRECTION ( 'NONE',  ( -0.000000000000000000, -1.000000000000000000, -0.000000000000000000 ) ) ;
#248 = AXIS2_PLACEMENT_3D ( 'NONE', #182, #277, #206 ) ;
#249 = PLANE ( 'NONE',  #107 ) ;
#250 = LENGTH_MEASURE_WITH_UNIT ( LENGTH_MEASURE( 0.02539999999999999897 ), #17 );
#251 = DIRECTION ( 'NONE',  ( -1.000000000000000000, 0.000000000000000000, 0.000000000000000000 ) ) ;
#252 = AXIS2_PLACEMENT_3D ( 'NONE', #155, #86, #281 ) ;
#253 = CIRCLE ( 'NONE', #102, 0.3750000000000000555 ) ;
#254 = CARTESIAN_POINT ( 'NONE',  ( 0.3750000000000000555, 4.000000000000000000, 4.592425496802573602E-17 ) ) ;
#255 = CARTESIAN_POINT ( 'NONE',  ( 0.000000000000000000, 0.000000000000000000, 0.000000000000000000 ) ) ;
#256 = COLOUR_RGB ( '',1.000000000000000000, 0.000000000000000000, 0.000000000000000000 ) ;
#257 = FILL_AREA_STYLE ('',( #282 ) ) ;
#258 = DIRECTION ( 'NONE',  ( -1.000000000000000000, 0.000000000000000000, 0.000000000000000000 ) ) ;
#259 = VECTOR ( 'NONE', #66, 39.37007874015748143 ) ;
#260 =( GEOMETRIC_REPRESENTATION_CONTEXT ( 3 ) GLOBAL_UNCERTAINTY_ASSIGNED_CONTEXT ( ( #215 ) ) GLOBAL_UNIT_ASSIGNED_CONTEXT ( ( #37, #181, #42 ) ) REPRESENTATION_CONTEXT ( 'NONE', 'WORKASPACE' ) );
#261 = ADVANCED_FACE ( 'NONE', ( #172 ), #2, .F. ) ;
#262 = DIMENSIONAL_EXPONENTS ( 1.000000000000000000, 0.000000000000000000, 0.000000000000000000, 0.000000000000000000, 0.000000000000000000, 0.000000000000000000, 0.000000000000000000 ) ;
#263 = PRESENTATION_STYLE_ASSIGNMENT (( #170 ) ) ;
#264 = PRODUCT_DEFINITION_SHAPE ( 'NONE', 'NONE',  #210 ) ;
#265 = LENGTH_MEASURE_WITH_UNIT ( LENGTH_MEASURE( 0.02539999999999999897 ), #273 );
#266 = DIRECTION ( 'NONE',  ( -1.000000000000000000, 0.000000000000000000, 0.000000000000000000 ) ) ;
#267 = SURFACE_STYLE_FILL_AREA ( #192 ) ;
#268 = FILL_AREA_STYLE ('',( #75 ) ) ;
#269 = AXIS2_PLACEMENT_3D ( 'NONE', #183, #110, #251 ) ;
#270 = AXIS2_PLACEMENT_3D ( 'NONE', #213, #186, #73 ) ;
#271 = FACE_OUTER_BOUND ( 'NONE', #179, .T. ) ;
#272 = CYLINDRICAL_SURFACE ( 'NONE', #298, 0.3749999999999998890 ) ;
#273 =( LENGTH_UNIT ( ) NAMED_UNIT ( * ) SI_UNIT ( $, .METRE. ) );
#274 = FACE_OUTER_BOUND ( 'NONE', #297, .T. ) ;
#275 = ORIENTED_EDGE ( 'NONE', *, *, #197, .F. ) ;
#276 = EDGE_CURVE ( 'NONE', #308, #242, #253, .T. ) ;
#277 = DIRECTION ( 'NONE',  ( 0.000000000000000000, 0.000000000000000000, 1.000000000000000000 ) ) ;
#278 = DIRECTION ( 'NONE',  ( -1.000000000000000000, 0.000000000000000000, 0.000000000000000000 ) ) ;
#279 = MECHANICAL_DESIGN_GEOMETRIC_PRESENTATION_REPRESENTATION (  '', ( #204 ), #260 ) ;
#280 = FACE_OUTER_BOUND ( 'NONE', #189, .T. ) ;
#281 = DIRECTION ( 'NONE',  ( 0.000000000000000000, 0.000000000000000000, -1.000000000000000000 ) ) ;
#282 = FILL_AREA_STYLE_COLOUR ( '', #78 ) ;
#283 = CIRCLE ( 'NONE', #158, 0.3750000000000000555 ) ;
#284 = VECTOR ( 'NONE', #306, 39.37007874015748143 ) ;
#285 =( LENGTH_UNIT ( ) NAMED_UNIT ( * ) SI_UNIT ( $, .METRE. ) );
#286 = UNCERTAINTY_MEASURE_WITH_UNIT (LENGTH_MEASURE( 1.000000000000000082E-05 ), #99, 'distance_accuracy_value', 'NONE');
#287 = CARTESIAN_POINT ( 'NONE',  ( 0.000000000000000000, 0.000000000000000000, 0.000000000000000000 ) ) ;
#288 = CLOSED_SHELL ( 'NONE', ( #176, #115, #146, #119 ) ) ;
#289 =( GEOMETRIC_REPRESENTATION_CONTEXT ( 3 ) GLOBAL_UNCERTAINTY_ASSIGNED_CONTEXT ( ( #89 ) ) GLOBAL_UNIT_ASSIGNED_CONTEXT ( ( #217, #307, #22 ) ) REPRESENTATION_CONTEXT ( 'NONE', 'WORKASPACE' ) );
#290 = ORIENTED_EDGE ( 'NONE', *, *, #164, .F. ) ;
#291 = CARTESIAN_POINT ( 'NONE',  ( 0.000000000000000000, 0.000000000000000000, 0.000000000000000000 ) ) ;
#292 = DIMENSIONAL_EXPONENTS ( 1.000000000000000000, 0.000000000000000000, 0.000000000000000000, 0.000000000000000000, 0.000000000000000000, 0.000000000000000000, 0.000000000000000000 ) ;
#293 = DIRECTION ( 'NONE',  ( 0.000000000000000000, -0.000000000000000000, 1.000000000000000000 ) ) ;
#294 = DIRECTION ( 'NONE',  ( -1.000000000000000000, 0.000000000000000000, 0.000000000000000000 ) ) ;
#295 = CARTESIAN_POINT ( 'NONE',  ( 0.000000000000000000, 1.000000000000000222, 0.000000000000000000 ) ) ;
#296 = DIRECTION ( 'NONE',  ( -0.000000000000000000, -1.000000000000000000, -0.000000000000000000 ) ) ;
#297 = EDGE_LOOP ( 'NONE', ( #25, #1, #290, #301 ) ) ;
#298 = AXIS2_PLACEMENT_3D ( 'NONE', #97, #151, #266 ) ;
#299 = DIRECTION ( 'NONE',  ( 1.000000000000000000, -8.164311994315692567E-17, 0.000000000000000000 ) ) ;
#300 =( NAMED_UNIT ( * ) SI_UNIT ( $, .STERADIAN. ) SOLID_ANGLE_UNIT ( ) );
#301 = ORIENTED_EDGE ( 'NONE', *, *, #245, .F. ) ;
#302 = CIRCLE ( 'NONE', #269, 0.3750000000000000555 ) ;
#303 = DIRECTION ( 'NONE',  ( 8.164311994315692567E-17, 1.000000000000000000, -0.000000000000000000 ) ) ;
#304 = MANIFOLD_SOLID_BREP ( 'Revolve - Tool Body (Straight Shanked)', #175 ) ;
#305 = UNCERTAINTY_MEASURE_WITH_UNIT (LENGTH_MEASURE( 1.000000000000000082E-05 ), #244, 'distance_accuracy_value', 'NONE');
#306 = DIRECTION ( 'NONE',  ( 8.164311994315692567E-17, 1.000000000000000000, -0.000000000000000000 ) ) ;
#307 =( NAMED_UNIT ( * ) PLANE_ANGLE_UNIT ( ) SI_UNIT ( $, .RADIAN. ) );
#308 = VERTEX_POINT ( 'NONE', #198 ) ;
#309 = SURFACE_STYLE_FILL_AREA ( #93 ) ;
ENDSEC;
END-ISO-10303-21;
