ISO-10303-21;
HEADER;
FILE_DESCRIPTION (( 'STEP AP214' ),
    '1' );
FILE_NAME ('06495.STEP',
    '2023-07-05T16:03:44',
    ( '' ),
    ( '' ),
    'SwSTEP 2.0',
    'SolidWorks 2023',
    '' );
FILE_SCHEMA (( 'AUTOMOTIVE_DESIGN' ));
ENDSEC;

DATA;
#1 = PRODUCT_CONTEXT ( 'NONE', #133, 'mechanical' ) ;
#2 = AXIS2_PLACEMENT_3D ( 'NONE', #206, #94, #137 ) ;
#3 = UNCERTAINTY_MEASURE_WITH_UNIT (LENGTH_MEASURE( 1.000000000000000082E-05 ), #90, 'distance_accuracy_value', 'NONE');
#4 =( NAMED_UNIT ( * ) PLANE_ANGLE_UNIT ( ) SI_UNIT ( $, .RADIAN. ) );
#5 = ADVANCED_FACE ( 'NONE', ( #146 ), #84, .T. ) ;
#6 = UNCERTAINTY_MEASURE_WITH_UNIT (LENGTH_MEASURE( 1.000000000000000082E-05 ), #92, 'distance_accuracy_value', 'NONE');
#7 = SURFACE_STYLE_FILL_AREA ( #118 ) ;
#8 =( LENGTH_UNIT ( ) NAMED_UNIT ( * ) SI_UNIT ( $, .METRE. ) );
#9 = COLOUR_RGB ( '',1.000000000000000000, 0.000000000000000000, 0.000000000000000000 ) ;
#10 = LENGTH_MEASURE_WITH_UNIT ( LENGTH_MEASURE( 0.02539999999999999897 ), #117 );
#11 = SHAPE_DEFINITION_REPRESENTATION ( #41, #244 ) ;
#12 =( NAMED_UNIT ( * ) SI_UNIT ( $, .STERADIAN. ) SOLID_ANGLE_UNIT ( ) );
#13 = FILL_AREA_STYLE ('',( #145 ) ) ;
#14 = AXIS2_PLACEMENT_3D ( 'NONE', #184, #87, #37 ) ;
#15 = ADVANCED_FACE ( 'NONE', ( #217 ), #197, .T. ) ;
#16 = ORIENTED_EDGE ( 'NONE', *, *, #110, .T. ) ;
#17 = PRESENTATION_STYLE_ASSIGNMENT (( #198 ) ) ;
#18 = DIRECTION ( 'NONE',  ( -1.219197302182064860E-16, 1.000000000000000000, 0.000000000000000000 ) ) ;
#19 = LINE ( 'NONE', #152, #86 ) ;
#20 = AXIS2_PLACEMENT_3D ( 'NONE', #218, #161, #231 ) ;
#21 = DIRECTION ( 'NONE',  ( 0.000000000000000000, 1.000000000000000000, 0.000000000000000000 ) ) ;
#22 = DIMENSIONAL_EXPONENTS ( 1.000000000000000000, 0.000000000000000000, 0.000000000000000000, 0.000000000000000000, 0.000000000000000000, 0.000000000000000000, 0.000000000000000000 ) ;
#23 = EDGE_CURVE ( 'NONE', #261, #95, #32, .T. ) ;
#24 = UNCERTAINTY_MEASURE_WITH_UNIT (LENGTH_MEASURE( 1.000000000000000082E-05 ), #112, 'distance_accuracy_value', 'NONE');
#25 = DIRECTION ( 'NONE',  ( 0.000000000000000000, 0.000000000000000000, 1.000000000000000000 ) ) ;
#26 = CARTESIAN_POINT ( 'NONE',  ( -0.1249999999999999861, 2.500000000000000000, 0.000000000000000000 ) ) ;
#27 = DIRECTION ( 'NONE',  ( -1.000000000000000000, -1.365923996832134074E-16, 0.000000000000000000 ) ) ;
#28 = DIMENSIONAL_EXPONENTS ( 1.000000000000000000, 0.000000000000000000, 0.000000000000000000, 0.000000000000000000, 0.000000000000000000, 0.000000000000000000, 0.000000000000000000 ) ;
#29 = COLOUR_RGB ( '',1.000000000000000000, 0.000000000000000000, 0.000000000000000000 ) ;
#30 = FILL_AREA_STYLE_COLOUR ( '', #29 ) ;
#31 = PLANE ( 'NONE',  #173 ) ;
#32 = LINE ( 'NONE', #199, #185 ) ;
#33 = SURFACE_SIDE_STYLE ('',( #147 ) ) ;
#34 =( GEOMETRIC_REPRESENTATION_CONTEXT ( 3 ) GLOBAL_UNCERTAINTY_ASSIGNED_CONTEXT ( ( #6 ) ) GLOBAL_UNIT_ASSIGNED_CONTEXT ( ( #92, #150, #190 ) ) REPRESENTATION_CONTEXT ( 'NONE', 'WORKASPACE' ) );
#35 = AXIS2_PLACEMENT_3D ( 'NONE', #223, #207, #115 ) ;
#36 = EDGE_CURVE ( 'NONE', #125, #95, #157, .T. ) ;
#37 = DIRECTION ( 'NONE',  ( -1.000000000000000000, 0.000000000000000000, 0.000000000000000000 ) ) ;
#38 = ORIENTED_EDGE ( 'NONE', *, *, #36, .T. ) ;
#39 =( NAMED_UNIT ( * ) SI_UNIT ( $, .STERADIAN. ) SOLID_ANGLE_UNIT ( ) );
#40 = CIRCLE ( 'NONE', #169, 0.1249999999999999861 ) ;
#41 = PRODUCT_DEFINITION_SHAPE ( 'NONE', 'NONE',  #106 ) ;
#42 = SURFACE_SIDE_STYLE ('',( #128 ) ) ;
#43 = SURFACE_STYLE_FILL_AREA ( #13 ) ;
#44 = DIMENSIONAL_EXPONENTS ( 1.000000000000000000, 0.000000000000000000, 0.000000000000000000, 0.000000000000000000, 0.000000000000000000, 0.000000000000000000, 0.000000000000000000 ) ;
#45 =( GEOMETRIC_REPRESENTATION_CONTEXT ( 3 ) GLOBAL_UNCERTAINTY_ASSIGNED_CONTEXT ( ( #24 ) ) GLOBAL_UNIT_ASSIGNED_CONTEXT ( ( #112, #241, #39 ) ) REPRESENTATION_CONTEXT ( 'NONE', 'WORKASPACE' ) );
#46 = DIRECTION ( 'NONE',  ( -1.219197302182064860E-16, 1.000000000000000000, -0.000000000000000000 ) ) ;
#47 = FACE_OUTER_BOUND ( 'NONE', #81, .T. ) ;
#48 = LENGTH_MEASURE_WITH_UNIT ( LENGTH_MEASURE( 0.02539999999999999897 ), #138 );
#49 = DIRECTION ( 'NONE',  ( 0.000000000000000000, 0.4999999999999979461, 0.8660254037844397068 ) ) ;
#50 = DIRECTION ( 'NONE',  ( -1.219197302182064860E-16, 1.000000000000000000, -0.000000000000000000 ) ) ;
#51 = SURFACE_STYLE_USAGE ( .BOTH. , #79 ) ;
#52 = FACE_OUTER_BOUND ( 'NONE', #245, .T. ) ;
#53 = ORIENTED_EDGE ( 'NONE', *, *, #265, .F. ) ;
#54 = STYLED_ITEM ( 'NONE', ( #258 ), #89 ) ;
#55 = CONICAL_SURFACE ( 'NONE', #61, 68.19097667594041923, 1.047197551196600074 ) ;
#56 = FILL_AREA_STYLE_COLOUR ( '', #216 ) ;
#57 = PRODUCT_RELATED_PRODUCT_CATEGORY ( 'part', '', ( #175 ) ) ;
#58 = ORIENTED_EDGE ( 'NONE', *, *, #238, .F. ) ;
#59 = VERTEX_POINT ( 'NONE', #148 ) ;
#60 = STYLED_ITEM ( 'NONE', ( #17 ), #5 ) ;
#61 = AXIS2_PLACEMENT_3D ( 'NONE', #178, #204, #67 ) ;
#62 = DIRECTION ( 'NONE',  ( 0.000000000000000000, 1.000000000000000000, 0.000000000000000000 ) ) ;
#63 = ORIENTED_EDGE ( 'NONE', *, *, #230, .F. ) ;
#64 = CARTESIAN_POINT ( 'NONE',  ( 0.000000000000000000, 39.37007874015748143, 0.000000000000000000 ) ) ;
#65 = PRESENTATION_LAYER_ASSIGNMENT (  '', '', ( #181 ) ) ;
#66 = SURFACE_STYLE_USAGE ( .BOTH. , #42 ) ;
#67 = DIRECTION ( 'NONE',  ( 0.000000000000000000, 0.000000000000000000, 1.000000000000000000 ) ) ;
#68 = DIMENSIONAL_EXPONENTS ( 1.000000000000000000, 0.000000000000000000, 0.000000000000000000, 0.000000000000000000, 0.000000000000000000, 0.000000000000000000, 0.000000000000000000 ) ;
#69 = EDGE_CURVE ( 'NONE', #95, #125, #127, .T. ) ;
#70 = UNCERTAINTY_MEASURE_WITH_UNIT (LENGTH_MEASURE( 1.000000000000000082E-05 ), #243, 'distance_accuracy_value', 'NONE');
#71 = DIMENSIONAL_EXPONENTS ( 1.000000000000000000, 0.000000000000000000, 0.000000000000000000, 0.000000000000000000, 0.000000000000000000, 0.000000000000000000, 0.000000000000000000 ) ;
#72 =( NAMED_UNIT ( * ) SI_UNIT ( $, .STERADIAN. ) SOLID_ANGLE_UNIT ( ) );
#73 = ORIENTED_EDGE ( 'NONE', *, *, #238, .T. ) ;
#74 = APPLICATION_PROTOCOL_DEFINITION ( 'draft international standard', 'automotive_design', 1998, #122 ) ;
#75 = CARTESIAN_POINT ( 'NONE',  ( 0.000000000000000000, 0.07216878364870282780, 0.000000000000000000 ) ) ;
#76 = SURFACE_SIDE_STYLE ('',( #192 ) ) ;
#77 = EDGE_LOOP ( 'NONE', ( #53, #58 ) ) ;
#78 = CIRCLE ( 'NONE', #195, 0.1249999999999999861 ) ;
#79 = SURFACE_SIDE_STYLE ('',( #7 ) ) ;
#80 = LENGTH_MEASURE_WITH_UNIT ( LENGTH_MEASURE( 0.02539999999999999897 ), #8 );
#81 = EDGE_LOOP ( 'NONE', ( #212, #73, #83, #183 ) ) ;
#82 = LENGTH_MEASURE_WITH_UNIT ( LENGTH_MEASURE( 0.02539999999999999897 ), #214 );
#83 = ORIENTED_EDGE ( 'NONE', *, *, #135, .T. ) ;
#84 = PLANE ( 'NONE',  #102 ) ;
#85 = MANIFOLD_SOLID_BREP ( 'Revolve - Tool Body (Pointed)', #193 ) ;
#86 = VECTOR ( 'NONE', #221, 39.37007874015748854 ) ;
#87 = DIRECTION ( 'NONE',  ( -1.219197302182064860E-16, 1.000000000000000000, -0.000000000000000000 ) ) ;
#88 = CONICAL_SURFACE ( 'NONE', #229, 68.19097667594041923, 1.047197551196600074 ) ;
#89 = ADVANCED_FACE ( 'NONE', ( #130 ), #88, .T. ) ;
#90 =( CONVERSION_BASED_UNIT ( 'INCH', #48 ) LENGTH_UNIT ( ) NAMED_UNIT ( #28 ) );
#91 = LENGTH_MEASURE_WITH_UNIT ( LENGTH_MEASURE( 0.02539999999999999897 ), #168 );
#92 =( CONVERSION_BASED_UNIT ( 'INCH', #170 ) LENGTH_UNIT ( ) NAMED_UNIT ( #263 ) );
#93 = MECHANICAL_DESIGN_GEOMETRIC_PRESENTATION_REPRESENTATION (  '', ( #54 ), #45 ) ;
#94 = DIRECTION ( 'NONE',  ( -1.219197302182064860E-16, 1.000000000000000000, -0.000000000000000000 ) ) ;
#95 = VERTEX_POINT ( 'NONE', #126 ) ;
#96 = CYLINDRICAL_SURFACE ( 'NONE', #2, 0.1249999999999999167 ) ;
#97 = DIRECTION ( 'NONE',  ( -0.000000000000000000, -1.000000000000000000, -0.000000000000000000 ) ) ;
#98 = ORIENTED_EDGE ( 'NONE', *, *, #155, .T. ) ;
#99 = STYLED_ITEM ( 'NONE', ( #194 ), #166 ) ;
#100 = LINE ( 'NONE', #154, #149 ) ;
#101 = FILL_AREA_STYLE_COLOUR ( '', #179 ) ;
#102 = AXIS2_PLACEMENT_3D ( 'NONE', #163, #62, #233 ) ;
#103 = VERTEX_POINT ( 'NONE', #114 ) ;
#104 =( CONVERSION_BASED_UNIT ( 'INCH', #82 ) LENGTH_UNIT ( ) NAMED_UNIT ( #68 ) );
#105 = CARTESIAN_POINT ( 'NONE',  ( -6.123233995736766036E-17, 2.500000000000000000, 0.000000000000000000 ) ) ;
#106 = PRODUCT_DEFINITION ( 'UNKNOWN', '', #144, #132 ) ;
#107 = AXIS2_PLACEMENT_3D ( 'NONE', #105, #254, #251 ) ;
#108 = DIRECTION ( 'NONE',  ( -1.000000000000000000, -1.219197302182064860E-16, 0.000000000000000000 ) ) ;
#109 = SURFACE_STYLE_USAGE ( .BOTH. , #260 ) ;
#110 = EDGE_CURVE ( 'NONE', #167, #103, #19, .T. ) ;
#111 =( NAMED_UNIT ( * ) PLANE_ANGLE_UNIT ( ) SI_UNIT ( $, .RADIAN. ) );
#112 =( CONVERSION_BASED_UNIT ( 'INCH', #91 ) LENGTH_UNIT ( ) NAMED_UNIT ( #44 ) );
#113 = CARTESIAN_POINT ( 'NONE',  ( -0.1250000000000001388, 2.500000000000000000, 0.000000000000000000 ) ) ;
#114 = CARTESIAN_POINT ( 'NONE',  ( 1.530808498934191509E-17, 0.07216878364870282780, -0.1250000000000000000 ) ) ;
#115 = DIRECTION ( 'NONE',  ( 1.000000000000000000, 0.000000000000000000, 0.000000000000000000 ) ) ;
#116 = CARTESIAN_POINT ( 'NONE',  ( 0.000000000000000000, 0.07216878364870282780, 0.000000000000000000 ) ) ;
#117 =( LENGTH_UNIT ( ) NAMED_UNIT ( * ) SI_UNIT ( $, .METRE. ) );
#118 = FILL_AREA_STYLE ('',( #30 ) ) ;
#119 = AXIS2_PLACEMENT_3D ( 'NONE', #202, #18, #108 ) ;
#120 =( GEOMETRIC_REPRESENTATION_CONTEXT ( 3 ) GLOBAL_UNCERTAINTY_ASSIGNED_CONTEXT ( ( #177 ) ) GLOBAL_UNIT_ASSIGNED_CONTEXT ( ( #159, #111, #164 ) ) REPRESENTATION_CONTEXT ( 'NONE', 'WORKASPACE' ) );
#121 = DIRECTION ( 'NONE',  ( 1.219197302182064860E-16, -1.000000000000000000, 0.000000000000000000 ) ) ;
#122 = APPLICATION_CONTEXT ( 'automotive_design' ) ;
#123 = PRESENTATION_LAYER_ASSIGNMENT (  '', '', ( #237 ) ) ;
#124 = EDGE_LOOP ( 'NONE', ( #235, #63 ) ) ;
#125 = VERTEX_POINT ( 'NONE', #113 ) ;
#126 = CARTESIAN_POINT ( 'NONE',  ( 0.1249999999999999861, 2.500000000000000000, 1.530808498934191201E-17 ) ) ;
#127 = CIRCLE ( 'NONE', #20, 0.1250000000000000555 ) ;
#128 = SURFACE_STYLE_FILL_AREA ( #239 ) ;
#129 = ADVANCED_FACE ( 'NONE', ( #262 ), #172, .F. ) ;
#130 = FACE_OUTER_BOUND ( 'NONE', #162, .T. ) ;
#131 = MECHANICAL_DESIGN_GEOMETRIC_PRESENTATION_REPRESENTATION (  '', ( #99 ), #240 ) ;
#132 = PRODUCT_DEFINITION_CONTEXT ( 'detailed design', #122, 'design' ) ;
#133 = APPLICATION_CONTEXT ( 'automotive_design' ) ;
#134 =( LENGTH_UNIT ( ) NAMED_UNIT ( * ) SI_UNIT ( $, .METRE. ) );
#135 = EDGE_CURVE ( 'NONE', #142, #125, #187, .T. ) ;
#136 = UNCERTAINTY_MEASURE_WITH_UNIT (LENGTH_MEASURE( 1.000000000000000082E-05 ), #104, 'distance_accuracy_value', 'NONE');
#137 = DIRECTION ( 'NONE',  ( -1.000000000000000000, 0.000000000000000000, 0.000000000000000000 ) ) ;
#138 =( LENGTH_UNIT ( ) NAMED_UNIT ( * ) SI_UNIT ( $, .METRE. ) );
#139 = MECHANICAL_DESIGN_GEOMETRIC_PRESENTATION_REPRESENTATION (  '', ( #237 ), #34 ) ;
#140 = FACE_OUTER_BOUND ( 'NONE', #236, .T. ) ;
#141 = PRESENTATION_STYLE_ASSIGNMENT (( #51 ) ) ;
#142 = VERTEX_POINT ( 'NONE', #143 ) ;
#143 = CARTESIAN_POINT ( 'NONE',  ( -0.1249999999999995420, 0.07216878364870270290, 0.000000000000000000 ) ) ;
#144 = PRODUCT_DEFINITION_FORMATION_WITH_SPECIFIED_SOURCE ( 'ANY', '', #175, .NOT_KNOWN. ) ;
#145 = FILL_AREA_STYLE_COLOUR ( '', #165 ) ;
#146 = FACE_OUTER_BOUND ( 'NONE', #124, .T. ) ;
#147 = SURFACE_STYLE_FILL_AREA ( #256 ) ;
#148 = CARTESIAN_POINT ( 'NONE',  ( 0.000000000000000000, 0.07216878364870282780, 0.1250000000000000000 ) ) ;
#149 = VECTOR ( 'NONE', #49, 39.37007874015748854 ) ;
#150 =( NAMED_UNIT ( * ) PLANE_ANGLE_UNIT ( ) SI_UNIT ( $, .RADIAN. ) );
#151 = CARTESIAN_POINT ( 'NONE',  ( 0.1250000000000000278, 0.07216878364870273066, 1.530808498934191201E-17 ) ) ;
#152 = CARTESIAN_POINT ( 'NONE',  ( 0.000000000000000000, 0.000000000000000000, 0.000000000000000000 ) ) ;
#153 = PRESENTATION_LAYER_ASSIGNMENT (  '', '', ( #60 ) ) ;
#154 = CARTESIAN_POINT ( 'NONE',  ( 0.000000000000000000, 0.000000000000000000, 0.000000000000000000 ) ) ;
#155 = EDGE_CURVE ( 'NONE', #59, #103, #78, .T. ) ;
#156 = ORIENTED_EDGE ( 'NONE', *, *, #247, .T. ) ;
#157 = CIRCLE ( 'NONE', #107, 0.1250000000000000555 ) ;
#158 = DIRECTION ( 'NONE',  ( -0.000000000000000000, -1.000000000000000000, -0.000000000000000000 ) ) ;
#159 =( CONVERSION_BASED_UNIT ( 'INCH', #80 ) LENGTH_UNIT ( ) NAMED_UNIT ( #71 ) );
#160 = ORIENTED_EDGE ( 'NONE', *, *, #230, .T. ) ;
#161 = DIRECTION ( 'NONE',  ( -1.219197302182064860E-16, 1.000000000000000000, -0.000000000000000000 ) ) ;
#162 = EDGE_LOOP ( 'NONE', ( #182, #156, #98 ) ) ;
#163 = CARTESIAN_POINT ( 'NONE',  ( 0.000000000000000000, 0.07216878364870282780, 0.000000000000000000 ) ) ;
#164 =( NAMED_UNIT ( * ) SI_UNIT ( $, .STERADIAN. ) SOLID_ANGLE_UNIT ( ) );
#165 = COLOUR_RGB ( '',0.7921568627450980005, 0.8196078431372548767, 0.9333333333333333481 ) ;
#166 = MANIFOLD_SOLID_BREP ( 'Revolve - Cutting Edge', #222 ) ;
#167 = VERTEX_POINT ( 'NONE', #196 ) ;
#168 =( LENGTH_UNIT ( ) NAMED_UNIT ( * ) SI_UNIT ( $, .METRE. ) );
#169 = AXIS2_PLACEMENT_3D ( 'NONE', #75, #158, #246 ) ;
#170 = LENGTH_MEASURE_WITH_UNIT ( LENGTH_MEASURE( 0.02539999999999999897 ), #134 );
#171 =( NAMED_UNIT ( * ) PLANE_ANGLE_UNIT ( ) SI_UNIT ( $, .RADIAN. ) );
#172 = PLANE ( 'NONE',  #119 ) ;
#173 = AXIS2_PLACEMENT_3D ( 'NONE', #174, #121, #176 ) ;
#174 = CARTESIAN_POINT ( 'NONE',  ( 0.1250000000000000000, 2.500000000000000000, 0.000000000000000000 ) ) ;
#175 = PRODUCT ( '06495', '06495', '', ( #1 ) ) ;
#176 = DIRECTION ( 'NONE',  ( 1.000000000000000000, 1.219197302182064860E-16, 0.000000000000000000 ) ) ;
#177 = UNCERTAINTY_MEASURE_WITH_UNIT (LENGTH_MEASURE( 1.000000000000000082E-05 ), #159, 'distance_accuracy_value', 'NONE');
#178 = CARTESIAN_POINT ( 'NONE',  ( 0.000000000000000000, 39.37007874015748143, 0.000000000000000000 ) ) ;
#179 = COLOUR_RGB ( '',0.7921568627450980005, 0.8196078431372548767, 0.9333333333333333481 ) ;
#180 = DIRECTION ( 'NONE',  ( -1.219197302182064860E-16, 1.000000000000000000, -0.000000000000000000 ) ) ;
#181 = STYLED_ITEM ( 'NONE', ( #141 ), #257 ) ;
#182 = ORIENTED_EDGE ( 'NONE', *, *, #110, .F. ) ;
#183 = ORIENTED_EDGE ( 'NONE', *, *, #69, .F. ) ;
#184 = CARTESIAN_POINT ( 'NONE',  ( -6.123233995736766036E-17, 2.500000000000000000, 0.000000000000000000 ) ) ;
#185 = VECTOR ( 'NONE', #180, 39.37007874015748143 ) ;
#186 = ADVANCED_FACE ( 'NONE', ( #47 ), #96, .T. ) ;
#187 = LINE ( 'NONE', #26, #227 ) ;
#188 = PRESENTATION_STYLE_ASSIGNMENT (( #109 ) ) ;
#189 = ORIENTED_EDGE ( 'NONE', *, *, #23, .T. ) ;
#190 =( NAMED_UNIT ( * ) SI_UNIT ( $, .STERADIAN. ) SOLID_ANGLE_UNIT ( ) );
#191 = APPLICATION_PROTOCOL_DEFINITION ( 'draft international standard', 'automotive_design', 1998, #133 ) ;
#192 = SURFACE_STYLE_FILL_AREA ( #224 ) ;
#193 = CLOSED_SHELL ( 'NONE', ( #15, #129, #186, #203 ) ) ;
#194 = PRESENTATION_STYLE_ASSIGNMENT (( #208 ) ) ;
#195 = AXIS2_PLACEMENT_3D ( 'NONE', #116, #97, #225 ) ;
#196 = CARTESIAN_POINT ( 'NONE',  ( 0.000000000000000000, 0.000000000000000000, 0.000000000000000000 ) ) ;
#197 = CYLINDRICAL_SURFACE ( 'NONE', #14, 0.1249999999999999167 ) ;
#198 = SURFACE_STYLE_USAGE ( .BOTH. , #33 ) ;
#199 = CARTESIAN_POINT ( 'NONE',  ( 0.1249999999999998473, 2.500000000000000000, 1.530808498934190276E-17 ) ) ;
#200 =( NAMED_UNIT ( * ) PLANE_ANGLE_UNIT ( ) SI_UNIT ( $, .RADIAN. ) );
#201 = PRESENTATION_LAYER_ASSIGNMENT (  '', '', ( #54 ) ) ;
#202 = CARTESIAN_POINT ( 'NONE',  ( 2.347681869555226296E-16, 0.07216878364870282780, 0.000000000000000000 ) ) ;
#203 = ADVANCED_FACE ( 'NONE', ( #52 ), #31, .F. ) ;
#204 = DIRECTION ( 'NONE',  ( 0.000000000000000000, 1.000000000000000000, 0.000000000000000000 ) ) ;
#205 =( GEOMETRIC_REPRESENTATION_CONTEXT ( 3 ) GLOBAL_UNCERTAINTY_ASSIGNED_CONTEXT ( ( #136 ) ) GLOBAL_UNIT_ASSIGNED_CONTEXT ( ( #104, #200, #12 ) ) REPRESENTATION_CONTEXT ( 'NONE', 'WORKASPACE' ) );
#206 = CARTESIAN_POINT ( 'NONE',  ( -6.123233995736766036E-17, 2.500000000000000000, 0.000000000000000000 ) ) ;
#207 = DIRECTION ( 'NONE',  ( 0.000000000000000000, 0.000000000000000000, 1.000000000000000000 ) ) ;
#208 = SURFACE_STYLE_USAGE ( .BOTH. , #76 ) ;
#209 = MECHANICAL_DESIGN_GEOMETRIC_PRESENTATION_REPRESENTATION (  '', ( #181 ), #120 ) ;
#210 = ORIENTED_EDGE ( 'NONE', *, *, #265, .T. ) ;
#211 = DIRECTION ( 'NONE',  ( -1.219197302182064860E-16, 1.000000000000000000, -0.000000000000000000 ) ) ;
#212 = ORIENTED_EDGE ( 'NONE', *, *, #23, .F. ) ;
#213 = FILL_AREA_STYLE_COLOUR ( '', #9 ) ;
#214 =( LENGTH_UNIT ( ) NAMED_UNIT ( * ) SI_UNIT ( $, .METRE. ) );
#215 = ORIENTED_EDGE ( 'NONE', *, *, #247, .F. ) ;
#216 = COLOUR_RGB ( '',1.000000000000000000, 0.000000000000000000, 0.000000000000000000 ) ;
#217 = FACE_OUTER_BOUND ( 'NONE', #253, .T. ) ;
#218 = CARTESIAN_POINT ( 'NONE',  ( -6.123233995736766036E-17, 2.500000000000000000, 0.000000000000000000 ) ) ;
#219 = CIRCLE ( 'NONE', #252, 0.1249999999999997780 ) ;
#220 = CARTESIAN_POINT ( 'NONE',  ( 2.347681869555226296E-16, 0.07216878364870271678, 0.000000000000000000 ) ) ;
#221 = DIRECTION ( 'NONE',  ( 1.060575238724908024E-16, 0.4999999999999979461, -0.8660254037844397068 ) ) ;
#222 = CLOSED_SHELL ( 'NONE', ( #257, #5, #89 ) ) ;
#223 = CARTESIAN_POINT ( 'NONE',  ( 0.000000000000000000, 0.000000000000000000, 0.000000000000000000 ) ) ;
#224 = FILL_AREA_STYLE ('',( #101 ) ) ;
#225 = DIRECTION ( 'NONE',  ( 0.000000000000000000, 0.000000000000000000, -1.000000000000000000 ) ) ;
#226 = CARTESIAN_POINT ( 'NONE',  ( 2.347681869555226296E-16, 0.07216878364870271678, 0.000000000000000000 ) ) ;
#227 = VECTOR ( 'NONE', #211, 39.37007874015748143 ) ;
#228 = ORIENTED_EDGE ( 'NONE', *, *, #135, .F. ) ;
#229 = AXIS2_PLACEMENT_3D ( 'NONE', #64, #21, #25 ) ;
#230 = EDGE_CURVE ( 'NONE', #103, #59, #40, .T. ) ;
#231 = DIRECTION ( 'NONE',  ( -1.000000000000000000, 0.000000000000000000, 0.000000000000000000 ) ) ;
#232 = ORIENTED_EDGE ( 'NONE', *, *, #36, .F. ) ;
#233 = DIRECTION ( 'NONE',  ( 0.000000000000000000, -0.000000000000000000, 1.000000000000000000 ) ) ;
#234 = PRESENTATION_LAYER_ASSIGNMENT (  '', '', ( #99 ) ) ;
#235 = ORIENTED_EDGE ( 'NONE', *, *, #155, .F. ) ;
#236 = EDGE_LOOP ( 'NONE', ( #215, #16, #160 ) ) ;
#237 = STYLED_ITEM ( 'NONE', ( #188 ), #85 ) ;
#238 = EDGE_CURVE ( 'NONE', #261, #142, #219, .T. ) ;
#239 = FILL_AREA_STYLE ('',( #56 ) ) ;
#240 =( GEOMETRIC_REPRESENTATION_CONTEXT ( 3 ) GLOBAL_UNCERTAINTY_ASSIGNED_CONTEXT ( ( #70 ) ) GLOBAL_UNIT_ASSIGNED_CONTEXT ( ( #243, #4, #72 ) ) REPRESENTATION_CONTEXT ( 'NONE', 'WORKASPACE' ) );
#241 =( NAMED_UNIT ( * ) PLANE_ANGLE_UNIT ( ) SI_UNIT ( $, .RADIAN. ) );
#242 = DIRECTION ( 'NONE',  ( -1.000000000000000000, -1.365923996832134074E-16, 0.000000000000000000 ) ) ;
#243 =( CONVERSION_BASED_UNIT ( 'INCH', #10 ) LENGTH_UNIT ( ) NAMED_UNIT ( #22 ) );
#244 = ADVANCED_BREP_SHAPE_REPRESENTATION ( '06495', ( #166, #85, #35 ), #255 ) ;
#245 = EDGE_LOOP ( 'NONE', ( #38, #250 ) ) ;
#246 = DIRECTION ( 'NONE',  ( 0.000000000000000000, 0.000000000000000000, -1.000000000000000000 ) ) ;
#247 = EDGE_CURVE ( 'NONE', #167, #59, #100, .T. ) ;
#248 = MECHANICAL_DESIGN_GEOMETRIC_PRESENTATION_REPRESENTATION (  '', ( #60 ), #205 ) ;
#249 = AXIS2_PLACEMENT_3D ( 'NONE', #220, #46, #27 ) ;
#250 = ORIENTED_EDGE ( 'NONE', *, *, #69, .T. ) ;
#251 = DIRECTION ( 'NONE',  ( -1.000000000000000000, 0.000000000000000000, 0.000000000000000000 ) ) ;
#252 = AXIS2_PLACEMENT_3D ( 'NONE', #226, #50, #242 ) ;
#253 = EDGE_LOOP ( 'NONE', ( #210, #189, #232, #228 ) ) ;
#254 = DIRECTION ( 'NONE',  ( -1.219197302182064860E-16, 1.000000000000000000, -0.000000000000000000 ) ) ;
#255 =( GEOMETRIC_REPRESENTATION_CONTEXT ( 3 ) GLOBAL_UNCERTAINTY_ASSIGNED_CONTEXT ( ( #3 ) ) GLOBAL_UNIT_ASSIGNED_CONTEXT ( ( #90, #171, #264 ) ) REPRESENTATION_CONTEXT ( 'NONE', 'WORKASPACE' ) );
#256 = FILL_AREA_STYLE ('',( #213 ) ) ;
#257 = ADVANCED_FACE ( 'NONE', ( #140 ), #55, .T. ) ;
#258 = PRESENTATION_STYLE_ASSIGNMENT (( #66 ) ) ;
#259 = CIRCLE ( 'NONE', #249, 0.1249999999999997780 ) ;
#260 = SURFACE_SIDE_STYLE ('',( #43 ) ) ;
#261 = VERTEX_POINT ( 'NONE', #151 ) ;
#262 = FACE_OUTER_BOUND ( 'NONE', #77, .T. ) ;
#263 = DIMENSIONAL_EXPONENTS ( 1.000000000000000000, 0.000000000000000000, 0.000000000000000000, 0.000000000000000000, 0.000000000000000000, 0.000000000000000000, 0.000000000000000000 ) ;
#264 =( NAMED_UNIT ( * ) SI_UNIT ( $, .STERADIAN. ) SOLID_ANGLE_UNIT ( ) );
#265 = EDGE_CURVE ( 'NONE', #142, #261, #259, .T. ) ;
ENDSEC;
END-ISO-10303-21;
