ISO-10303-21;
HEADER;
FILE_DESCRIPTION (( 'STEP AP214' ),
    '1' );
FILE_NAME ('82455.STEP',
    '2023-06-30T22:39:14',
    ( '' ),
    ( '' ),
    'SwSTEP 2.0',
    'SolidWorks 2023',
    '' );
FILE_SCHEMA (( 'AUTOMOTIVE_DESIGN' ));
ENDSEC;

DATA;
#1 =( GEOMETRIC_REPRESENTATION_CONTEXT ( 3 ) GLOBAL_UNCERTAINTY_ASSIGNED_CONTEXT ( ( #164 ) ) GLOBAL_UNIT_ASSIGNED_CONTEXT ( ( #344, #148, #177 ) ) REPRESENTATION_CONTEXT ( 'NONE', 'WORKASPACE' ) );
#2 = MECHANICAL_DESIGN_GEOMETRIC_PRESENTATION_REPRESENTATION (  '', ( #69 ), #48 ) ;
#3 = DIRECTION ( 'NONE',  ( 0.000000000000000000, 0.000000000000000000, 1.000000000000000000 ) ) ;
#4 = VERTEX_POINT ( 'NONE', #304 ) ;
#5 = EDGE_LOOP ( 'NONE', ( #319, #365, #168, #52, #251 ) ) ;
#6 = FILL_AREA_STYLE ('',( #41 ) ) ;
#7 = EDGE_CURVE ( 'NONE', #323, #74, #68, .T. ) ;
#8 =( GEOMETRIC_REPRESENTATION_CONTEXT ( 3 ) GLOBAL_UNCERTAINTY_ASSIGNED_CONTEXT ( ( #197 ) ) GLOBAL_UNIT_ASSIGNED_CONTEXT ( ( #141, #308, #189 ) ) REPRESENTATION_CONTEXT ( 'NONE', 'WORKASPACE' ) );
#9 = VECTOR ( 'NONE', #146, 39.37007874015748143 ) ;
#10 = APPLICATION_CONTEXT ( 'automotive_design' ) ;
#11 = LINE ( 'NONE', #326, #280 ) ;
#12 = CARTESIAN_POINT ( 'NONE',  ( -6.123233995736772199E-17, 3.000000000000000444, 0.000000000000000000 ) ) ;
#13 = UNCERTAINTY_MEASURE_WITH_UNIT (LENGTH_MEASURE( 1.000000000000000082E-05 ), #212, 'distance_accuracy_value', 'NONE');
#14 = ADVANCED_FACE ( 'NONE', ( #193 ), #283, .F. ) ;
#15 = SURFACE_STYLE_FILL_AREA ( #356 ) ;
#16 = ORIENTED_EDGE ( 'NONE', *, *, #260, .T. ) ;
#17 = STYLED_ITEM ( 'NONE', ( #139 ), #222 ) ;
#18 = DIRECTION ( 'NONE',  ( -1.000000000000000000, 0.000000000000000000, 0.000000000000000000 ) ) ;
#19 = CARTESIAN_POINT ( 'NONE',  ( 0.000000000000000000, 0.09375000000000001388, 0.000000000000000000 ) ) ;
#20 = FILL_AREA_STYLE ('',( #167 ) ) ;
#21 = DIRECTION ( 'NONE',  ( 1.229179614827236117E-16, -1.000000000000000000, 0.000000000000000000 ) ) ;
#22 = CARTESIAN_POINT ( 'NONE',  ( 0.000000000000000000, 0.09375000000000001388, 0.000000000000000000 ) ) ;
#23 = DIRECTION ( 'NONE',  ( 1.000000000000000000, 1.229179614827236117E-16, 0.000000000000000000 ) ) ;
#24 = PRESENTATION_LAYER_ASSIGNMENT (  '', '', ( #186 ) ) ;
#25 = VERTEX_POINT ( 'NONE', #330 ) ;
#26 = STYLED_ITEM ( 'NONE', ( #243 ), #135 ) ;
#27 = ORIENTED_EDGE ( 'NONE', *, *, #267, .T. ) ;
#28 = CARTESIAN_POINT ( 'NONE',  ( -1.148106374200643401E-17, 0.09374999999999998612, 0.000000000000000000 ) ) ;
#29 = PRODUCT_CONTEXT ( 'NONE', #10, 'mechanical' ) ;
#30 = VERTEX_POINT ( 'NONE', #108 ) ;
#31 = ORIENTED_EDGE ( 'NONE', *, *, #156, .T. ) ;
#32 =( NAMED_UNIT ( * ) SI_UNIT ( $, .STERADIAN. ) SOLID_ANGLE_UNIT ( ) );
#33 = MECHANICAL_DESIGN_GEOMETRIC_PRESENTATION_REPRESENTATION (  '', ( #72 ), #265 ) ;
#34 = SURFACE_SIDE_STYLE ('',( #368 ) ) ;
#35 = EDGE_CURVE ( 'NONE', #126, #309, #324, .T. ) ;
#36 = AXIS2_PLACEMENT_3D ( 'NONE', #19, #166, #82 ) ;
#37 = AXIS2_PLACEMENT_3D ( 'NONE', #124, #275, #133 ) ;
#38 = FACE_OUTER_BOUND ( 'NONE', #229, .T. ) ;
#39 = SURFACE_SIDE_STYLE ('',( #213 ) ) ;
#40 = FACE_OUTER_BOUND ( 'NONE', #300, .T. ) ;
#41 = FILL_AREA_STYLE_COLOUR ( '', #182 ) ;
#42 = MECHANICAL_DESIGN_GEOMETRIC_PRESENTATION_REPRESENTATION (  '', ( #26 ), #245 ) ;
#43 = ADVANCED_FACE ( 'NONE', ( #278 ), #134, .T. ) ;
#44 = SURFACE_STYLE_USAGE ( .BOTH. , #228 ) ;
#45 = EDGE_LOOP ( 'NONE', ( #360, #276, #27, #83 ) ) ;
#46 = DIRECTION ( 'NONE',  ( 0.000000000000000000, 0.000000000000000000, -1.000000000000000000 ) ) ;
#47 = ORIENTED_EDGE ( 'NONE', *, *, #204, .F. ) ;
#48 =( GEOMETRIC_REPRESENTATION_CONTEXT ( 3 ) GLOBAL_UNCERTAINTY_ASSIGNED_CONTEXT ( ( #50 ) ) GLOBAL_UNIT_ASSIGNED_CONTEXT ( ( #347, #97, #159 ) ) REPRESENTATION_CONTEXT ( 'NONE', 'WORKASPACE' ) );
#49 = DIMENSIONAL_EXPONENTS ( 1.000000000000000000, 0.000000000000000000, 0.000000000000000000, 0.000000000000000000, 0.000000000000000000, 0.000000000000000000, 0.000000000000000000 ) ;
#50 = UNCERTAINTY_MEASURE_WITH_UNIT (LENGTH_MEASURE( 1.000000000000000082E-05 ), #347, 'distance_accuracy_value', 'NONE');
#51 = LINE ( 'NONE', #286, #94 ) ;
#52 = ORIENTED_EDGE ( 'NONE', *, *, #35, .F. ) ;
#53 = APPLICATION_CONTEXT ( 'automotive_design' ) ;
#54 = DIRECTION ( 'NONE',  ( -1.000000000000000000, 0.000000000000000000, 0.000000000000000000 ) ) ;
#55 = ORIENTED_EDGE ( 'NONE', *, *, #171, .T. ) ;
#56 = AXIS2_PLACEMENT_3D ( 'NONE', #363, #21, #23 ) ;
#57 = AXIS2_PLACEMENT_3D ( 'NONE', #333, #305, #79 ) ;
#58 = CARTESIAN_POINT ( 'NONE',  ( 1.385093474520581624E-16, 1.375000000000000000, 0.000000000000000000 ) ) ;
#59 = FILL_AREA_STYLE ('',( #341 ) ) ;
#60 = EDGE_CURVE ( 'NONE', #4, #25, #64, .T. ) ;
#61 = APPLICATION_PROTOCOL_DEFINITION ( 'draft international standard', 'automotive_design', 1998, #10 ) ;
#62 = FACE_OUTER_BOUND ( 'NONE', #191, .T. ) ;
#63 = LINE ( 'NONE', #210, #111 ) ;
#64 = CIRCLE ( 'NONE', #109, 0.09374999999999998612 ) ;
#65 = AXIS2_PLACEMENT_3D ( 'NONE', #270, #3, #214 ) ;
#66 = CYLINDRICAL_SURFACE ( 'NONE', #37, 0.09374999999999991673 ) ;
#67 = ADVANCED_FACE ( 'NONE', ( #234 ), #367, .T. ) ;
#68 = CIRCLE ( 'NONE', #116, 0.09374999999999983347 ) ;
#69 = STYLED_ITEM ( 'NONE', ( #122 ), #99 ) ;
#70 = FILL_AREA_STYLE_COLOUR ( '', #88 ) ;
#71 = SURFACE_STYLE_USAGE ( .BOTH. , #39 ) ;
#72 = STYLED_ITEM ( 'NONE', ( #165 ), #227 ) ;
#73 = PLANE ( 'NONE',  #179 ) ;
#74 = VERTEX_POINT ( 'NONE', #120 ) ;
#75 = FACE_OUTER_BOUND ( 'NONE', #256, .T. ) ;
#76 = CARTESIAN_POINT ( 'NONE',  ( 0.000000000000000000, 1.375000000000000000, 0.000000000000000000 ) ) ;
#77 = UNCERTAINTY_MEASURE_WITH_UNIT (LENGTH_MEASURE( 1.000000000000000082E-05 ), #81, 'distance_accuracy_value', 'NONE');
#78 = EDGE_CURVE ( 'NONE', #311, #30, #144, .T. ) ;
#79 = DIRECTION ( 'NONE',  ( 0.000000000000000000, 0.000000000000000000, -1.000000000000000000 ) ) ;
#80 = ORIENTED_EDGE ( 'NONE', *, *, #7, .F. ) ;
#81 =( CONVERSION_BASED_UNIT ( 'INCH', #221 ) LENGTH_UNIT ( ) NAMED_UNIT ( #138 ) );
#82 = DIRECTION ( 'NONE',  ( 0.000000000000000000, 0.000000000000000000, -1.000000000000000000 ) ) ;
#83 = ORIENTED_EDGE ( 'NONE', *, *, #156, .F. ) ;
#84 = SURFACE_STYLE_USAGE ( .BOTH. , #206 ) ;
#85 = DIRECTION ( 'NONE',  ( 0.000000000000000000, 0.000000000000000000, -1.000000000000000000 ) ) ;
#86 = CARTESIAN_POINT ( 'NONE',  ( -6.123233995736772199E-17, 3.000000000000000444, 0.000000000000000000 ) ) ;
#87 = ADVANCED_FACE ( 'NONE', ( #62 ), #372, .T. ) ;
#88 = COLOUR_RGB ( '',1.000000000000000000, 0.000000000000000000, 0.000000000000000000 ) ;
#89 = CARTESIAN_POINT ( 'NONE',  ( 0.000000000000000000, 0.000000000000000000, 0.000000000000000000 ) ) ;
#90 = FILL_AREA_STYLE ('',( #237 ) ) ;
#91 =( LENGTH_UNIT ( ) NAMED_UNIT ( * ) SI_UNIT ( $, .METRE. ) );
#92 = DIRECTION ( 'NONE',  ( 1.000000000000000000, 0.000000000000000000, 0.000000000000000000 ) ) ;
#93 = MANIFOLD_SOLID_BREP ( 'Revolve - Cutting Edge', #194 ) ;
#94 = VECTOR ( 'NONE', #163, 39.37007874015748143 ) ;
#95 = LENGTH_MEASURE_WITH_UNIT ( LENGTH_MEASURE( 0.02539999999999999897 ), #185 );
#96 = ORIENTED_EDGE ( 'NONE', *, *, #131, .T. ) ;
#97 =( NAMED_UNIT ( * ) PLANE_ANGLE_UNIT ( ) SI_UNIT ( $, .RADIAN. ) );
#98 = DIRECTION ( 'NONE',  ( -1.000000000000000000, 0.000000000000000000, 0.000000000000000000 ) ) ;
#99 = ADVANCED_FACE ( 'NONE', ( #130 ), #162, .T. ) ;
#100 = CARTESIAN_POINT ( 'NONE',  ( 0.000000000000000000, 0.09375000000000001388, 0.000000000000000000 ) ) ;
#101 = CIRCLE ( 'NONE', #314, 0.09374999999999969469 ) ;
#102 = DIRECTION ( 'NONE',  ( 0.000000000000000000, 0.000000000000000000, -1.000000000000000000 ) ) ;
#103 = CARTESIAN_POINT ( 'NONE',  ( 0.09374999999999981959, 1.375000000000000000, 1.148106374200641706E-17 ) ) ;
#104 = LENGTH_MEASURE_WITH_UNIT ( LENGTH_MEASURE( 0.02539999999999999897 ), #112 );
#105 = EDGE_CURVE ( 'NONE', #4, #126, #187, .T. ) ;
#106 = DIMENSIONAL_EXPONENTS ( 1.000000000000000000, 0.000000000000000000, 0.000000000000000000, 0.000000000000000000, 0.000000000000000000, 0.000000000000000000, 0.000000000000000000 ) ;
#107 = SURFACE_STYLE_FILL_AREA ( #20 ) ;
#108 = CARTESIAN_POINT ( 'NONE',  ( 0.09374999999999981959, 3.000000000000000444, 1.148106374200641706E-17 ) ) ;
#109 = AXIS2_PLACEMENT_3D ( 'NONE', #28, #208, #317 ) ;
#110 = SURFACE_SIDE_STYLE ('',( #306 ) ) ;
#111 = VECTOR ( 'NONE', #366, 39.37007874015748143 ) ;
#112 =( LENGTH_UNIT ( ) NAMED_UNIT ( * ) SI_UNIT ( $, .METRE. ) );
#113 = DIRECTION ( 'NONE',  ( -1.229179614827236117E-16, 1.000000000000000000, 0.000000000000000000 ) ) ;
#114 = SURFACE_STYLE_USAGE ( .BOTH. , #34 ) ;
#115 = DIRECTION ( 'NONE',  ( 0.000000000000000000, 0.000000000000000000, 1.000000000000000000 ) ) ;
#116 = AXIS2_PLACEMENT_3D ( 'NONE', #76, #282, #102 ) ;
#117 = CIRCLE ( 'NONE', #57, 0.09374999999999983347 ) ;
#118 =( LENGTH_UNIT ( ) NAMED_UNIT ( * ) SI_UNIT ( $, .METRE. ) );
#119 = CARTESIAN_POINT ( 'NONE',  ( 0.000000000000000000, 0.09375000000000001388, 0.000000000000000000 ) ) ;
#120 = CARTESIAN_POINT ( 'NONE',  ( 1.148106374200642168E-17, 1.375000000000000000, 0.09374999999999983347 ) ) ;
#121 = PRESENTATION_LAYER_ASSIGNMENT (  '', '', ( #26 ) ) ;
#122 = PRESENTATION_STYLE_ASSIGNMENT (( #71 ) ) ;
#123 = ADVANCED_FACE ( 'NONE', ( #38 ), #269, .T. ) ;
#124 = CARTESIAN_POINT ( 'NONE',  ( 0.000000000000000000, 0.000000000000000000, 0.000000000000000000 ) ) ;
#125 = DIRECTION ( 'NONE',  ( -1.229179614827236117E-16, 1.000000000000000000, -0.000000000000000000 ) ) ;
#126 = VERTEX_POINT ( 'NONE', #299 ) ;
#127 = MECHANICAL_DESIGN_GEOMETRIC_PRESENTATION_REPRESENTATION (  '', ( #293 ), #8 ) ;
#128 = COLOUR_RGB ( '',1.000000000000000000, 0.000000000000000000, 0.000000000000000000 ) ;
#129 = AXIS2_PLACEMENT_3D ( 'NONE', #22, #354, #336 ) ;
#130 = FACE_OUTER_BOUND ( 'NONE', #209, .T. ) ;
#131 = EDGE_CURVE ( 'NONE', #252, #30, #11, .T. ) ;
#132 = EDGE_LOOP ( 'NONE', ( #223, #31 ) ) ;
#133 = DIRECTION ( 'NONE',  ( 0.000000000000000000, 0.000000000000000000, -1.000000000000000000 ) ) ;
#134 = CYLINDRICAL_SURFACE ( 'NONE', #271, 0.09374999999999991673 ) ;
#135 = ADVANCED_FACE ( 'NONE', ( #40 ), #66, .T. ) ;
#136 =( NAMED_UNIT ( * ) SI_UNIT ( $, .STERADIAN. ) SOLID_ANGLE_UNIT ( ) );
#137 = ORIENTED_EDGE ( 'NONE', *, *, #281, .F. ) ;
#138 = DIMENSIONAL_EXPONENTS ( 1.000000000000000000, 0.000000000000000000, 0.000000000000000000, 0.000000000000000000, 0.000000000000000000, 0.000000000000000000, 0.000000000000000000 ) ;
#139 = PRESENTATION_STYLE_ASSIGNMENT (( #192 ) ) ;
#140 = LENGTH_MEASURE_WITH_UNIT ( LENGTH_MEASURE( 0.02539999999999999897 ), #307 );
#141 =( CONVERSION_BASED_UNIT ( 'INCH', #104 ) LENGTH_UNIT ( ) NAMED_UNIT ( #285 ) );
#142 = UNCERTAINTY_MEASURE_WITH_UNIT (LENGTH_MEASURE( 1.000000000000000082E-05 ), #295, 'distance_accuracy_value', 'NONE');
#143 = VERTEX_POINT ( 'NONE', #255 ) ;
#144 = CIRCLE ( 'NONE', #160, 0.09374999999999990286 ) ;
#145 = ORIENTED_EDGE ( 'NONE', *, *, #267, .F. ) ;
#146 = DIRECTION ( 'NONE',  ( -1.229179614827236117E-16, 1.000000000000000000, -0.000000000000000000 ) ) ;
#147 = ORIENTED_EDGE ( 'NONE', *, *, #204, .T. ) ;
#148 =( NAMED_UNIT ( * ) PLANE_ANGLE_UNIT ( ) SI_UNIT ( $, .RADIAN. ) );
#149 = ORIENTED_EDGE ( 'NONE', *, *, #215, .T. ) ;
#150 = CARTESIAN_POINT ( 'NONE',  ( 0.000000000000000000, 1.375000000000000000, -0.09374999999999983347 ) ) ;
#151 = EDGE_CURVE ( 'NONE', #323, #126, #51, .T. ) ;
#152 = COLOUR_RGB ( '',0.7921568627450980005, 0.8196078431372548767, 0.9333333333333333481 ) ;
#153 = DIRECTION ( 'NONE',  ( 1.000000000000000000, 0.000000000000000000, 0.000000000000000000 ) ) ;
#154 =( NAMED_UNIT ( * ) PLANE_ANGLE_UNIT ( ) SI_UNIT ( $, .RADIAN. ) );
#155 = COLOUR_RGB ( '',0.7921568627450980005, 0.8196078431372548767, 0.9333333333333333481 ) ;
#156 = EDGE_CURVE ( 'NONE', #30, #311, #340, .T. ) ;
#157 = CIRCLE ( 'NONE', #321, 0.09374999999999998612 ) ;
#158 = SURFACE_STYLE_USAGE ( .BOTH. , #327 ) ;
#159 =( NAMED_UNIT ( * ) SI_UNIT ( $, .STERADIAN. ) SOLID_ANGLE_UNIT ( ) );
#160 = AXIS2_PLACEMENT_3D ( 'NONE', #86, #201, #315 ) ;
#161 = AXIS2_PLACEMENT_3D ( 'NONE', #119, #273, #246 ) ;
#162 = SPHERICAL_SURFACE ( 'NONE', #65, 0.09374999999999998612 ) ;
#163 = DIRECTION ( 'NONE',  ( -0.000000000000000000, -1.000000000000000000, -0.000000000000000000 ) ) ;
#164 = UNCERTAINTY_MEASURE_WITH_UNIT (LENGTH_MEASURE( 1.000000000000000082E-05 ), #344, 'distance_accuracy_value', 'NONE');
#165 = PRESENTATION_STYLE_ASSIGNMENT (( #44 ) ) ;
#166 = DIRECTION ( 'NONE',  ( -0.000000000000000000, -1.000000000000000000, -0.000000000000000000 ) ) ;
#167 = FILL_AREA_STYLE_COLOUR ( '', #152 ) ;
#168 = ORIENTED_EDGE ( 'NONE', *, *, #215, .F. ) ;
#169 = ADVANCED_BREP_SHAPE_REPRESENTATION ( '82455', ( #93, #227, #266 ), #329 ) ;
#170 =( LENGTH_UNIT ( ) NAMED_UNIT ( * ) SI_UNIT ( $, .METRE. ) );
#171 = EDGE_CURVE ( 'NONE', #361, #4, #249, .T. ) ;
#172 = LINE ( 'NONE', #259, #9 ) ;
#173 = MECHANICAL_DESIGN_GEOMETRIC_PRESENTATION_REPRESENTATION (  '', ( #186 ), #1 ) ;
#174 = DIRECTION ( 'NONE',  ( -1.000000000000000000, 0.000000000000000000, 0.000000000000000000 ) ) ;
#175 = DIRECTION ( 'NONE',  ( 0.000000000000000000, 0.000000000000000000, -1.000000000000000000 ) ) ;
#176 = CARTESIAN_POINT ( 'NONE',  ( -1.148106374200643401E-17, 0.09374999999999998612, 0.000000000000000000 ) ) ;
#177 =( NAMED_UNIT ( * ) SI_UNIT ( $, .STERADIAN. ) SOLID_ANGLE_UNIT ( ) );
#178 = AXIS2_PLACEMENT_3D ( 'NONE', #58, #236, #174 ) ;
#179 = AXIS2_PLACEMENT_3D ( 'NONE', #190, #353, #303 ) ;
#180 = FACE_OUTER_BOUND ( 'NONE', #258, .T. ) ;
#181 =( NAMED_UNIT ( * ) SI_UNIT ( $, .STERADIAN. ) SOLID_ANGLE_UNIT ( ) );
#182 = COLOUR_RGB ( '',1.000000000000000000, 0.000000000000000000, 0.000000000000000000 ) ;
#183 = PRODUCT_DEFINITION_FORMATION_WITH_SPECIFIED_SOURCE ( 'ANY', '', #348, .NOT_KNOWN. ) ;
#184 = LENGTH_MEASURE_WITH_UNIT ( LENGTH_MEASURE( 0.02539999999999999897 ), #241 );
#185 =( LENGTH_UNIT ( ) NAMED_UNIT ( * ) SI_UNIT ( $, .METRE. ) );
#186 = STYLED_ITEM ( 'NONE', ( #320 ), #87 ) ;
#187 = CIRCLE ( 'NONE', #161, 0.09374999999999998612 ) ;
#188 =( NAMED_UNIT ( * ) PLANE_ANGLE_UNIT ( ) SI_UNIT ( $, .RADIAN. ) );
#189 =( NAMED_UNIT ( * ) SI_UNIT ( $, .STERADIAN. ) SOLID_ANGLE_UNIT ( ) );
#190 = CARTESIAN_POINT ( 'NONE',  ( 0.000000000000000000, 1.375000000000000000, 0.000000000000000000 ) ) ;
#191 = EDGE_LOOP ( 'NONE', ( #55, #224, #217, #149 ) ) ;
#192 = SURFACE_STYLE_USAGE ( .BOTH. , #225 ) ;
#193 = FACE_OUTER_BOUND ( 'NONE', #132, .T. ) ;
#194 = CLOSED_SHELL ( 'NONE', ( #87, #43, #222, #135, #99 ) ) ;
#195 = PRESENTATION_LAYER_ASSIGNMENT (  '', '', ( #72 ) ) ;
#196 = FILL_AREA_STYLE ('',( #358 ) ) ;
#197 = UNCERTAINTY_MEASURE_WITH_UNIT (LENGTH_MEASURE( 1.000000000000000082E-05 ), #141, 'distance_accuracy_value', 'NONE');
#198 = PRODUCT_DEFINITION_CONTEXT ( 'detailed design', #53, 'design' ) ;
#199 = SURFACE_STYLE_USAGE ( .BOTH. , #110 ) ;
#200 = ORIENTED_EDGE ( 'NONE', *, *, #357, .T. ) ;
#201 = DIRECTION ( 'NONE',  ( -1.229179614827236117E-16, 1.000000000000000000, -0.000000000000000000 ) ) ;
#202 = ORIENTED_EDGE ( 'NONE', *, *, #151, .T. ) ;
#203 = PRESENTATION_LAYER_ASSIGNMENT (  '', '', ( #69 ) ) ;
#204 = EDGE_CURVE ( 'NONE', #74, #323, #117, .T. ) ;
#205 =( NAMED_UNIT ( * ) PLANE_ANGLE_UNIT ( ) SI_UNIT ( $, .RADIAN. ) );
#206 = SURFACE_SIDE_STYLE ('',( #211 ) ) ;
#207 = CARTESIAN_POINT ( 'NONE',  ( 1.385093474520581624E-16, 1.375000000000000000, 0.000000000000000000 ) ) ;
#208 = DIRECTION ( 'NONE',  ( 1.224646799147353207E-16, -0.000000000000000000, 1.000000000000000000 ) ) ;
#209 = EDGE_LOOP ( 'NONE', ( #231, #290, #226, #200 ) ) ;
#210 = CARTESIAN_POINT ( 'NONE',  ( 1.148106374200642630E-17, 0.000000000000000000, 0.09374999999999991673 ) ) ;
#211 = SURFACE_STYLE_FILL_AREA ( #90 ) ;
#212 =( CONVERSION_BASED_UNIT ( 'INCH', #95 ) LENGTH_UNIT ( ) NAMED_UNIT ( #106 ) );
#213 = SURFACE_STYLE_FILL_AREA ( #6 ) ;
#214 = DIRECTION ( 'NONE',  ( 1.000000000000000000, 0.000000000000000000, 0.000000000000000000 ) ) ;
#215 = EDGE_CURVE ( 'NONE', #309, #361, #240, .T. ) ;
#216 = DIMENSIONAL_EXPONENTS ( 1.000000000000000000, 0.000000000000000000, 0.000000000000000000, 0.000000000000000000, 0.000000000000000000, 0.000000000000000000, 0.000000000000000000 ) ;
#217 = ORIENTED_EDGE ( 'NONE', *, *, #357, .F. ) ;
#218 = DIRECTION ( 'NONE',  ( -1.229179614827236117E-16, 1.000000000000000000, -0.000000000000000000 ) ) ;
#219 = FILL_AREA_STYLE_COLOUR ( '', #325 ) ;
#220 = AXIS2_PLACEMENT_3D ( 'NONE', #239, #115, #92 ) ;
#221 = LENGTH_MEASURE_WITH_UNIT ( LENGTH_MEASURE( 0.02539999999999999897 ), #170 );
#222 = ADVANCED_FACE ( 'NONE', ( #75 ), #73, .T. ) ;
#223 = ORIENTED_EDGE ( 'NONE', *, *, #78, .T. ) ;
#224 = ORIENTED_EDGE ( 'NONE', *, *, #60, .T. ) ;
#225 = SURFACE_SIDE_STYLE ('',( #15 ) ) ;
#226 = ORIENTED_EDGE ( 'NONE', *, *, #35, .T. ) ;
#227 = MANIFOLD_SOLID_BREP ( 'Revolve - Tool Body (Straight Shanked)', #294 ) ;
#228 = SURFACE_SIDE_STYLE ('',( #107 ) ) ;
#229 = EDGE_LOOP ( 'NONE', ( #16, #96, #342, #145 ) ) ;
#230 = DIRECTION ( 'NONE',  ( -1.000000000000000000, 0.000000000000000000, 0.000000000000000000 ) ) ;
#231 = ORIENTED_EDGE ( 'NONE', *, *, #60, .F. ) ;
#232 = DIMENSIONAL_EXPONENTS ( 1.000000000000000000, 0.000000000000000000, 0.000000000000000000, 0.000000000000000000, 0.000000000000000000, 0.000000000000000000, 0.000000000000000000 ) ;
#233 = DIRECTION ( 'NONE',  ( -1.229179614827236117E-16, 1.000000000000000000, -0.000000000000000000 ) ) ;
#234 = FACE_OUTER_BOUND ( 'NONE', #45, .T. ) ;
#235 = PRESENTATION_LAYER_ASSIGNMENT (  '', '', ( #17 ) ) ;
#236 = DIRECTION ( 'NONE',  ( -1.229179614827236117E-16, 1.000000000000000000, -0.000000000000000000 ) ) ;
#237 = FILL_AREA_STYLE_COLOUR ( '', #155 ) ;
#238 = CARTESIAN_POINT ( 'NONE',  ( -6.123233995736772199E-17, 3.000000000000000444, 0.000000000000000000 ) ) ;
#239 = CARTESIAN_POINT ( 'NONE',  ( -1.148106374200643401E-17, 0.09374999999999998612, 0.000000000000000000 ) ) ;
#240 = CIRCLE ( 'NONE', #328, 0.09374999999999998612 ) ;
#241 =( LENGTH_UNIT ( ) NAMED_UNIT ( * ) SI_UNIT ( $, .METRE. ) );
#242 = ORIENTED_EDGE ( 'NONE', *, *, #260, .F. ) ;
#243 = PRESENTATION_STYLE_ASSIGNMENT (( #158 ) ) ;
#244 = FILL_AREA_STYLE ('',( #70 ) ) ;
#245 =( GEOMETRIC_REPRESENTATION_CONTEXT ( 3 ) GLOBAL_UNCERTAINTY_ASSIGNED_CONTEXT ( ( #13 ) ) GLOBAL_UNIT_ASSIGNED_CONTEXT ( ( #212, #349, #181 ) ) REPRESENTATION_CONTEXT ( 'NONE', 'WORKASPACE' ) );
#246 = DIRECTION ( 'NONE',  ( 0.000000000000000000, 0.000000000000000000, -1.000000000000000000 ) ) ;
#247 = DIRECTION ( 'NONE',  ( -1.229179614827236117E-16, 1.000000000000000000, -0.000000000000000000 ) ) ;
#248 = CARTESIAN_POINT ( 'NONE',  ( 0.000000000000000000, 0.000000000000000000, 0.000000000000000000 ) ) ;
#249 = CIRCLE ( 'NONE', #129, 0.09374999999999998612 ) ;
#250 = DIRECTION ( 'NONE',  ( -0.000000000000000000, -1.000000000000000000, -0.000000000000000000 ) ) ;
#251 = ORIENTED_EDGE ( 'NONE', *, *, #151, .F. ) ;
#252 = VERTEX_POINT ( 'NONE', #103 ) ;
#253 = PRODUCT_RELATED_PRODUCT_CATEGORY ( 'part', '', ( #348 ) ) ;
#254 = UNCERTAINTY_MEASURE_WITH_UNIT (LENGTH_MEASURE( 1.000000000000000082E-05 ), #288, 'distance_accuracy_value', 'NONE');
#255 = CARTESIAN_POINT ( 'NONE',  ( -0.09374999999999956979, 1.375000000000000000, 0.000000000000000000 ) ) ;
#256 = EDGE_LOOP ( 'NONE', ( #80, #47 ) ) ;
#257 = MECHANICAL_DESIGN_GEOMETRIC_PRESENTATION_REPRESENTATION (  '', ( #17 ), #263 ) ;
#258 = EDGE_LOOP ( 'NONE', ( #242, #337 ) ) ;
#259 = CARTESIAN_POINT ( 'NONE',  ( -0.09374999999999987510, 3.000000000000000444, 0.000000000000000000 ) ) ;
#260 = EDGE_CURVE ( 'NONE', #143, #252, #335, .T. ) ;
#261 = DIRECTION ( 'NONE',  ( -1.000000000000000000, 0.000000000000000000, 0.000000000000000000 ) ) ;
#262 =( LENGTH_UNIT ( ) NAMED_UNIT ( * ) SI_UNIT ( $, .METRE. ) );
#263 =( GEOMETRIC_REPRESENTATION_CONTEXT ( 3 ) GLOBAL_UNCERTAINTY_ASSIGNED_CONTEXT ( ( #77 ) ) GLOBAL_UNIT_ASSIGNED_CONTEXT ( ( #81, #362, #136 ) ) REPRESENTATION_CONTEXT ( 'NONE', 'WORKASPACE' ) );
#264 = APPLICATION_PROTOCOL_DEFINITION ( 'draft international standard', 'automotive_design', 1998, #53 ) ;
#265 =( GEOMETRIC_REPRESENTATION_CONTEXT ( 3 ) GLOBAL_UNCERTAINTY_ASSIGNED_CONTEXT ( ( #284 ) ) GLOBAL_UNIT_ASSIGNED_CONTEXT ( ( #277, #188, #369 ) ) REPRESENTATION_CONTEXT ( 'NONE', 'WORKASPACE' ) );
#266 = AXIS2_PLACEMENT_3D ( 'NONE', #89, #316, #153 ) ;
#267 = EDGE_CURVE ( 'NONE', #143, #311, #172, .T. ) ;
#268 = ORIENTED_EDGE ( 'NONE', *, *, #105, .F. ) ;
#269 = CYLINDRICAL_SURFACE ( 'NONE', #370, 0.09374999999999980571 ) ;
#270 = CARTESIAN_POINT ( 'NONE',  ( -1.148106374200643401E-17, 0.09374999999999998612, 0.000000000000000000 ) ) ;
#271 = AXIS2_PLACEMENT_3D ( 'NONE', #248, #250, #175 ) ;
#272 = AXIS2_PLACEMENT_3D ( 'NONE', #310, #113, #313 ) ;
#273 = DIRECTION ( 'NONE',  ( -0.000000000000000000, -1.000000000000000000, -0.000000000000000000 ) ) ;
#274 = ADVANCED_FACE ( 'NONE', ( #180 ), #364, .F. ) ;
#275 = DIRECTION ( 'NONE',  ( -0.000000000000000000, -1.000000000000000000, -0.000000000000000000 ) ) ;
#276 = ORIENTED_EDGE ( 'NONE', *, *, #301, .T. ) ;
#277 =( CONVERSION_BASED_UNIT ( 'INCH', #140 ) LENGTH_UNIT ( ) NAMED_UNIT ( #232 ) );
#278 = FACE_OUTER_BOUND ( 'NONE', #5, .T. ) ;
#279 = DIMENSIONAL_EXPONENTS ( 1.000000000000000000, 0.000000000000000000, 0.000000000000000000, 0.000000000000000000, 0.000000000000000000, 0.000000000000000000, 0.000000000000000000 ) ;
#280 = VECTOR ( 'NONE', #218, 39.37007874015748143 ) ;
#281 = EDGE_CURVE ( 'NONE', #74, #361, #63, .T. ) ;
#282 = DIRECTION ( 'NONE',  ( -0.000000000000000000, -1.000000000000000000, -0.000000000000000000 ) ) ;
#283 = PLANE ( 'NONE',  #56 ) ;
#284 = UNCERTAINTY_MEASURE_WITH_UNIT (LENGTH_MEASURE( 1.000000000000000082E-05 ), #277, 'distance_accuracy_value', 'NONE');
#285 = DIMENSIONAL_EXPONENTS ( 1.000000000000000000, 0.000000000000000000, 0.000000000000000000, 0.000000000000000000, 0.000000000000000000, 0.000000000000000000, 0.000000000000000000 ) ;
#286 = CARTESIAN_POINT ( 'NONE',  ( 0.000000000000000000, 0.000000000000000000, -0.09374999999999991673 ) ) ;
#287 = PRESENTATION_LAYER_ASSIGNMENT (  '', '', ( #293 ) ) ;
#288 =( CONVERSION_BASED_UNIT ( 'INCH', #318 ) LENGTH_UNIT ( ) NAMED_UNIT ( #216 ) );
#289 =( NAMED_UNIT ( * ) SI_UNIT ( $, .STERADIAN. ) SOLID_ANGLE_UNIT ( ) );
#290 = ORIENTED_EDGE ( 'NONE', *, *, #105, .T. ) ;
#291 = CARTESIAN_POINT ( 'NONE',  ( 0.09374999999999998612, 0.09375000000000001388, 0.000000000000000000 ) ) ;
#292 = LENGTH_MEASURE_WITH_UNIT ( LENGTH_MEASURE( 0.02539999999999999897 ), #262 );
#293 = STYLED_ITEM ( 'NONE', ( #332 ), #43 ) ;
#294 = CLOSED_SHELL ( 'NONE', ( #123, #274, #67, #14 ) ) ;
#295 =( CONVERSION_BASED_UNIT ( 'INCH', #297 ) LENGTH_UNIT ( ) NAMED_UNIT ( #279 ) );
#296 = MECHANICAL_DESIGN_GEOMETRIC_PRESENTATION_REPRESENTATION (  '', ( #312 ), #346 ) ;
#297 = LENGTH_MEASURE_WITH_UNIT ( LENGTH_MEASURE( 0.02539999999999999897 ), #91 );
#298 = PRODUCT_DEFINITION ( 'UNKNOWN', '', #183, #198 ) ;
#299 = CARTESIAN_POINT ( 'NONE',  ( 0.000000000000000000, 0.09375000000000001388, -0.09374999999999998612 ) ) ;
#300 = EDGE_LOOP ( 'NONE', ( #137, #147, #202, #268, #334 ) ) ;
#301 = EDGE_CURVE ( 'NONE', #252, #143, #101, .T. ) ;
#302 = AXIS2_PLACEMENT_3D ( 'NONE', #238, #339, #54 ) ;
#303 = DIRECTION ( 'NONE',  ( 0.000000000000000000, -0.000000000000000000, 1.000000000000000000 ) ) ;
#304 = CARTESIAN_POINT ( 'NONE',  ( -0.09374999999999998612, 0.09375000000000001388, 1.148106374200643247E-17 ) ) ;
#305 = DIRECTION ( 'NONE',  ( -0.000000000000000000, -1.000000000000000000, -0.000000000000000000 ) ) ;
#306 = SURFACE_STYLE_FILL_AREA ( #196 ) ;
#307 =( LENGTH_UNIT ( ) NAMED_UNIT ( * ) SI_UNIT ( $, .METRE. ) );
#308 =( NAMED_UNIT ( * ) PLANE_ANGLE_UNIT ( ) SI_UNIT ( $, .RADIAN. ) );
#309 = VERTEX_POINT ( 'NONE', #291 ) ;
#310 = CARTESIAN_POINT ( 'NONE',  ( 1.385093474520581624E-16, 1.375000000000000000, 0.000000000000000000 ) ) ;
#311 = VERTEX_POINT ( 'NONE', #338 ) ;
#312 = STYLED_ITEM ( 'NONE', ( #322 ), #93 ) ;
#313 = DIRECTION ( 'NONE',  ( -1.000000000000000000, -1.229179614827236117E-16, 0.000000000000000000 ) ) ;
#314 = AXIS2_PLACEMENT_3D ( 'NONE', #207, #233, #230 ) ;
#315 = DIRECTION ( 'NONE',  ( -1.000000000000000000, 0.000000000000000000, 0.000000000000000000 ) ) ;
#316 = DIRECTION ( 'NONE',  ( 0.000000000000000000, 0.000000000000000000, 1.000000000000000000 ) ) ;
#317 = DIRECTION ( 'NONE',  ( 1.000000000000000000, 0.000000000000000000, -1.224646799147353207E-16 ) ) ;
#318 = LENGTH_MEASURE_WITH_UNIT ( LENGTH_MEASURE( 0.02539999999999999897 ), #118 );
#319 = ORIENTED_EDGE ( 'NONE', *, *, #7, .T. ) ;
#320 = PRESENTATION_STYLE_ASSIGNMENT (( #114 ) ) ;
#321 = AXIS2_PLACEMENT_3D ( 'NONE', #176, #85, #261 ) ;
#322 = PRESENTATION_STYLE_ASSIGNMENT (( #84 ) ) ;
#323 = VERTEX_POINT ( 'NONE', #150 ) ;
#324 = CIRCLE ( 'NONE', #36, 0.09374999999999998612 ) ;
#325 = COLOUR_RGB ( '',1.000000000000000000, 0.000000000000000000, 0.000000000000000000 ) ;
#326 = CARTESIAN_POINT ( 'NONE',  ( 0.09374999999999973632, 3.000000000000000444, 1.148106374200641089E-17 ) ) ;
#327 = SURFACE_SIDE_STYLE ('',( #350 ) ) ;
#328 = AXIS2_PLACEMENT_3D ( 'NONE', #100, #331, #46 ) ;
#329 =( GEOMETRIC_REPRESENTATION_CONTEXT ( 3 ) GLOBAL_UNCERTAINTY_ASSIGNED_CONTEXT ( ( #254 ) ) GLOBAL_UNIT_ASSIGNED_CONTEXT ( ( #288, #205, #32 ) ) REPRESENTATION_CONTEXT ( 'NONE', 'WORKASPACE' ) );
#330 = CARTESIAN_POINT ( 'NONE',  ( -5.740531871003217003E-18, 0.000000000000000000, 0.000000000000000000 ) ) ;
#331 = DIRECTION ( 'NONE',  ( -0.000000000000000000, -1.000000000000000000, -0.000000000000000000 ) ) ;
#332 = PRESENTATION_STYLE_ASSIGNMENT (( #199 ) ) ;
#333 = CARTESIAN_POINT ( 'NONE',  ( 0.000000000000000000, 1.375000000000000000, 0.000000000000000000 ) ) ;
#334 = ORIENTED_EDGE ( 'NONE', *, *, #171, .F. ) ;
#335 = CIRCLE ( 'NONE', #178, 0.09374999999999969469 ) ;
#336 = DIRECTION ( 'NONE',  ( 0.000000000000000000, 0.000000000000000000, -1.000000000000000000 ) ) ;
#337 = ORIENTED_EDGE ( 'NONE', *, *, #301, .F. ) ;
#338 = CARTESIAN_POINT ( 'NONE',  ( -0.09374999999999997224, 3.000000000000000444, 0.000000000000000000 ) ) ;
#339 = DIRECTION ( 'NONE',  ( -1.229179614827236117E-16, 1.000000000000000000, -0.000000000000000000 ) ) ;
#340 = CIRCLE ( 'NONE', #351, 0.09374999999999990286 ) ;
#341 = FILL_AREA_STYLE_COLOUR ( '', #345 ) ;
#342 = ORIENTED_EDGE ( 'NONE', *, *, #78, .F. ) ;
#343 = CARTESIAN_POINT ( 'NONE',  ( 1.148106374200643401E-17, 0.09375000000000001388, 0.09374999999999998612 ) ) ;
#344 =( CONVERSION_BASED_UNIT ( 'INCH', #292 ) LENGTH_UNIT ( ) NAMED_UNIT ( #49 ) );
#345 = COLOUR_RGB ( '',1.000000000000000000, 0.000000000000000000, 0.000000000000000000 ) ;
#346 =( GEOMETRIC_REPRESENTATION_CONTEXT ( 3 ) GLOBAL_UNCERTAINTY_ASSIGNED_CONTEXT ( ( #142 ) ) GLOBAL_UNIT_ASSIGNED_CONTEXT ( ( #295, #154, #289 ) ) REPRESENTATION_CONTEXT ( 'NONE', 'WORKASPACE' ) );
#347 =( CONVERSION_BASED_UNIT ( 'INCH', #184 ) LENGTH_UNIT ( ) NAMED_UNIT ( #359 ) );
#348 = PRODUCT ( '82455', '82455', '', ( #29 ) ) ;
#349 =( NAMED_UNIT ( * ) PLANE_ANGLE_UNIT ( ) SI_UNIT ( $, .RADIAN. ) );
#350 = SURFACE_STYLE_FILL_AREA ( #244 ) ;
#351 = AXIS2_PLACEMENT_3D ( 'NONE', #12, #247, #18 ) ;
#352 = CARTESIAN_POINT ( 'NONE',  ( -6.123233995736772199E-17, 3.000000000000000444, 0.000000000000000000 ) ) ;
#353 = DIRECTION ( 'NONE',  ( 0.000000000000000000, 1.000000000000000000, 0.000000000000000000 ) ) ;
#354 = DIRECTION ( 'NONE',  ( -0.000000000000000000, -1.000000000000000000, -0.000000000000000000 ) ) ;
#355 = PRESENTATION_LAYER_ASSIGNMENT (  '', '', ( #312 ) ) ;
#356 = FILL_AREA_STYLE ('',( #219 ) ) ;
#357 = EDGE_CURVE ( 'NONE', #309, #25, #157, .T. ) ;
#358 = FILL_AREA_STYLE_COLOUR ( '', #128 ) ;
#359 = DIMENSIONAL_EXPONENTS ( 1.000000000000000000, 0.000000000000000000, 0.000000000000000000, 0.000000000000000000, 0.000000000000000000, 0.000000000000000000, 0.000000000000000000 ) ;
#360 = ORIENTED_EDGE ( 'NONE', *, *, #131, .F. ) ;
#361 = VERTEX_POINT ( 'NONE', #343 ) ;
#362 =( NAMED_UNIT ( * ) PLANE_ANGLE_UNIT ( ) SI_UNIT ( $, .RADIAN. ) );
#363 = CARTESIAN_POINT ( 'NONE',  ( 0.09374999999999983347, 3.000000000000000444, 0.000000000000000000 ) ) ;
#364 = PLANE ( 'NONE',  #272 ) ;
#365 = ORIENTED_EDGE ( 'NONE', *, *, #281, .T. ) ;
#366 = DIRECTION ( 'NONE',  ( -0.000000000000000000, -1.000000000000000000, -0.000000000000000000 ) ) ;
#367 = CYLINDRICAL_SURFACE ( 'NONE', #302, 0.09374999999999980571 ) ;
#368 = SURFACE_STYLE_FILL_AREA ( #59 ) ;
#369 =( NAMED_UNIT ( * ) SI_UNIT ( $, .STERADIAN. ) SOLID_ANGLE_UNIT ( ) );
#370 = AXIS2_PLACEMENT_3D ( 'NONE', #352, #125, #98 ) ;
#371 = SHAPE_DEFINITION_REPRESENTATION ( #373, #169 ) ;
#372 = SPHERICAL_SURFACE ( 'NONE', #220, 0.09374999999999998612 ) ;
#373 = PRODUCT_DEFINITION_SHAPE ( 'NONE', 'NONE',  #298 ) ;
ENDSEC;
END-ISO-10303-21;
