ISO-10303-21;
HEADER;
FILE_DESCRIPTION (( 'STEP AP214' ),
    '1' );
FILE_NAME ('44227W.STEP',
    '2023-06-22T19:42:54',
    ( '' ),
    ( '' ),
    'SwSTEP 2.0',
    'SolidWorks 2023',
    '' );
FILE_SCHEMA (( 'AUTOMOTIVE_DESIGN' ));
ENDSEC;

DATA;
#1 = EDGE_CURVE ( 'NONE', #75, #102, #297, .T. ) ;
#2 = CARTESIAN_POINT ( 'NONE',  ( 0.000000000000000000, 0.000000000000000000, 0.000000000000000000 ) ) ;
#3 = LENGTH_MEASURE_WITH_UNIT ( LENGTH_MEASURE( 0.02539999999999999897 ), #108 );
#4 = MANIFOLD_SOLID_BREP ( 'Revolve - Cutting Edge', #51 ) ;
#5 = VERTEX_POINT ( 'NONE', #285 ) ;
#6 = FACE_OUTER_BOUND ( 'NONE', #136, .T. ) ;
#7 = ADVANCED_FACE ( 'NONE', ( #23 ), #213, .F. ) ;
#8 = EDGE_LOOP ( 'NONE', ( #161, #89 ) ) ;
#9 = AXIS2_PLACEMENT_3D ( 'NONE', #242, #162, #182 ) ;
#10 = UNCERTAINTY_MEASURE_WITH_UNIT (LENGTH_MEASURE( 1.000000000000000082E-05 ), #173, 'distance_accuracy_value', 'NONE');
#11 = CARTESIAN_POINT ( 'NONE',  ( 0.1875000000000000555, 3.000000000000000444, 2.296212748401289266E-17 ) ) ;
#12 = DIMENSIONAL_EXPONENTS ( 1.000000000000000000, 0.000000000000000000, 0.000000000000000000, 0.000000000000000000, 0.000000000000000000, 0.000000000000000000, 0.000000000000000000 ) ;
#13 = CARTESIAN_POINT ( 'NONE',  ( -1.224646799147353700E-16, 3.000000000000000444, 0.000000000000000000 ) ) ;
#14 = ORIENTED_EDGE ( 'NONE', *, *, #188, .T. ) ;
#15 = CARTESIAN_POINT ( 'NONE',  ( 2.296212748401288034E-17, 1.000000000000000000, 0.1875000000000000555 ) ) ;
#16 = UNCERTAINTY_MEASURE_WITH_UNIT (LENGTH_MEASURE( 1.000000000000000082E-05 ), #265, 'distance_accuracy_value', 'NONE');
#17 = LENGTH_MEASURE_WITH_UNIT ( LENGTH_MEASURE( 0.02539999999999999897 ), #123 );
#18 = PRESENTATION_LAYER_ASSIGNMENT (  '', '', ( #292 ) ) ;
#19 = CARTESIAN_POINT ( 'NONE',  ( 2.296212748401287726E-17, 0.000000000000000000, 0.1875000000000000278 ) ) ;
#20 = DIRECTION ( 'NONE',  ( -6.123233995736769734E-17, 1.000000000000000000, -0.000000000000000000 ) ) ;
#21 = PRESENTATION_STYLE_ASSIGNMENT (( #142 ) ) ;
#22 = DIRECTION ( 'NONE',  ( -0.000000000000000000, -1.000000000000000000, -0.000000000000000000 ) ) ;
#23 = FACE_OUTER_BOUND ( 'NONE', #8, .T. ) ;
#24 =( GEOMETRIC_REPRESENTATION_CONTEXT ( 3 ) GLOBAL_UNCERTAINTY_ASSIGNED_CONTEXT ( ( #10 ) ) GLOBAL_UNIT_ASSIGNED_CONTEXT ( ( #173, #198, #189 ) ) REPRESENTATION_CONTEXT ( 'NONE', 'WORKASPACE' ) );
#25 = AXIS2_PLACEMENT_3D ( 'NONE', #2, #296, #294 ) ;
#26 = SURFACE_STYLE_FILL_AREA ( #99 ) ;
#27 = LENGTH_MEASURE_WITH_UNIT ( LENGTH_MEASURE( 0.02539999999999999897 ), #218 );
#28 = ADVANCED_FACE ( 'NONE', ( #145 ), #270, .T. ) ;
#29 = CIRCLE ( 'NONE', #148, 0.1875000000000000555 ) ;
#30 = DIMENSIONAL_EXPONENTS ( 1.000000000000000000, 0.000000000000000000, 0.000000000000000000, 0.000000000000000000, 0.000000000000000000, 0.000000000000000000, 0.000000000000000000 ) ;
#31 = PRODUCT_DEFINITION_SHAPE ( 'NONE', 'NONE',  #222 ) ;
#32 = STYLED_ITEM ( 'NONE', ( #119 ), #4 ) ;
#33 = VECTOR ( 'NONE', #60, 39.37007874015748143 ) ;
#34 = MECHANICAL_DESIGN_GEOMETRIC_PRESENTATION_REPRESENTATION (  '', ( #32 ), #219 ) ;
#35 = DIMENSIONAL_EXPONENTS ( 1.000000000000000000, 0.000000000000000000, 0.000000000000000000, 0.000000000000000000, 0.000000000000000000, 0.000000000000000000, 0.000000000000000000 ) ;
#36 = CYLINDRICAL_SURFACE ( 'NONE', #176, 0.1875000000000000555 ) ;
#37 = DIRECTION ( 'NONE',  ( 0.000000000000000000, 0.000000000000000000, -1.000000000000000000 ) ) ;
#38 = ORIENTED_EDGE ( 'NONE', *, *, #264, .T. ) ;
#39 = ORIENTED_EDGE ( 'NONE', *, *, #1, .T. ) ;
#40 = AXIS2_PLACEMENT_3D ( 'NONE', #174, #181, #276 ) ;
#41 = CARTESIAN_POINT ( 'NONE',  ( 0.1875000000000000555, 3.000000000000000444, 0.000000000000000000 ) ) ;
#42 = AXIS2_PLACEMENT_3D ( 'NONE', #199, #128, #150 ) ;
#43 =( NAMED_UNIT ( * ) SI_UNIT ( $, .STERADIAN. ) SOLID_ANGLE_UNIT ( ) );
#44 = CARTESIAN_POINT ( 'NONE',  ( 3.515061990613733900E-34, 1.000000000000000000, 0.000000000000000000 ) ) ;
#45 = SURFACE_STYLE_FILL_AREA ( #146 ) ;
#46 = EDGE_CURVE ( 'NONE', #205, #251, #266, .T. ) ;
#47 = ORIENTED_EDGE ( 'NONE', *, *, #228, .F. ) ;
#48 = DIRECTION ( 'NONE',  ( -6.123233995736769734E-17, 1.000000000000000000, -0.000000000000000000 ) ) ;
#49 = APPLICATION_CONTEXT ( 'automotive_design' ) ;
#50 = EDGE_LOOP ( 'NONE', ( #14, #186, #138, #61 ) ) ;
#51 = CLOSED_SHELL ( 'NONE', ( #210, #124, #28, #278 ) ) ;
#52 = PRESENTATION_LAYER_ASSIGNMENT (  '', '', ( #32 ) ) ;
#53 = PRESENTATION_LAYER_ASSIGNMENT (  '', '', ( #288 ) ) ;
#54 =( NAMED_UNIT ( * ) SI_UNIT ( $, .STERADIAN. ) SOLID_ANGLE_UNIT ( ) );
#55 = PRESENTATION_LAYER_ASSIGNMENT (  '', '', ( #275 ) ) ;
#56 = UNCERTAINTY_MEASURE_WITH_UNIT (LENGTH_MEASURE( 1.000000000000000082E-05 ), #269, 'distance_accuracy_value', 'NONE');
#57 = CARTESIAN_POINT ( 'NONE',  ( -0.1875000000000003331, 3.000000000000000444, 0.000000000000000000 ) ) ;
#58 = PRODUCT ( '44227W', '44227W', '', ( #295 ) ) ;
#59 =( GEOMETRIC_REPRESENTATION_CONTEXT ( 3 ) GLOBAL_UNCERTAINTY_ASSIGNED_CONTEXT ( ( #112 ) ) GLOBAL_UNIT_ASSIGNED_CONTEXT ( ( #256, #164, #262 ) ) REPRESENTATION_CONTEXT ( 'NONE', 'WORKASPACE' ) );
#60 = DIRECTION ( 'NONE',  ( -0.000000000000000000, -1.000000000000000000, -0.000000000000000000 ) ) ;
#61 = ORIENTED_EDGE ( 'NONE', *, *, #155, .F. ) ;
#62 = DIMENSIONAL_EXPONENTS ( 1.000000000000000000, 0.000000000000000000, 0.000000000000000000, 0.000000000000000000, 0.000000000000000000, 0.000000000000000000, 0.000000000000000000 ) ;
#63 = DIRECTION ( 'NONE',  ( -6.123233995736769734E-17, 1.000000000000000000, -0.000000000000000000 ) ) ;
#64 = MECHANICAL_DESIGN_GEOMETRIC_PRESENTATION_REPRESENTATION (  '', ( #292 ), #24 ) ;
#65 =( GEOMETRIC_REPRESENTATION_CONTEXT ( 3 ) GLOBAL_UNCERTAINTY_ASSIGNED_CONTEXT ( ( #16 ) ) GLOBAL_UNIT_ASSIGNED_CONTEXT ( ( #265, #220, #226 ) ) REPRESENTATION_CONTEXT ( 'NONE', 'WORKASPACE' ) );
#66 = ORIENTED_EDGE ( 'NONE', *, *, #228, .T. ) ;
#67 = CARTESIAN_POINT ( 'NONE',  ( -1.224646799147353700E-16, 3.000000000000000444, 0.000000000000000000 ) ) ;
#68 = FILL_AREA_STYLE_COLOUR ( '', #73 ) ;
#69 = DIRECTION ( 'NONE',  ( -0.000000000000000000, -1.000000000000000000, -0.000000000000000000 ) ) ;
#70 = LINE ( 'NONE', #305, #201 ) ;
#71 = ORIENTED_EDGE ( 'NONE', *, *, #169, .F. ) ;
#72 = ADVANCED_FACE ( 'NONE', ( #240 ), #212, .T. ) ;
#73 = COLOUR_RGB ( '',1.000000000000000000, 0.000000000000000000, 0.000000000000000000 ) ;
#74 = SURFACE_STYLE_FILL_AREA ( #77 ) ;
#75 = VERTEX_POINT ( 'NONE', #15 ) ;
#76 = SURFACE_STYLE_USAGE ( .BOTH. , #193 ) ;
#77 = FILL_AREA_STYLE ('',( #286 ) ) ;
#78 =( NAMED_UNIT ( * ) SI_UNIT ( $, .STERADIAN. ) SOLID_ANGLE_UNIT ( ) );
#79 = EDGE_LOOP ( 'NONE', ( #268, #91 ) ) ;
#80 = VECTOR ( 'NONE', #273, 39.37007874015748143 ) ;
#81 = CARTESIAN_POINT ( 'NONE',  ( -1.224646799147353700E-16, 3.000000000000000444, 0.000000000000000000 ) ) ;
#82 = SHAPE_DEFINITION_REPRESENTATION ( #31, #216 ) ;
#83 = COLOUR_RGB ( '',1.000000000000000000, 0.000000000000000000, 0.000000000000000000 ) ;
#84 = AXIS2_PLACEMENT_3D ( 'NONE', #81, #221, #177 ) ;
#85 = DIRECTION ( 'NONE',  ( -6.123233995736769734E-17, 1.000000000000000000, -0.000000000000000000 ) ) ;
#86 = DIRECTION ( 'NONE',  ( 0.000000000000000000, 0.000000000000000000, -1.000000000000000000 ) ) ;
#87 = DIMENSIONAL_EXPONENTS ( 1.000000000000000000, 0.000000000000000000, 0.000000000000000000, 0.000000000000000000, 0.000000000000000000, 0.000000000000000000, 0.000000000000000000 ) ;
#88 = DIRECTION ( 'NONE',  ( -0.000000000000000000, -1.000000000000000000, -0.000000000000000000 ) ) ;
#89 = ORIENTED_EDGE ( 'NONE', *, *, #202, .F. ) ;
#90 = AXIS2_PLACEMENT_3D ( 'NONE', #200, #85, #206 ) ;
#91 = ORIENTED_EDGE ( 'NONE', *, *, #1, .F. ) ;
#92 = ORIENTED_EDGE ( 'NONE', *, *, #299, .F. ) ;
#93 = SURFACE_STYLE_FILL_AREA ( #233 ) ;
#94 =( GEOMETRIC_REPRESENTATION_CONTEXT ( 3 ) GLOBAL_UNCERTAINTY_ASSIGNED_CONTEXT ( ( #56 ) ) GLOBAL_UNIT_ASSIGNED_CONTEXT ( ( #269, #267, #54 ) ) REPRESENTATION_CONTEXT ( 'NONE', 'WORKASPACE' ) );
#95 = FACE_OUTER_BOUND ( 'NONE', #154, .T. ) ;
#96 = PRESENTATION_STYLE_ASSIGNMENT (( #139 ) ) ;
#97 = PLANE ( 'NONE',  #25 ) ;
#98 = AXIS2_PLACEMENT_3D ( 'NONE', #125, #69, #37 ) ;
#99 = FILL_AREA_STYLE ('',( #308 ) ) ;
#100 = DIRECTION ( 'NONE',  ( -0.000000000000000000, -1.000000000000000000, -0.000000000000000000 ) ) ;
#101 = CARTESIAN_POINT ( 'NONE',  ( 3.032960542342103792E-32, 1.000000000000000000, 0.000000000000000000 ) ) ;
#102 = VERTEX_POINT ( 'NONE', #120 ) ;
#103 = DIRECTION ( 'NONE',  ( -6.123233995736769734E-17, 1.000000000000000000, 0.000000000000000000 ) ) ;
#104 = EDGE_CURVE ( 'NONE', #5, #197, #279, .T. ) ;
#105 =( GEOMETRIC_REPRESENTATION_CONTEXT ( 3 ) GLOBAL_UNCERTAINTY_ASSIGNED_CONTEXT ( ( #203 ) ) GLOBAL_UNIT_ASSIGNED_CONTEXT ( ( #303, #282, #43 ) ) REPRESENTATION_CONTEXT ( 'NONE', 'WORKASPACE' ) );
#106 = CYLINDRICAL_SURFACE ( 'NONE', #211, 0.1875000000000001110 ) ;
#107 = CIRCLE ( 'NONE', #144, 0.1875000000000000555 ) ;
#108 =( LENGTH_UNIT ( ) NAMED_UNIT ( * ) SI_UNIT ( $, .METRE. ) );
#109 = PRODUCT_RELATED_PRODUCT_CATEGORY ( 'part', '', ( #58 ) ) ;
#110 = PRESENTATION_STYLE_ASSIGNMENT (( #151 ) ) ;
#111 =( CONVERSION_BASED_UNIT ( 'INCH', #209 ) LENGTH_UNIT ( ) NAMED_UNIT ( #300 ) );
#112 = UNCERTAINTY_MEASURE_WITH_UNIT (LENGTH_MEASURE( 1.000000000000000082E-05 ), #256, 'distance_accuracy_value', 'NONE');
#113 = FACE_OUTER_BOUND ( 'NONE', #50, .T. ) ;
#114 = PLANE ( 'NONE',  #40 ) ;
#115 = CARTESIAN_POINT ( 'NONE',  ( 0.000000000000000000, 0.000000000000000000, -0.1875000000000000555 ) ) ;
#116 = ORIENTED_EDGE ( 'NONE', *, *, #129, .F. ) ;
#117 = AXIS2_PLACEMENT_3D ( 'NONE', #13, #63, #183 ) ;
#118 = SURFACE_STYLE_FILL_AREA ( #239 ) ;
#119 = PRESENTATION_STYLE_ASSIGNMENT (( #307 ) ) ;
#120 = CARTESIAN_POINT ( 'NONE',  ( 0.000000000000000000, 1.000000000000000000, -0.1875000000000000555 ) ) ;
#121 = CIRCLE ( 'NONE', #117, 0.1875000000000001943 ) ;
#122 = VERTEX_POINT ( 'NONE', #236 ) ;
#123 =( LENGTH_UNIT ( ) NAMED_UNIT ( * ) SI_UNIT ( $, .METRE. ) );
#124 = ADVANCED_FACE ( 'NONE', ( #283 ), #114, .T. ) ;
#125 = CARTESIAN_POINT ( 'NONE',  ( 0.000000000000000000, 0.000000000000000000, 0.000000000000000000 ) ) ;
#126 = CARTESIAN_POINT ( 'NONE',  ( 0.000000000000000000, 0.000000000000000000, 0.000000000000000000 ) ) ;
#127 = FILL_AREA_STYLE ('',( #68 ) ) ;
#128 = DIRECTION ( 'NONE',  ( 0.000000000000000000, 0.000000000000000000, 1.000000000000000000 ) ) ;
#129 = EDGE_CURVE ( 'NONE', #75, #251, #135, .T. ) ;
#130 =( CONVERSION_BASED_UNIT ( 'INCH', #137 ) LENGTH_UNIT ( ) NAMED_UNIT ( #30 ) );
#131 =( LENGTH_UNIT ( ) NAMED_UNIT ( * ) SI_UNIT ( $, .METRE. ) );
#132 = ORIENTED_EDGE ( 'NONE', *, *, #104, .F. ) ;
#133 = CARTESIAN_POINT ( 'NONE',  ( 0.1874999999999999722, 3.000000000000000444, 2.296212748401288650E-17 ) ) ;
#134 = UNCERTAINTY_MEASURE_WITH_UNIT (LENGTH_MEASURE( 1.000000000000000082E-05 ), #111, 'distance_accuracy_value', 'NONE');
#135 = LINE ( 'NONE', #281, #33 ) ;
#136 = EDGE_LOOP ( 'NONE', ( #38, #158, #92, #47 ) ) ;
#137 = LENGTH_MEASURE_WITH_UNIT ( LENGTH_MEASURE( 0.02539999999999999897 ), #195 );
#138 = ORIENTED_EDGE ( 'NONE', *, *, #46, .F. ) ;
#139 = SURFACE_STYLE_USAGE ( .BOTH. , #160 ) ;
#140 = DIRECTION ( 'NONE',  ( 6.123233995736769734E-17, -1.000000000000000000, 0.000000000000000000 ) ) ;
#141 = CARTESIAN_POINT ( 'NONE',  ( 0.000000000000000000, 1.000000000000000000, 0.000000000000000000 ) ) ;
#142 = SURFACE_STYLE_USAGE ( .BOTH. , #165 ) ;
#143 = ADVANCED_FACE ( 'NONE', ( #6 ), #106, .T. ) ;
#144 = AXIS2_PLACEMENT_3D ( 'NONE', #101, #290, #306 ) ;
#145 = FACE_OUTER_BOUND ( 'NONE', #254, .T. ) ;
#146 = FILL_AREA_STYLE ('',( #237 ) ) ;
#147 = DIRECTION ( 'NONE',  ( 0.000000000000000000, 0.000000000000000000, -1.000000000000000000 ) ) ;
#148 = AXIS2_PLACEMENT_3D ( 'NONE', #277, #234, #156 ) ;
#149 = CIRCLE ( 'NONE', #293, 0.1875000000000000278 ) ;
#150 = DIRECTION ( 'NONE',  ( 1.000000000000000000, 0.000000000000000000, 0.000000000000000000 ) ) ;
#151 = SURFACE_STYLE_USAGE ( .BOTH. , #227 ) ;
#152 = UNCERTAINTY_MEASURE_WITH_UNIT (LENGTH_MEASURE( 1.000000000000000082E-05 ), #130, 'distance_accuracy_value', 'NONE');
#153 = DIMENSIONAL_EXPONENTS ( 1.000000000000000000, 0.000000000000000000, 0.000000000000000000, 0.000000000000000000, 0.000000000000000000, 0.000000000000000000, 0.000000000000000000 ) ;
#154 = EDGE_LOOP ( 'NONE', ( #235, #249 ) ) ;
#155 = EDGE_CURVE ( 'NONE', #102, #205, #257, .T. ) ;
#156 = DIRECTION ( 'NONE',  ( 0.000000000000000000, 0.000000000000000000, -1.000000000000000000 ) ) ;
#157 = MECHANICAL_DESIGN_GEOMETRIC_PRESENTATION_REPRESENTATION (  '', ( #238 ), #105 ) ;
#158 = ORIENTED_EDGE ( 'NONE', *, *, #104, .T. ) ;
#159 = CIRCLE ( 'NONE', #84, 0.1875000000000001943 ) ;
#160 = SURFACE_SIDE_STYLE ('',( #93 ) ) ;
#161 = ORIENTED_EDGE ( 'NONE', *, *, #264, .F. ) ;
#162 = DIRECTION ( 'NONE',  ( -0.000000000000000000, -1.000000000000000000, -0.000000000000000000 ) ) ;
#163 = PLANE ( 'NONE',  #244 ) ;
#164 =( NAMED_UNIT ( * ) PLANE_ANGLE_UNIT ( ) SI_UNIT ( $, .RADIAN. ) );
#165 = SURFACE_SIDE_STYLE ('',( #74 ) ) ;
#166 = ORIENTED_EDGE ( 'NONE', *, *, #202, .T. ) ;
#167 = PRESENTATION_STYLE_ASSIGNMENT (( #76 ) ) ;
#168 = LENGTH_MEASURE_WITH_UNIT ( LENGTH_MEASURE( 0.02539999999999999897 ), #194 );
#169 = EDGE_CURVE ( 'NONE', #197, #204, #121, .T. ) ;
#170 = PRESENTATION_STYLE_ASSIGNMENT (( #258 ) ) ;
#171 = COLOUR_RGB ( '',0.7921568627450980005, 0.8196078431372548767, 0.9333333333333333481 ) ;
#172 = VECTOR ( 'NONE', #48, 39.37007874015748143 ) ;
#173 =( CONVERSION_BASED_UNIT ( 'INCH', #27 ) LENGTH_UNIT ( ) NAMED_UNIT ( #12 ) );
#174 = CARTESIAN_POINT ( 'NONE',  ( 0.000000000000000000, 1.000000000000000000, 0.000000000000000000 ) ) ;
#175 = EDGE_LOOP ( 'NONE', ( #132, #166, #66, #71 ) ) ;
#176 = AXIS2_PLACEMENT_3D ( 'NONE', #191, #100, #196 ) ;
#177 = DIRECTION ( 'NONE',  ( -1.000000000000000000, 0.000000000000000000, 0.000000000000000000 ) ) ;
#178 = PRESENTATION_LAYER_ASSIGNMENT (  '', '', ( #238 ) ) ;
#179 = ORIENTED_EDGE ( 'NONE', *, *, #155, .T. ) ;
#180 = EDGE_LOOP ( 'NONE', ( #255, #232 ) ) ;
#181 = DIRECTION ( 'NONE',  ( 0.000000000000000000, 1.000000000000000000, 0.000000000000000000 ) ) ;
#182 = DIRECTION ( 'NONE',  ( 0.000000000000000000, 0.000000000000000000, -1.000000000000000000 ) ) ;
#183 = DIRECTION ( 'NONE',  ( -1.000000000000000000, 0.000000000000000000, 0.000000000000000000 ) ) ;
#184 = CLOSED_SHELL ( 'NONE', ( #143, #7, #72, #246 ) ) ;
#185 = COLOUR_RGB ( '',1.000000000000000000, 0.000000000000000000, 0.000000000000000000 ) ;
#186 = ORIENTED_EDGE ( 'NONE', *, *, #129, .T. ) ;
#187 = LENGTH_MEASURE_WITH_UNIT ( LENGTH_MEASURE( 0.02539999999999999897 ), #190 );
#188 = EDGE_CURVE ( 'NONE', #102, #75, #29, .T. ) ;
#189 =( NAMED_UNIT ( * ) SI_UNIT ( $, .STERADIAN. ) SOLID_ANGLE_UNIT ( ) );
#190 =( LENGTH_UNIT ( ) NAMED_UNIT ( * ) SI_UNIT ( $, .METRE. ) );
#191 = CARTESIAN_POINT ( 'NONE',  ( 0.000000000000000000, 0.000000000000000000, 0.000000000000000000 ) ) ;
#192 = AXIS2_PLACEMENT_3D ( 'NONE', #44, #103, #217 ) ;
#193 = SURFACE_SIDE_STYLE ('',( #26 ) ) ;
#194 =( LENGTH_UNIT ( ) NAMED_UNIT ( * ) SI_UNIT ( $, .METRE. ) );
#195 =( LENGTH_UNIT ( ) NAMED_UNIT ( * ) SI_UNIT ( $, .METRE. ) );
#196 = DIRECTION ( 'NONE',  ( 0.000000000000000000, 0.000000000000000000, -1.000000000000000000 ) ) ;
#197 = VERTEX_POINT ( 'NONE', #11 ) ;
#198 =( NAMED_UNIT ( * ) PLANE_ANGLE_UNIT ( ) SI_UNIT ( $, .RADIAN. ) );
#199 = CARTESIAN_POINT ( 'NONE',  ( 0.000000000000000000, 0.000000000000000000, 0.000000000000000000 ) ) ;
#200 = CARTESIAN_POINT ( 'NONE',  ( 3.032960542342103792E-32, 1.000000000000000000, 0.000000000000000000 ) ) ;
#201 = VECTOR ( 'NONE', #263, 39.37007874015748143 ) ;
#202 = EDGE_CURVE ( 'NONE', #5, #122, #207, .T. ) ;
#203 = UNCERTAINTY_MEASURE_WITH_UNIT (LENGTH_MEASURE( 1.000000000000000082E-05 ), #303, 'distance_accuracy_value', 'NONE');
#204 = VERTEX_POINT ( 'NONE', #57 ) ;
#205 = VERTEX_POINT ( 'NONE', #208 ) ;
#206 = DIRECTION ( 'NONE',  ( -1.000000000000000000, 0.000000000000000000, 0.000000000000000000 ) ) ;
#207 = CIRCLE ( 'NONE', #90, 0.1875000000000000555 ) ;
#208 = CARTESIAN_POINT ( 'NONE',  ( 0.000000000000000000, 0.000000000000000000, -0.1875000000000000278 ) ) ;
#209 = LENGTH_MEASURE_WITH_UNIT ( LENGTH_MEASURE( 0.02539999999999999897 ), #131 );
#210 = ADVANCED_FACE ( 'NONE', ( #113 ), #36, .T. ) ;
#211 = AXIS2_PLACEMENT_3D ( 'NONE', #248, #252, #253 ) ;
#212 = CYLINDRICAL_SURFACE ( 'NONE', #259, 0.1875000000000001110 ) ;
#213 = PLANE ( 'NONE',  #192 ) ;
#214 = SURFACE_SIDE_STYLE ('',( #118 ) ) ;
#215 = DIRECTION ( 'NONE',  ( -1.000000000000000000, 0.000000000000000000, 0.000000000000000000 ) ) ;
#216 = ADVANCED_BREP_SHAPE_REPRESENTATION ( '44227W', ( #4, #223, #42 ), #94 ) ;
#217 = DIRECTION ( 'NONE',  ( -1.000000000000000000, -6.123233995736769734E-17, 0.000000000000000000 ) ) ;
#218 =( LENGTH_UNIT ( ) NAMED_UNIT ( * ) SI_UNIT ( $, .METRE. ) );
#219 =( GEOMETRIC_REPRESENTATION_CONTEXT ( 3 ) GLOBAL_UNCERTAINTY_ASSIGNED_CONTEXT ( ( #152 ) ) GLOBAL_UNIT_ASSIGNED_CONTEXT ( ( #130, #230, #78 ) ) REPRESENTATION_CONTEXT ( 'NONE', 'WORKASPACE' ) );
#220 =( NAMED_UNIT ( * ) PLANE_ANGLE_UNIT ( ) SI_UNIT ( $, .RADIAN. ) );
#221 = DIRECTION ( 'NONE',  ( -6.123233995736769734E-17, 1.000000000000000000, -0.000000000000000000 ) ) ;
#222 = PRODUCT_DEFINITION ( 'UNKNOWN', '', #272, #271 ) ;
#223 = MANIFOLD_SOLID_BREP ( 'Revolve - Tool Body (Straight Shanked)', #184 ) ;
#224 = COLOUR_RGB ( '',1.000000000000000000, 0.000000000000000000, 0.000000000000000000 ) ;
#225 = APPLICATION_PROTOCOL_DEFINITION ( 'draft international standard', 'automotive_design', 1998, #274 ) ;
#226 =( NAMED_UNIT ( * ) SI_UNIT ( $, .STERADIAN. ) SOLID_ANGLE_UNIT ( ) );
#227 = SURFACE_SIDE_STYLE ('',( #231 ) ) ;
#228 = EDGE_CURVE ( 'NONE', #122, #204, #70, .T. ) ;
#229 = APPLICATION_PROTOCOL_DEFINITION ( 'draft international standard', 'automotive_design', 1998, #49 ) ;
#230 =( NAMED_UNIT ( * ) PLANE_ANGLE_UNIT ( ) SI_UNIT ( $, .RADIAN. ) );
#231 = SURFACE_STYLE_FILL_AREA ( #127 ) ;
#232 = ORIENTED_EDGE ( 'NONE', *, *, #284, .T. ) ;
#233 = FILL_AREA_STYLE ('',( #289 ) ) ;
#234 = DIRECTION ( 'NONE',  ( -0.000000000000000000, -1.000000000000000000, -0.000000000000000000 ) ) ;
#235 = ORIENTED_EDGE ( 'NONE', *, *, #299, .T. ) ;
#236 = CARTESIAN_POINT ( 'NONE',  ( -0.1875000000000000555, 1.000000000000000000, 0.000000000000000000 ) ) ;
#237 = FILL_AREA_STYLE_COLOUR ( '', #287 ) ;
#238 = STYLED_ITEM ( 'NONE', ( #167 ), #28 ) ;
#239 = FILL_AREA_STYLE ('',( #304 ) ) ;
#240 = FACE_OUTER_BOUND ( 'NONE', #175, .T. ) ;
#241 = DIRECTION ( 'NONE',  ( 1.000000000000000000, 6.123233995736769734E-17, 0.000000000000000000 ) ) ;
#242 = CARTESIAN_POINT ( 'NONE',  ( 0.000000000000000000, 0.000000000000000000, 0.000000000000000000 ) ) ;
#243 = FACE_OUTER_BOUND ( 'NONE', #180, .T. ) ;
#244 = AXIS2_PLACEMENT_3D ( 'NONE', #41, #140, #241 ) ;
#245 =( NAMED_UNIT ( * ) PLANE_ANGLE_UNIT ( ) SI_UNIT ( $, .RADIAN. ) );
#246 = ADVANCED_FACE ( 'NONE', ( #95 ), #163, .F. ) ;
#247 = MECHANICAL_DESIGN_GEOMETRIC_PRESENTATION_REPRESENTATION (  '', ( #280 ), #250 ) ;
#248 = CARTESIAN_POINT ( 'NONE',  ( -1.224646799147353700E-16, 3.000000000000000444, 0.000000000000000000 ) ) ;
#249 = ORIENTED_EDGE ( 'NONE', *, *, #169, .T. ) ;
#250 =( GEOMETRIC_REPRESENTATION_CONTEXT ( 3 ) GLOBAL_UNCERTAINTY_ASSIGNED_CONTEXT ( ( #134 ) ) GLOBAL_UNIT_ASSIGNED_CONTEXT ( ( #111, #245, #309 ) ) REPRESENTATION_CONTEXT ( 'NONE', 'WORKASPACE' ) );
#251 = VERTEX_POINT ( 'NONE', #19 ) ;
#252 = DIRECTION ( 'NONE',  ( -6.123233995736769734E-17, 1.000000000000000000, -0.000000000000000000 ) ) ;
#253 = DIRECTION ( 'NONE',  ( -1.000000000000000000, 0.000000000000000000, 0.000000000000000000 ) ) ;
#254 = EDGE_LOOP ( 'NONE', ( #116, #39, #179, #260 ) ) ;
#255 = ORIENTED_EDGE ( 'NONE', *, *, #46, .T. ) ;
#256 =( CONVERSION_BASED_UNIT ( 'INCH', #187 ) LENGTH_UNIT ( ) NAMED_UNIT ( #153 ) );
#257 = LINE ( 'NONE', #115, #80 ) ;
#258 = SURFACE_STYLE_USAGE ( .BOTH. , #291 ) ;
#259 = AXIS2_PLACEMENT_3D ( 'NONE', #67, #20, #215 ) ;
#260 = ORIENTED_EDGE ( 'NONE', *, *, #284, .F. ) ;
#261 = MECHANICAL_DESIGN_GEOMETRIC_PRESENTATION_REPRESENTATION (  '', ( #288 ), #65 ) ;
#262 =( NAMED_UNIT ( * ) SI_UNIT ( $, .STERADIAN. ) SOLID_ANGLE_UNIT ( ) );
#263 = DIRECTION ( 'NONE',  ( -6.123233995736769734E-17, 1.000000000000000000, -0.000000000000000000 ) ) ;
#264 = EDGE_CURVE ( 'NONE', #122, #5, #107, .T. ) ;
#265 =( CONVERSION_BASED_UNIT ( 'INCH', #168 ) LENGTH_UNIT ( ) NAMED_UNIT ( #35 ) );
#266 = CIRCLE ( 'NONE', #9, 0.1875000000000000278 ) ;
#267 =( NAMED_UNIT ( * ) PLANE_ANGLE_UNIT ( ) SI_UNIT ( $, .RADIAN. ) );
#268 = ORIENTED_EDGE ( 'NONE', *, *, #188, .F. ) ;
#269 =( CONVERSION_BASED_UNIT ( 'INCH', #3 ) LENGTH_UNIT ( ) NAMED_UNIT ( #62 ) );
#270 = CYLINDRICAL_SURFACE ( 'NONE', #98, 0.1875000000000000555 ) ;
#271 = PRODUCT_DEFINITION_CONTEXT ( 'detailed design', #49, 'design' ) ;
#272 = PRODUCT_DEFINITION_FORMATION_WITH_SPECIFIED_SOURCE ( 'ANY', '', #58, .NOT_KNOWN. ) ;
#273 = DIRECTION ( 'NONE',  ( -0.000000000000000000, -1.000000000000000000, -0.000000000000000000 ) ) ;
#274 = APPLICATION_CONTEXT ( 'automotive_design' ) ;
#275 = STYLED_ITEM ( 'NONE', ( #96 ), #124 ) ;
#276 = DIRECTION ( 'NONE',  ( 0.000000000000000000, -0.000000000000000000, 1.000000000000000000 ) ) ;
#277 = CARTESIAN_POINT ( 'NONE',  ( 0.000000000000000000, 1.000000000000000000, 0.000000000000000000 ) ) ;
#278 = ADVANCED_FACE ( 'NONE', ( #243 ), #97, .T. ) ;
#279 = LINE ( 'NONE', #133, #172 ) ;
#280 = STYLED_ITEM ( 'NONE', ( #110 ), #210 ) ;
#281 = CARTESIAN_POINT ( 'NONE',  ( 2.296212748401288034E-17, 0.000000000000000000, 0.1875000000000000555 ) ) ;
#282 =( NAMED_UNIT ( * ) PLANE_ANGLE_UNIT ( ) SI_UNIT ( $, .RADIAN. ) );
#283 = FACE_OUTER_BOUND ( 'NONE', #79, .T. ) ;
#284 = EDGE_CURVE ( 'NONE', #251, #205, #149, .T. ) ;
#285 = CARTESIAN_POINT ( 'NONE',  ( 0.1875000000000000555, 1.000000000000000000, 2.296212748401289266E-17 ) ) ;
#286 = FILL_AREA_STYLE_COLOUR ( '', #185 ) ;
#287 = COLOUR_RGB ( '',0.7921568627450980005, 0.8196078431372548767, 0.9333333333333333481 ) ;
#288 = STYLED_ITEM ( 'NONE', ( #21 ), #278 ) ;
#289 = FILL_AREA_STYLE_COLOUR ( '', #224 ) ;
#290 = DIRECTION ( 'NONE',  ( -6.123233995736769734E-17, 1.000000000000000000, -0.000000000000000000 ) ) ;
#291 = SURFACE_SIDE_STYLE ('',( #45 ) ) ;
#292 = STYLED_ITEM ( 'NONE', ( #170 ), #223 ) ;
#293 = AXIS2_PLACEMENT_3D ( 'NONE', #126, #88, #86 ) ;
#294 = DIRECTION ( 'NONE',  ( 0.000000000000000000, 0.000000000000000000, -1.000000000000000000 ) ) ;
#295 = PRODUCT_CONTEXT ( 'NONE', #274, 'mechanical' ) ;
#296 = DIRECTION ( 'NONE',  ( 0.000000000000000000, -1.000000000000000000, -0.000000000000000000 ) ) ;
#297 = CIRCLE ( 'NONE', #301, 0.1875000000000000555 ) ;
#298 = PRESENTATION_LAYER_ASSIGNMENT (  '', '', ( #280 ) ) ;
#299 = EDGE_CURVE ( 'NONE', #204, #197, #159, .T. ) ;
#300 = DIMENSIONAL_EXPONENTS ( 1.000000000000000000, 0.000000000000000000, 0.000000000000000000, 0.000000000000000000, 0.000000000000000000, 0.000000000000000000, 0.000000000000000000 ) ;
#301 = AXIS2_PLACEMENT_3D ( 'NONE', #141, #22, #147 ) ;
#302 = MECHANICAL_DESIGN_GEOMETRIC_PRESENTATION_REPRESENTATION (  '', ( #275 ), #59 ) ;
#303 =( CONVERSION_BASED_UNIT ( 'INCH', #17 ) LENGTH_UNIT ( ) NAMED_UNIT ( #87 ) );
#304 = FILL_AREA_STYLE_COLOUR ( '', #171 ) ;
#305 = CARTESIAN_POINT ( 'NONE',  ( -0.1875000000000002498, 3.000000000000000444, 0.000000000000000000 ) ) ;
#306 = DIRECTION ( 'NONE',  ( -1.000000000000000000, 0.000000000000000000, 0.000000000000000000 ) ) ;
#307 = SURFACE_STYLE_USAGE ( .BOTH. , #214 ) ;
#308 = FILL_AREA_STYLE_COLOUR ( '', #83 ) ;
#309 =( NAMED_UNIT ( * ) SI_UNIT ( $, .STERADIAN. ) SOLID_ANGLE_UNIT ( ) );
ENDSEC;
END-ISO-10303-21;
