ISO-10303-21;
HEADER;
FILE_DESCRIPTION (( 'STEP AP214' ),
    '1' );
FILE_NAME ('Micro_RNC-250-24X.STEP',
    '2021-09-03T17:36:43',
    ( '' ),
    ( '' ),
    'SwSTEP 2.0',
    'SolidWorks 2020',
    '' );
FILE_SCHEMA (( 'AUTOMOTIVE_DESIGN' ));
ENDSEC;

DATA;
#1 =( GEOMETRIC_REPRESENTATION_CONTEXT ( 3 ) GLOBAL_UNCERTAINTY_ASSIGNED_CONTEXT ( ( #102 ) ) GLOBAL_UNIT_ASSIGNED_CONTEXT ( ( #223, #235, #67 ) ) REPRESENTATION_CONTEXT ( 'NONE', 'WORKASPACE' ) );
#2 = LINE ( 'NONE', #100, #225 ) ;
#3 = ADVANCED_FACE ( 'NONE', ( #53 ), #165, .T. ) ;
#4 = FACE_OUTER_BOUND ( 'NONE', #17, .T. ) ;
#5 = DIRECTION ( 'NONE',  ( -1.000000000000000000, 0.0000000000000000000, 0.0000000000000000000 ) ) ;
#6 = CARTESIAN_POINT ( 'NONE',  ( 0.003999999999999994879, 0.0000000000000000000, 4.000000000000000000 ) ) ;
#7 = AXIS2_PLACEMENT_3D ( 'NONE', #23, #24, #249 ) ;
#8 = FILL_AREA_STYLE ('',( #107 ) ) ;
#9 = ADVANCED_FACE ( 'NONE', ( #228 ), #59, .T. ) ;
#10 = DIRECTION ( 'NONE',  ( 0.0000000000000000000, 0.0000000000000000000, -1.000000000000000000 ) ) ;
#11 = LENGTH_MEASURE_WITH_UNIT ( LENGTH_MEASURE( 0.02539999999999999897 ), #130 );
#12 = CARTESIAN_POINT ( 'NONE',  ( -0.1250000000000000000, 0.0000000000000000000, 0.1209999999999993858 ) ) ;
#13 = VECTOR ( 'NONE', #139, 39.37007874015748143 ) ;
#14 = SURFACE_STYLE_USAGE ( .BOTH. , #74 ) ;
#15 = ORIENTED_EDGE ( 'NONE', *, *, #209, .T. ) ;
#16 = ADVANCED_FACE ( 'NONE', ( #64 ), #199, .T. ) ;
#17 = EDGE_LOOP ( 'NONE', ( #135, #134, #208, #214 ) ) ;
#18 = ORIENTED_EDGE ( 'NONE', *, *, #153, .T. ) ;
#19 = DIRECTION ( 'NONE',  ( 0.0000000000000000000, 0.0000000000000000000, -1.000000000000000000 ) ) ;
#20 = CLOSED_SHELL ( 'NONE', ( #16, #160, #175, #9, #3, #183, #101, #156 ) ) ;
#21 = AXIS2_PLACEMENT_3D ( 'NONE', #103, #178, #5 ) ;
#22 = CARTESIAN_POINT ( 'NONE',  ( -0.003999999999999994879, 4.898587196589406797E-19, 0.0000000000000000000 ) ) ;
#23 = CARTESIAN_POINT ( 'NONE',  ( 0.0000000000000000000, 0.0000000000000000000, 4.000000000000000000 ) ) ;
#24 = DIRECTION ( 'NONE',  ( 0.0000000000000000000, 0.0000000000000000000, 1.000000000000000000 ) ) ;
#25 = DIRECTION ( 'NONE',  ( -0.7071067811865493491, 8.659560562354955045E-17, 0.7071067811865457964 ) ) ;
#26 = CARTESIAN_POINT ( 'NONE',  ( 0.003999999999999994879, 0.0000000000000000000, 0.0000000000000000000 ) ) ;
#27 = FACE_OUTER_BOUND ( 'NONE', #78, .T. ) ;
#28 = APPLICATION_PROTOCOL_DEFINITION ( 'draft international standard', 'automotive_design', 1998, #33 ) ;
#29 = SURFACE_SIDE_STYLE ('',( #238 ) ) ;
#30 = PRODUCT_CONTEXT ( 'NONE', #33, 'mechanical' ) ;
#31 = MECHANICAL_DESIGN_GEOMETRIC_PRESENTATION_REPRESENTATION (  '', ( #68 ), #69 ) ;
#32 = ORIENTED_EDGE ( 'NONE', *, *, #58, .F. ) ;
#33 = APPLICATION_CONTEXT ( 'automotive_design' ) ;
#34 = VERTEX_POINT ( 'NONE', #176 ) ;
#35 = CARTESIAN_POINT ( 'NONE',  ( 0.0000000000000000000, 0.0000000000000000000, 4.000000000000000000 ) ) ;
#36 = CIRCLE ( 'NONE', #105, 0.1250000000000000000 ) ;
#37 = PRESENTATION_LAYER_ASSIGNMENT (  '', '', ( #68 ) ) ;
#38 = CARTESIAN_POINT ( 'NONE',  ( 0.1250000000000000000, 1.530808498934191509E-17, 4.000000000000000000 ) ) ;
#39 = PLANE ( 'NONE',  #7 ) ;
#40 = VECTOR ( 'NONE', #177, 39.37007874015748143 ) ;
#41 = STYLED_ITEM ( 'NONE', ( #181 ), #184 ) ;
#42 = CARTESIAN_POINT ( 'NONE',  ( 0.0000000000000000000, 0.0000000000000000000, 4.000000000000000000 ) ) ;
#43 = CARTESIAN_POINT ( 'NONE',  ( 0.0000000000000000000, 0.0000000000000000000, 4.000000000000000000 ) ) ;
#44 = DIRECTION ( 'NONE',  ( 0.0000000000000000000, 0.0000000000000000000, -1.000000000000000000 ) ) ;
#45 = CIRCLE ( 'NONE', #87, 0.003999999999999994879 ) ;
#46 = CARTESIAN_POINT ( 'NONE',  ( 0.0000000000000000000, 0.0000000000000000000, 0.0000000000000000000 ) ) ;
#47 =( GEOMETRIC_REPRESENTATION_CONTEXT ( 3 ) GLOBAL_UNCERTAINTY_ASSIGNED_CONTEXT ( ( #138 ) ) GLOBAL_UNIT_ASSIGNED_CONTEXT ( ( #112, #128, #51 ) ) REPRESENTATION_CONTEXT ( 'NONE', 'WORKASPACE' ) );
#48 = EDGE_CURVE ( 'NONE', #187, #34, #173, .T. ) ;
#49 = CARTESIAN_POINT ( 'NONE',  ( 0.0000000000000000000, 0.0000000000000000000, 4.000000000000000000 ) ) ;
#50 = AXIS2_PLACEMENT_3D ( 'NONE', #125, #66, #143 ) ;
#51 =( NAMED_UNIT ( * ) SI_UNIT ( $, .STERADIAN. ) SOLID_ANGLE_UNIT ( ) );
#52 =( NAMED_UNIT ( * ) SI_UNIT ( $, .STERADIAN. ) SOLID_ANGLE_UNIT ( ) );
#53 = FACE_OUTER_BOUND ( 'NONE', #229, .T. ) ;
#54 = AXIS2_PLACEMENT_3D ( 'NONE', #46, #241, #240 ) ;
#55 = AXIS2_PLACEMENT_3D ( 'NONE', #35, #232, #220 ) ;
#56 = EDGE_CURVE ( 'NONE', #80, #150, #142, .T. ) ;
#57 = ORIENTED_EDGE ( 'NONE', *, *, #116, .F. ) ;
#58 = EDGE_CURVE ( 'NONE', #169, #248, #81, .T. ) ;
#59 = CYLINDRICAL_SURFACE ( 'NONE', #55, 0.1250000000000000000 ) ;
#60 = ORIENTED_EDGE ( 'NONE', *, *, #170, .F. ) ;
#61 = CARTESIAN_POINT ( 'NONE',  ( 0.0000000000000000000, 0.0000000000000000000, 0.0000000000000000000 ) ) ;
#62 = CARTESIAN_POINT ( 'NONE',  ( -0.003999999999999994879, -4.898587196589406797E-19, 4.000000000000000000 ) ) ;
#63 = DIRECTION ( 'NONE',  ( -1.000000000000000000, 0.0000000000000000000, 0.0000000000000000000 ) ) ;
#64 = FACE_OUTER_BOUND ( 'NONE', #117, .T. ) ;
#65 = PRODUCT_DEFINITION ( 'UNKNOWN', '', #186, #84 ) ;
#66 = DIRECTION ( 'NONE',  ( 0.0000000000000000000, 0.0000000000000000000, -1.000000000000000000 ) ) ;
#67 =( NAMED_UNIT ( * ) SI_UNIT ( $, .STERADIAN. ) SOLID_ANGLE_UNIT ( ) );
#68 = STYLED_ITEM ( 'NONE', ( #167 ), #172 ) ;
#69 =( GEOMETRIC_REPRESENTATION_CONTEXT ( 3 ) GLOBAL_UNCERTAINTY_ASSIGNED_CONTEXT ( ( #163 ) ) GLOBAL_UNIT_ASSIGNED_CONTEXT ( ( #133, #207, #52 ) ) REPRESENTATION_CONTEXT ( 'NONE', 'WORKASPACE' ) );
#70 = DIRECTION ( 'NONE',  ( 0.0000000000000000000, 0.0000000000000000000, -1.000000000000000000 ) ) ;
#71 = CARTESIAN_POINT ( 'NONE',  ( 0.0000000000000000000, 0.0000000000000000000, 4.000000000000000000 ) ) ;
#72 = AXIS2_PLACEMENT_3D ( 'NONE', #198, #86, #63 ) ;
#73 = CIRCLE ( 'NONE', #127, 0.003999999999999994879 ) ;
#74 = SURFACE_SIDE_STYLE ('',( #244 ) ) ;
#75 = EDGE_CURVE ( 'NONE', #152, #210, #99, .T. ) ;
#76 = ORIENTED_EDGE ( 'NONE', *, *, #191, .F. ) ;
#77 = EDGE_LOOP ( 'NONE', ( #211, #243 ) ) ;
#78 = EDGE_LOOP ( 'NONE', ( #226, #79 ) ) ;
#79 = ORIENTED_EDGE ( 'NONE', *, *, #145, .T. ) ;
#80 = VERTEX_POINT ( 'NONE', #219 ) ;
#81 = LINE ( 'NONE', #233, #13 ) ;
#82 = CIRCLE ( 'NONE', #119, 0.1250000000000000000 ) ;
#83 = CARTESIAN_POINT ( 'NONE',  ( 0.0000000000000000000, 0.0000000000000000000, 3.879000000000000448 ) ) ;
#84 = PRODUCT_DEFINITION_CONTEXT ( 'detailed design', #236, 'design' ) ;
#85 = FACE_OUTER_BOUND ( 'NONE', #151, .T. ) ;
#86 = DIRECTION ( 'NONE',  ( -0.0000000000000000000, -0.0000000000000000000, -1.000000000000000000 ) ) ;
#87 = AXIS2_PLACEMENT_3D ( 'NONE', #216, #140, #202 ) ;
#88 = CARTESIAN_POINT ( 'NONE',  ( 0.003999999999999994879, 0.0000000000000000000, 0.0000000000000000000 ) ) ;
#89 = LENGTH_MEASURE_WITH_UNIT ( LENGTH_MEASURE( 0.02539999999999999897 ), #161 );
#90 = PRESENTATION_LAYER_ASSIGNMENT (  '', '', ( #41 ) ) ;
#91 = CONICAL_SURFACE ( 'NONE', #50, 0.003999999999999994879, 0.7853981633974508325 ) ;
#92 = FILL_AREA_STYLE_COLOUR ( '', #237 ) ;
#93 = DIRECTION ( 'NONE',  ( 1.000000000000000000, 0.0000000000000000000, 0.0000000000000000000 ) ) ;
#94 = ORIENTED_EDGE ( 'NONE', *, *, #113, .T. ) ;
#95 = DIRECTION ( 'NONE',  ( 0.0000000000000000000, 0.0000000000000000000, 1.000000000000000000 ) ) ;
#96 = ORIENTED_EDGE ( 'NONE', *, *, #145, .F. ) ;
#97 = EDGE_LOOP ( 'NONE', ( #18, #212, #76, #57 ) ) ;
#98 = ORIENTED_EDGE ( 'NONE', *, *, #191, .T. ) ;
#99 = LINE ( 'NONE', #22, #185 ) ;
#100 = CARTESIAN_POINT ( 'NONE',  ( -0.1250000000000000000, 0.0000000000000000000, 4.000000000000000000 ) ) ;
#101 = ADVANCED_FACE ( 'NONE', ( #4 ), #91, .T. ) ;
#102 = UNCERTAINTY_MEASURE_WITH_UNIT (LENGTH_MEASURE( 1.000000000000000082E-05 ), #223, 'distance_accuracy_value', 'NONE');
#103 = CARTESIAN_POINT ( 'NONE',  ( 0.0000000000000000000, 0.0000000000000000000, 0.0000000000000000000 ) ) ;
#104 = LINE ( 'NONE', #38, #221 ) ;
#105 = AXIS2_PLACEMENT_3D ( 'NONE', #83, #44, #121 ) ;
#106 = AXIS2_PLACEMENT_3D ( 'NONE', #49, #70, #129 ) ;
#107 = FILL_AREA_STYLE_COLOUR ( '', #174 ) ;
#108 = PRODUCT_DEFINITION_SHAPE ( 'NONE', 'NONE',  #65 ) ;
#109 = DIRECTION ( 'NONE',  ( -0.0000000000000000000, -0.0000000000000000000, -1.000000000000000000 ) ) ;
#110 = DIRECTION ( 'NONE',  ( -1.000000000000000000, 0.0000000000000000000, 0.0000000000000000000 ) ) ;
#111 = AXIS2_PLACEMENT_3D ( 'NONE', #206, #109, #110 ) ;
#112 =( CONVERSION_BASED_UNIT ( 'INCH', #11 ) LENGTH_UNIT ( ) NAMED_UNIT ( #205 ) );
#113 = EDGE_CURVE ( 'NONE', #248, #150, #36, .T. ) ;
#114 = SHAPE_DEFINITION_REPRESENTATION ( #108, #172 ) ;
#115 = DIRECTION ( 'NONE',  ( 1.000000000000000000, 0.0000000000000000000, 0.0000000000000000000 ) ) ;
#116 = EDGE_CURVE ( 'NONE', #150, #210, #2, .T. ) ;
#117 = EDGE_LOOP ( 'NONE', ( #15, #189, #136, #32 ) ) ;
#118 = CONICAL_SURFACE ( 'NONE', #147, 0.003999999999999994879, 0.7853981633974508325 ) ;
#119 = AXIS2_PLACEMENT_3D ( 'NONE', #158, #231, #204 ) ;
#120 = ORIENTED_EDGE ( 'NONE', *, *, #75, .T. ) ;
#121 = DIRECTION ( 'NONE',  ( -1.000000000000000000, 0.0000000000000000000, 0.0000000000000000000 ) ) ;
#122 = DIRECTION ( 'NONE',  ( 1.000000000000000000, 0.0000000000000000000, 0.0000000000000000000 ) ) ;
#123 = CIRCLE ( 'NONE', #106, 0.003999999999999994879 ) ;
#124 = DIRECTION ( 'NONE',  ( -0.0000000000000000000, -0.0000000000000000000, -1.000000000000000000 ) ) ;
#125 = CARTESIAN_POINT ( 'NONE',  ( 0.0000000000000000000, 0.0000000000000000000, 4.000000000000000000 ) ) ;
#126 = CARTESIAN_POINT ( 'NONE',  ( -0.1250000000000000000, 0.0000000000000000000, 3.879000000000000448 ) ) ;
#127 = AXIS2_PLACEMENT_3D ( 'NONE', #71, #10, #162 ) ;
#128 =( NAMED_UNIT ( * ) PLANE_ANGLE_UNIT ( ) SI_UNIT ( $, .RADIAN. ) );
#129 = DIRECTION ( 'NONE',  ( -1.000000000000000000, 0.0000000000000000000, 0.0000000000000000000 ) ) ;
#130 =( LENGTH_UNIT ( ) NAMED_UNIT ( * ) SI_UNIT ( $, .METRE. ) );
#131 = CARTESIAN_POINT ( 'NONE',  ( 0.0000000000000000000, 0.0000000000000000000, 0.0000000000000000000 ) ) ;
#132 = CARTESIAN_POINT ( 'NONE',  ( 0.0000000000000000000, 0.0000000000000000000, 0.0000000000000000000 ) ) ;
#133 =( CONVERSION_BASED_UNIT ( 'INCH', #188 ) LENGTH_UNIT ( ) NAMED_UNIT ( #200 ) );
#134 = ORIENTED_EDGE ( 'NONE', *, *, #203, .T. ) ;
#135 = ORIENTED_EDGE ( 'NONE', *, *, #56, .F. ) ;
#136 = ORIENTED_EDGE ( 'NONE', *, *, #113, .F. ) ;
#137 = CIRCLE ( 'NONE', #21, 0.003999999999999994879 ) ;
#138 = UNCERTAINTY_MEASURE_WITH_UNIT (LENGTH_MEASURE( 1.000000000000000082E-05 ), #112, 'distance_accuracy_value', 'NONE');
#139 = DIRECTION ( 'NONE',  ( 0.7071067811865493491, 0.0000000000000000000, -0.7071067811865457964 ) ) ;
#140 = DIRECTION ( 'NONE',  ( -0.0000000000000000000, -0.0000000000000000000, -1.000000000000000000 ) ) ;
#141 = FACE_OUTER_BOUND ( 'NONE', #97, .T. ) ;
#142 = LINE ( 'NONE', #62, #40 ) ;
#143 = DIRECTION ( 'NONE',  ( 1.000000000000000000, 0.0000000000000000000, 0.0000000000000000000 ) ) ;
#144 = DIMENSIONAL_EXPONENTS ( 1.000000000000000000, 0.0000000000000000000, 0.0000000000000000000, 0.0000000000000000000, 0.0000000000000000000, 0.0000000000000000000, 0.0000000000000000000 ) ;
#145 = EDGE_CURVE ( 'NONE', #152, #187, #45, .T. ) ;
#146 = CARTESIAN_POINT ( 'NONE',  ( 0.1250000000000000000, 1.530808498934191509E-17, 3.879000000000000448 ) ) ;
#147 = AXIS2_PLACEMENT_3D ( 'NONE', #61, #215, #122 ) ;
#148 = MECHANICAL_DESIGN_GEOMETRIC_PRESENTATION_REPRESENTATION (  '', ( #41 ), #47 ) ;
#149 = APPLICATION_PROTOCOL_DEFINITION ( 'draft international standard', 'automotive_design', 1998, #236 ) ;
#150 = VERTEX_POINT ( 'NONE', #126 ) ;
#151 = EDGE_LOOP ( 'NONE', ( #96, #120, #98, #168 ) ) ;
#152 = VERTEX_POINT ( 'NONE', #154 ) ;
#153 = EDGE_CURVE ( 'NONE', #150, #248, #82, .T. ) ;
#154 = CARTESIAN_POINT ( 'NONE',  ( -0.003999999999999994879, 7.898971854500427644E-18, 0.0000000000000000000 ) ) ;
#155 = DIRECTION ( 'NONE',  ( 1.000000000000000000, 0.0000000000000000000, 0.0000000000000000000 ) ) ;
#156 = ADVANCED_FACE ( 'NONE', ( #157 ), #39, .T. ) ;
#157 = FACE_OUTER_BOUND ( 'NONE', #77, .T. ) ;
#158 = CARTESIAN_POINT ( 'NONE',  ( 0.0000000000000000000, 0.0000000000000000000, 3.879000000000000448 ) ) ;
#159 = VECTOR ( 'NONE', #234, 39.37007874015748143 ) ;
#160 = ADVANCED_FACE ( 'NONE', ( #85 ), #118, .T. ) ;
#161 =( LENGTH_UNIT ( ) NAMED_UNIT ( * ) SI_UNIT ( $, .METRE. ) );
#162 = DIRECTION ( 'NONE',  ( -1.000000000000000000, 0.0000000000000000000, 0.0000000000000000000 ) ) ;
#163 = UNCERTAINTY_MEASURE_WITH_UNIT (LENGTH_MEASURE( 1.000000000000000082E-05 ), #133, 'distance_accuracy_value', 'NONE');
#164 = EDGE_CURVE ( 'NONE', #248, #34, #104, .T. ) ;
#165 = CONICAL_SURFACE ( 'NONE', #230, 0.003999999999999994879, 0.7853981633974508325 ) ;
#166 = FILL_AREA_STYLE ('',( #92 ) ) ;
#167 = PRESENTATION_STYLE_ASSIGNMENT (( #14 ) ) ;
#168 = ORIENTED_EDGE ( 'NONE', *, *, #48, .F. ) ;
#169 = VERTEX_POINT ( 'NONE', #6 ) ;
#170 = EDGE_CURVE ( 'NONE', #34, #210, #180, .T. ) ;
#171 = ORIENTED_EDGE ( 'NONE', *, *, #75, .F. ) ;
#172 = ADVANCED_BREP_SHAPE_REPRESENTATION ( 'Micro_RNC-250-24X', ( #184, #197 ), #1 ) ;
#173 = LINE ( 'NONE', #88, #159 ) ;
#174 = COLOUR_RGB ( '',0.7921568627450980005, 0.8196078431372548767, 0.9333333333333333481 ) ;
#175 = ADVANCED_FACE ( 'NONE', ( #141 ), #217, .T. ) ;
#176 = CARTESIAN_POINT ( 'NONE',  ( 0.1250000000000000000, 1.530808498934191509E-17, 0.1209999999999993858 ) ) ;
#177 = DIRECTION ( 'NONE',  ( -0.7071067811865493491, -8.659560562354955045E-17, -0.7071067811865457964 ) ) ;
#178 = DIRECTION ( 'NONE',  ( -0.0000000000000000000, -0.0000000000000000000, -1.000000000000000000 ) ) ;
#179 = DIRECTION ( 'NONE',  ( -0.0000000000000000000, -0.0000000000000000000, -1.000000000000000000 ) ) ;
#180 = CIRCLE ( 'NONE', #72, 0.1250000000000000000 ) ;
#181 = PRESENTATION_STYLE_ASSIGNMENT (( #224 ) ) ;
#182 = EDGE_CURVE ( 'NONE', #187, #152, #137, .T. ) ;
#183 = ADVANCED_FACE ( 'NONE', ( #27 ), #239, .F. ) ;
#184 = MANIFOLD_SOLID_BREP ( 'Mirror1', #20 ) ;
#185 = VECTOR ( 'NONE', #25, 39.37007874015748143 ) ;
#186 = PRODUCT_DEFINITION_FORMATION_WITH_SPECIFIED_SOURCE ( 'ANY', '', #222, .NOT_KNOWN. ) ;
#187 = VERTEX_POINT ( 'NONE', #26 ) ;
#188 = LENGTH_MEASURE_WITH_UNIT ( LENGTH_MEASURE( 0.02539999999999999897 ), #242 );
#189 = ORIENTED_EDGE ( 'NONE', *, *, #56, .T. ) ;
#190 = ORIENTED_EDGE ( 'NONE', *, *, #170, .T. ) ;
#191 = EDGE_CURVE ( 'NONE', #210, #34, #218, .T. ) ;
#192 = AXIS2_PLACEMENT_3D ( 'NONE', #43, #19, #155 ) ;
#193 = EDGE_LOOP ( 'NONE', ( #246, #94, #194, #60 ) ) ;
#194 = ORIENTED_EDGE ( 'NONE', *, *, #116, .T. ) ;
#195 = DIRECTION ( 'NONE',  ( -0.0000000000000000000, -0.0000000000000000000, -1.000000000000000000 ) ) ;
#196 = PRODUCT_RELATED_PRODUCT_CATEGORY ( 'part', '', ( #222 ) ) ;
#197 = AXIS2_PLACEMENT_3D ( 'NONE', #131, #95, #93 ) ;
#198 = CARTESIAN_POINT ( 'NONE',  ( 0.0000000000000000000, 0.0000000000000000000, 0.1209999999999993858 ) ) ;
#199 = CONICAL_SURFACE ( 'NONE', #192, 0.003999999999999994879, 0.7853981633974508325 ) ;
#200 = DIMENSIONAL_EXPONENTS ( 1.000000000000000000, 0.0000000000000000000, 0.0000000000000000000, 0.0000000000000000000, 0.0000000000000000000, 0.0000000000000000000, 0.0000000000000000000 ) ;
#201 = DIRECTION ( 'NONE',  ( -1.000000000000000000, 0.0000000000000000000, 0.0000000000000000000 ) ) ;
#202 = DIRECTION ( 'NONE',  ( -1.000000000000000000, 0.0000000000000000000, 0.0000000000000000000 ) ) ;
#203 = EDGE_CURVE ( 'NONE', #80, #169, #123, .T. ) ;
#204 = DIRECTION ( 'NONE',  ( -1.000000000000000000, 0.0000000000000000000, 0.0000000000000000000 ) ) ;
#205 = DIMENSIONAL_EXPONENTS ( 1.000000000000000000, 0.0000000000000000000, 0.0000000000000000000, 0.0000000000000000000, 0.0000000000000000000, 0.0000000000000000000, 0.0000000000000000000 ) ;
#206 = CARTESIAN_POINT ( 'NONE',  ( 0.0000000000000000000, 0.0000000000000000000, 0.1209999999999993858 ) ) ;
#207 =( NAMED_UNIT ( * ) PLANE_ANGLE_UNIT ( ) SI_UNIT ( $, .RADIAN. ) );
#208 = ORIENTED_EDGE ( 'NONE', *, *, #58, .T. ) ;
#209 = EDGE_CURVE ( 'NONE', #169, #80, #73, .T. ) ;
#210 = VERTEX_POINT ( 'NONE', #12 ) ;
#211 = ORIENTED_EDGE ( 'NONE', *, *, #209, .F. ) ;
#212 = ORIENTED_EDGE ( 'NONE', *, *, #164, .T. ) ;
#213 = AXIS2_PLACEMENT_3D ( 'NONE', #42, #124, #201 ) ;
#214 = ORIENTED_EDGE ( 'NONE', *, *, #153, .F. ) ;
#215 = DIRECTION ( 'NONE',  ( 0.0000000000000000000, 0.0000000000000000000, 1.000000000000000000 ) ) ;
#216 = CARTESIAN_POINT ( 'NONE',  ( 0.0000000000000000000, 0.0000000000000000000, 0.0000000000000000000 ) ) ;
#217 = CYLINDRICAL_SURFACE ( 'NONE', #213, 0.1250000000000000000 ) ;
#218 = CIRCLE ( 'NONE', #111, 0.1250000000000000000 ) ;
#219 = CARTESIAN_POINT ( 'NONE',  ( -0.003999999999999994879, -7.898971854500427644E-18, 4.000000000000000000 ) ) ;
#220 = DIRECTION ( 'NONE',  ( -1.000000000000000000, 0.0000000000000000000, 0.0000000000000000000 ) ) ;
#221 = VECTOR ( 'NONE', #179, 39.37007874015748143 ) ;
#222 = PRODUCT ( 'Micro_RNC-250-24X', 'Micro_RNC-250-24X', '', ( #30 ) ) ;
#223 =( CONVERSION_BASED_UNIT ( 'INCH', #89 ) LENGTH_UNIT ( ) NAMED_UNIT ( #144 ) );
#224 = SURFACE_STYLE_USAGE ( .BOTH. , #29 ) ;
#225 = VECTOR ( 'NONE', #195, 39.37007874015748143 ) ;
#226 = ORIENTED_EDGE ( 'NONE', *, *, #182, .T. ) ;
#227 = ORIENTED_EDGE ( 'NONE', *, *, #182, .F. ) ;
#228 = FACE_OUTER_BOUND ( 'NONE', #193, .T. ) ;
#229 = EDGE_LOOP ( 'NONE', ( #171, #227, #245, #190 ) ) ;
#230 = AXIS2_PLACEMENT_3D ( 'NONE', #132, #247, #115 ) ;
#231 = DIRECTION ( 'NONE',  ( 0.0000000000000000000, 0.0000000000000000000, -1.000000000000000000 ) ) ;
#232 = DIRECTION ( 'NONE',  ( -0.0000000000000000000, -0.0000000000000000000, -1.000000000000000000 ) ) ;
#233 = CARTESIAN_POINT ( 'NONE',  ( 0.003999999999999994879, 0.0000000000000000000, 4.000000000000000000 ) ) ;
#234 = DIRECTION ( 'NONE',  ( 0.7071067811865493491, 0.0000000000000000000, 0.7071067811865457964 ) ) ;
#235 =( NAMED_UNIT ( * ) PLANE_ANGLE_UNIT ( ) SI_UNIT ( $, .RADIAN. ) );
#236 = APPLICATION_CONTEXT ( 'automotive_design' ) ;
#237 = COLOUR_RGB ( '',0.7921568627450980005, 0.8196078431372548767, 0.9333333333333333481 ) ;
#238 = SURFACE_STYLE_FILL_AREA ( #8 ) ;
#239 = PLANE ( 'NONE',  #54 ) ;
#240 = DIRECTION ( 'NONE',  ( 1.000000000000000000, 0.0000000000000000000, -0.0000000000000000000 ) ) ;
#241 = DIRECTION ( 'NONE',  ( 0.0000000000000000000, 0.0000000000000000000, 1.000000000000000000 ) ) ;
#242 =( LENGTH_UNIT ( ) NAMED_UNIT ( * ) SI_UNIT ( $, .METRE. ) );
#243 = ORIENTED_EDGE ( 'NONE', *, *, #203, .F. ) ;
#244 = SURFACE_STYLE_FILL_AREA ( #166 ) ;
#245 = ORIENTED_EDGE ( 'NONE', *, *, #48, .T. ) ;
#246 = ORIENTED_EDGE ( 'NONE', *, *, #164, .F. ) ;
#247 = DIRECTION ( 'NONE',  ( 0.0000000000000000000, 0.0000000000000000000, 1.000000000000000000 ) ) ;
#248 = VERTEX_POINT ( 'NONE', #146 ) ;
#249 = DIRECTION ( 'NONE',  ( 1.000000000000000000, 0.0000000000000000000, -0.0000000000000000000 ) ) ;
ENDSEC;
END-ISO-10303-21;
