ISO-10303-21;
HEADER;
FILE_DESCRIPTION (( 'STEP AP214' ),
    '1' );
FILE_NAME ('Micro_SFLM-020-10.STEP',
    '2021-09-02T05:11:17',
    ( '' ),
    ( '' ),
    'SwSTEP 2.0',
    'SolidWorks 2020',
    '' );
FILE_SCHEMA (( 'AUTOMOTIVE_DESIGN' ));
ENDSEC;

DATA;
#1 = LINE ( 'NONE', #70, #155 ) ;
#2 = VECTOR ( 'NONE', #60, 39.37007874015748143 ) ;
#3 = VERTEX_POINT ( 'NONE', #23 ) ;
#4 = CARTESIAN_POINT ( 'NONE',  ( 5.898649710075393742E-34, 0.0000000000000000000, 4.816613013794885432E-18 ) ) ;
#5 = ADVANCED_FACE ( 'NONE', ( #201 ), #207, .T. ) ;
#6 = CARTESIAN_POINT ( 'NONE',  ( 0.0000000000000000000, 0.0000000000000000000, 2.244094000000000033 ) ) ;
#7 = CLOSED_SHELL ( 'NONE', ( #46, #238, #297, #71, #58, #166, #280, #5, #81, #83 ) ) ;
#8 = LINE ( 'NONE', #33, #28 ) ;
#9 = FILL_AREA_STYLE ('',( #259 ) ) ;
#10 = VECTOR ( 'NONE', #74, 39.37007874015748143 ) ;
#11 = PRODUCT_DEFINITION_FORMATION_WITH_SPECIFIED_SOURCE ( 'ANY', '', #61, .NOT_KNOWN. ) ;
#12 = DIRECTION ( 'NONE',  ( 0.0000000000000000000, 0.0000000000000000000, -1.000000000000000000 ) ) ;
#13 = FACE_OUTER_BOUND ( 'NONE', #271, .T. ) ;
#14 = EDGE_CURVE ( 'NONE', #239, #22, #87, .T. ) ;
#15 = ORIENTED_EDGE ( 'NONE', *, *, #260, .T. ) ;
#16 = DIRECTION ( 'NONE',  ( -0.7071067811865449082, 0.0000000000000000000, -0.7071067811865501263 ) ) ;
#17 = EDGE_LOOP ( 'NONE', ( #20, #173, #203, #170 ) ) ;
#18 = DIMENSIONAL_EXPONENTS ( 1.000000000000000000, 0.0000000000000000000, 0.0000000000000000000, 0.0000000000000000000, 0.0000000000000000000, 0.0000000000000000000, 0.0000000000000000000 ) ;
#19 = DIRECTION ( 'NONE',  ( 0.1736481776669313859, 0.0000000000000000000, 0.9848077530122077983 ) ) ;
#20 = ORIENTED_EDGE ( 'NONE', *, *, #49, .F. ) ;
#21 =( NAMED_UNIT ( * ) PLANE_ANGLE_UNIT ( ) SI_UNIT ( $, .RADIAN. ) );
#22 = VERTEX_POINT ( 'NONE', #272 ) ;
#23 = CARTESIAN_POINT ( 'NONE',  ( -0.03933062999999998449, 6.024382343079791968E-18, 0.2362200000000000133 ) ) ;
#24 = AXIS2_PLACEMENT_3D ( 'NONE', #291, #91, #213 ) ;
#25 = DIRECTION ( 'NONE',  ( -1.000000000000000000, 0.0000000000000000000, 1.224646799147353207E-16 ) ) ;
#26 = DIRECTION ( 'NONE',  ( -1.224646799147353207E-16, -0.0000000000000000000, -1.000000000000000000 ) ) ;
#27 = EDGE_LOOP ( 'NONE', ( #223, #250, #200, #86 ) ) ;
#28 = VECTOR ( 'NONE', #84, 39.37007874015748143 ) ;
#29 = FACE_OUTER_BOUND ( 'NONE', #276, .T. ) ;
#30 = EDGE_CURVE ( 'NONE', #77, #72, #94, .T. ) ;
#31 =( NAMED_UNIT ( * ) SI_UNIT ( $, .STERADIAN. ) SOLID_ANGLE_UNIT ( ) );
#32 = CIRCLE ( 'NONE', #293, 0.03933063000000001225 ) ;
#33 = CARTESIAN_POINT ( 'NONE',  ( -0.05905500000000001720, 0.0000000000000000000, 2.244094000000000033 ) ) ;
#34 = CARTESIAN_POINT ( 'NONE',  ( 0.0000000000000000000, 0.0000000000000000000, 0.0000000000000000000 ) ) ;
#35 = PRESENTATION_STYLE_ASSIGNMENT (( #145 ) ) ;
#36 = LENGTH_MEASURE_WITH_UNIT ( LENGTH_MEASURE( 0.02539999999999999897 ), #39 );
#37 = CYLINDRICAL_SURFACE ( 'NONE', #262, 0.03933063000000000531 ) ;
#38 = CONICAL_SURFACE ( 'NONE', #93, 0.04405499999999960142, 0.7853981633974446153 ) ;
#39 =( LENGTH_UNIT ( ) NAMED_UNIT ( * ) SI_UNIT ( $, .METRE. ) );
#40 =( NAMED_UNIT ( * ) PLANE_ANGLE_UNIT ( ) SI_UNIT ( $, .RADIAN. ) );
#41 = CONICAL_SURFACE ( 'NONE', #248, 0.04405499999999960142, 0.7853981633974446153 ) ;
#42 = STYLED_ITEM ( 'NONE', ( #35 ), #101 ) ;
#43 = VERTEX_POINT ( 'NONE', #156 ) ;
#44 = EDGE_CURVE ( 'NONE', #137, #292, #1, .T. ) ;
#45 = CYLINDRICAL_SURFACE ( 'NONE', #252, 0.03933063000000000531 ) ;
#46 = ADVANCED_FACE ( 'NONE', ( #275 ), #45, .T. ) ;
#47 = ORIENTED_EDGE ( 'NONE', *, *, #206, .F. ) ;
#48 = VECTOR ( 'NONE', #234, 39.37007874015747433 ) ;
#49 = EDGE_CURVE ( 'NONE', #3, #137, #32, .T. ) ;
#50 = CARTESIAN_POINT ( 'NONE',  ( 0.0000000000000000000, 0.0000000000000000000, 2.244094000000000033 ) ) ;
#51 = ORIENTED_EDGE ( 'NONE', *, *, #256, .F. ) ;
#52 = DIRECTION ( 'NONE',  ( -0.0000000000000000000, -0.0000000000000000000, -1.000000000000000000 ) ) ;
#53 = AXIS2_PLACEMENT_3D ( 'NONE', #163, #186, #281 ) ;
#54 = EDGE_CURVE ( 'NONE', #77, #174, #199, .T. ) ;
#55 = LINE ( 'NONE', #230, #2 ) ;
#56 = DIRECTION ( 'NONE',  ( -1.000000000000000000, 0.0000000000000000000, 1.224646799147352961E-16 ) ) ;
#57 = LINE ( 'NONE', #143, #48 ) ;
#58 = ADVANCED_FACE ( 'NONE', ( #76 ), #182, .T. ) ;
#59 = COLOUR_RGB ( '',0.7921568627450980005, 0.8196078431372548767, 0.9333333333333333481 ) ;
#60 = DIRECTION ( 'NONE',  ( -0.0000000000000000000, -0.0000000000000000000, -1.000000000000000000 ) ) ;
#61 = PRODUCT ( 'Micro_SFLM-020-10', 'Micro_SFLM-020-10', '', ( #212 ) ) ;
#62 = FACE_OUTER_BOUND ( 'NONE', #17, .T. ) ;
#63 = ORIENTED_EDGE ( 'NONE', *, *, #256, .T. ) ;
#64 = MECHANICAL_DESIGN_GEOMETRIC_PRESENTATION_REPRESENTATION (  '', ( #146 ), #171 ) ;
#65 = ORIENTED_EDGE ( 'NONE', *, *, #142, .T. ) ;
#66 = DIRECTION ( 'NONE',  ( -1.224646799147353207E-16, -0.0000000000000000000, -1.000000000000000000 ) ) ;
#67 = ORIENTED_EDGE ( 'NONE', *, *, #68, .T. ) ;
#68 = EDGE_CURVE ( 'NONE', #174, #77, #277, .T. ) ;
#69 = CIRCLE ( 'NONE', #295, 0.05905500000000001720 ) ;
#70 = CARTESIAN_POINT ( 'NONE',  ( 0.03933063000000000531, 4.816613013794886973E-18, -4.816613013794886973E-18 ) ) ;
#71 = ADVANCED_FACE ( 'NONE', ( #29 ), #157, .T. ) ;
#72 = VERTEX_POINT ( 'NONE', #103 ) ;
#73 = AXIS2_PLACEMENT_3D ( 'NONE', #136, #139, #229 ) ;
#74 = DIRECTION ( 'NONE',  ( 0.7071067811865449082, 8.659560562354900811E-17, -0.7071067811865501263 ) ) ;
#75 = PRESENTATION_LAYER_ASSIGNMENT (  '', '', ( #146 ) ) ;
#76 = FACE_OUTER_BOUND ( 'NONE', #152, .T. ) ;
#77 = VERTEX_POINT ( 'NONE', #211 ) ;
#78 = APPLICATION_PROTOCOL_DEFINITION ( 'draft international standard', 'automotive_design', 1998, #172 ) ;
#79 = PLANE ( 'NONE',  #278 ) ;
#80 = DIRECTION ( 'NONE',  ( -1.224646799147353207E-16, -0.0000000000000000000, -1.000000000000000000 ) ) ;
#81 = ADVANCED_FACE ( 'NONE', ( #254 ), #37, .T. ) ;
#82 = DIRECTION ( 'NONE',  ( 0.0000000000000000000, 0.0000000000000000000, 1.000000000000000000 ) ) ;
#83 = ADVANCED_FACE ( 'NONE', ( #124 ), #79, .F. ) ;
#84 = DIRECTION ( 'NONE',  ( -0.0000000000000000000, -0.0000000000000000000, -1.000000000000000000 ) ) ;
#85 = AXIS2_PLACEMENT_3D ( 'NONE', #6, #185, #257 ) ;
#86 = ORIENTED_EDGE ( 'NONE', *, *, #247, .F. ) ;
#87 = CIRCLE ( 'NONE', #187, 0.05905500000000001720 ) ;
#88 = VECTOR ( 'NONE', #19, 39.37007874015748143 ) ;
#89 = EDGE_CURVE ( 'NONE', #292, #132, #100, .T. ) ;
#90 = EDGE_LOOP ( 'NONE', ( #97, #219, #15, #263 ) ) ;
#91 = DIRECTION ( 'NONE',  ( 0.0000000000000000000, 0.0000000000000000000, -1.000000000000000000 ) ) ;
#92 = DIRECTION ( 'NONE',  ( 0.0000000000000000000, 0.0000000000000000000, -1.000000000000000000 ) ) ;
#93 = AXIS2_PLACEMENT_3D ( 'NONE', #114, #12, #244 ) ;
#94 = LINE ( 'NONE', #245, #10 ) ;
#95 = DIRECTION ( 'NONE',  ( 1.000000000000000000, 0.0000000000000000000, 0.0000000000000000000 ) ) ;
#96 = DIMENSIONAL_EXPONENTS ( 1.000000000000000000, 0.0000000000000000000, 0.0000000000000000000, 0.0000000000000000000, 0.0000000000000000000, 0.0000000000000000000, 0.0000000000000000000 ) ;
#97 = ORIENTED_EDGE ( 'NONE', *, *, #177, .F. ) ;
#98 = UNCERTAINTY_MEASURE_WITH_UNIT (LENGTH_MEASURE( 1.000000000000000082E-05 ), #148, 'distance_accuracy_value', 'NONE');
#99 = DIRECTION ( 'NONE',  ( -1.224646799147353207E-16, -0.0000000000000000000, -1.000000000000000000 ) ) ;
#100 = CIRCLE ( 'NONE', #283, 0.03933062999999999837 ) ;
#101 = ADVANCED_BREP_SHAPE_REPRESENTATION ( 'Micro_SFLM-020-10', ( #104, #53 ), #268 ) ;
#102 = ORIENTED_EDGE ( 'NONE', *, *, #285, .T. ) ;
#103 = CARTESIAN_POINT ( 'NONE',  ( 0.05905500000000001720, 7.232151672364695422E-18, 2.229093999999999465 ) ) ;
#104 = MANIFOLD_SOLID_BREP ( 'Cut-Revolve1', #7 ) ;
#105 = CARTESIAN_POINT ( 'NONE',  ( 2.892860668945878169E-17, 0.0000000000000000000, 0.2362200000000000133 ) ) ;
#106 =( GEOMETRIC_REPRESENTATION_CONTEXT ( 3 ) GLOBAL_UNCERTAINTY_ASSIGNED_CONTEXT ( ( #98 ) ) GLOBAL_UNIT_ASSIGNED_CONTEXT ( ( #148, #40, #222 ) ) REPRESENTATION_CONTEXT ( 'NONE', 'WORKASPACE' ) );
#107 = DIRECTION ( 'NONE',  ( -1.224646799147353207E-16, -0.0000000000000000000, -1.000000000000000000 ) ) ;
#108 = AXIS2_PLACEMENT_3D ( 'NONE', #261, #127, #265 ) ;
#109 = EDGE_CURVE ( 'NONE', #72, #22, #55, .T. ) ;
#110 = SURFACE_STYLE_FILL_AREA ( #190 ) ;
#111 = CIRCLE ( 'NONE', #138, 0.03933063000000001225 ) ;
#112 = CARTESIAN_POINT ( 'NONE',  ( 0.0000000000000000000, 0.0000000000000000000, 2.244094000000000033 ) ) ;
#113 = ORIENTED_EDGE ( 'NONE', *, *, #128, .T. ) ;
#114 = CARTESIAN_POINT ( 'NONE',  ( 0.0000000000000000000, 0.0000000000000000000, 2.244094000000000033 ) ) ;
#115 = EDGE_LOOP ( 'NONE', ( #120, #154, #217, #51 ) ) ;
#116 = DIRECTION ( 'NONE',  ( -1.224646799147353207E-16, -0.0000000000000000000, -1.000000000000000000 ) ) ;
#117 = DIRECTION ( 'NONE',  ( -1.000000000000000000, 0.0000000000000000000, 0.0000000000000000000 ) ) ;
#118 = AXIS2_PLACEMENT_3D ( 'NONE', #133, #202, #246 ) ;
#119 = CARTESIAN_POINT ( 'NONE',  ( 2.892860668945878169E-17, 0.0000000000000000000, 0.2362200000000000133 ) ) ;
#120 = ORIENTED_EDGE ( 'NONE', *, *, #54, .F. ) ;
#121 = PRESENTATION_STYLE_ASSIGNMENT (( #141 ) ) ;
#122 = APPLICATION_CONTEXT ( 'automotive_design' ) ;
#123 = CARTESIAN_POINT ( 'NONE',  ( 0.03933063000000004000, 0.0000000000000000000, 0.2362200000000000133 ) ) ;
#124 = FACE_OUTER_BOUND ( 'NONE', #169, .T. ) ;
#125 = APPLICATION_PROTOCOL_DEFINITION ( 'draft international standard', 'automotive_design', 1998, #122 ) ;
#126 = DIRECTION ( 'NONE',  ( -1.224646799147353207E-16, -0.0000000000000000000, -1.000000000000000000 ) ) ;
#127 = DIRECTION ( 'NONE',  ( 1.224646799147353207E-16, 0.0000000000000000000, 1.000000000000000000 ) ) ;
#128 = EDGE_CURVE ( 'NONE', #137, #3, #111, .T. ) ;
#129 = EDGE_LOOP ( 'NONE', ( #67, #267 ) ) ;
#130 = CARTESIAN_POINT ( 'NONE',  ( 0.0000000000000000000, 0.0000000000000000000, 2.229093999999999465 ) ) ;
#131 = CARTESIAN_POINT ( 'NONE',  ( -0.04405499999999960142, 0.0000000000000000000, 2.244094000000000033 ) ) ;
#132 = VERTEX_POINT ( 'NONE', #209 ) ;
#133 = CARTESIAN_POINT ( 'NONE',  ( 0.0000000000000000000, 0.0000000000000000000, 2.244094000000000033 ) ) ;
#134 = AXIS2_PLACEMENT_3D ( 'NONE', #279, #80, #56 ) ;
#135 = DIRECTION ( 'NONE',  ( -1.000000000000000000, 0.0000000000000000000, 0.0000000000000000000 ) ) ;
#136 = CARTESIAN_POINT ( 'NONE',  ( 0.0000000000000000000, 0.0000000000000000000, 2.244094000000000033 ) ) ;
#137 = VERTEX_POINT ( 'NONE', #123 ) ;
#138 = AXIS2_PLACEMENT_3D ( 'NONE', #105, #255, #184 ) ;
#139 = DIRECTION ( 'NONE',  ( 0.0000000000000000000, 0.0000000000000000000, 1.000000000000000000 ) ) ;
#140 = SURFACE_SIDE_STYLE ('',( #161 ) ) ;
#141 = SURFACE_STYLE_USAGE ( .BOTH. , #140 ) ;
#142 = EDGE_CURVE ( 'NONE', #132, #292, #165, .T. ) ;
#143 = CARTESIAN_POINT ( 'NONE',  ( -0.03933062999999998449, 4.816613013794887743E-18, 0.2362200000000000133 ) ) ;
#144 = CARTESIAN_POINT ( 'NONE',  ( 4.262780716838940317E-17, 0.0000000000000000000, 0.3480824609844123674 ) ) ;
#145 = SURFACE_STYLE_USAGE ( .BOTH. , #168 ) ;
#146 = STYLED_ITEM ( 'NONE', ( #121 ), #104 ) ;
#147 = ORIENTED_EDGE ( 'NONE', *, *, #179, .F. ) ;
#148 =( CONVERSION_BASED_UNIT ( 'INCH', #195 ) LENGTH_UNIT ( ) NAMED_UNIT ( #18 ) );
#149 = DIRECTION ( 'NONE',  ( 1.000000000000000000, 0.0000000000000000000, 0.0000000000000000000 ) ) ;
#150 = ORIENTED_EDGE ( 'NONE', *, *, #30, .F. ) ;
#151 = FACE_OUTER_BOUND ( 'NONE', #115, .T. ) ;
#152 = EDGE_LOOP ( 'NONE', ( #287, #176, #299, #47 ) ) ;
#153 = UNCERTAINTY_MEASURE_WITH_UNIT (LENGTH_MEASURE( 1.000000000000000082E-05 ), #284, 'distance_accuracy_value', 'NONE');
#154 = ORIENTED_EDGE ( 'NONE', *, *, #30, .T. ) ;
#155 = VECTOR ( 'NONE', #249, 39.37007874015748143 ) ;
#156 = CARTESIAN_POINT ( 'NONE',  ( -0.05905500000000001720, 0.0000000000000000000, 2.229093999999999465 ) ) ;
#157 = CYLINDRICAL_SURFACE ( 'NONE', #118, 0.05905500000000001720 ) ;
#158 = DIRECTION ( 'NONE',  ( 1.000000000000000000, 0.0000000000000000000, 0.0000000000000000000 ) ) ;
#159 = SHAPE_DEFINITION_REPRESENTATION ( #204, #101 ) ;
#160 = MECHANICAL_DESIGN_GEOMETRIC_PRESENTATION_REPRESENTATION (  '', ( #42 ), #106 ) ;
#161 = SURFACE_STYLE_FILL_AREA ( #9 ) ;
#162 =( NAMED_UNIT ( * ) PLANE_ANGLE_UNIT ( ) SI_UNIT ( $, .RADIAN. ) );
#163 = CARTESIAN_POINT ( 'NONE',  ( 0.0000000000000000000, 0.0000000000000000000, 0.0000000000000000000 ) ) ;
#164 =( LENGTH_UNIT ( ) NAMED_UNIT ( * ) SI_UNIT ( $, .METRE. ) );
#165 = CIRCLE ( 'NONE', #134, 0.03933062999999999837 ) ;
#166 = ADVANCED_FACE ( 'NONE', ( #231 ), #258, .T. ) ;
#167 = CARTESIAN_POINT ( 'NONE',  ( 0.0000000000000000000, 0.0000000000000000000, 0.0000000000000000000 ) ) ;
#168 = SURFACE_SIDE_STYLE ('',( #110 ) ) ;
#169 = EDGE_LOOP ( 'NONE', ( #65, #298 ) ) ;
#170 = ORIENTED_EDGE ( 'NONE', *, *, #260, .F. ) ;
#171 =( GEOMETRIC_REPRESENTATION_CONTEXT ( 3 ) GLOBAL_UNCERTAINTY_ASSIGNED_CONTEXT ( ( #153 ) ) GLOBAL_UNIT_ASSIGNED_CONTEXT ( ( #284, #162, #31 ) ) REPRESENTATION_CONTEXT ( 'NONE', 'WORKASPACE' ) );
#172 = APPLICATION_CONTEXT ( 'automotive_design' ) ;
#173 = ORIENTED_EDGE ( 'NONE', *, *, #177, .T. ) ;
#174 = VERTEX_POINT ( 'NONE', #282 ) ;
#175 = DIRECTION ( 'NONE',  ( 1.000000000000000000, 0.0000000000000000000, 0.0000000000000000000 ) ) ;
#176 = ORIENTED_EDGE ( 'NONE', *, *, #232, .T. ) ;
#177 = EDGE_CURVE ( 'NONE', #3, #239, #57, .T. ) ;
#178 = DIRECTION ( 'NONE',  ( 0.0000000000000000000, 0.0000000000000000000, 1.000000000000000000 ) ) ;
#179 = EDGE_CURVE ( 'NONE', #43, #239, #8, .T. ) ;
#180 = DIRECTION ( 'NONE',  ( 1.224646799147353207E-16, 0.0000000000000000000, 1.000000000000000000 ) ) ;
#181 = CARTESIAN_POINT ( 'NONE',  ( 0.0000000000000000000, 0.0000000000000000000, 2.244094000000000033 ) ) ;
#182 = CYLINDRICAL_SURFACE ( 'NONE', #194, 0.05905500000000001720 ) ;
#183 = CONICAL_SURFACE ( 'NONE', #108, 0.03933063000000001225, 0.1745329251994338915 ) ;
#184 = DIRECTION ( 'NONE',  ( -1.000000000000000000, 0.0000000000000000000, 0.0000000000000000000 ) ) ;
#185 = DIRECTION ( 'NONE',  ( 0.0000000000000000000, 0.0000000000000000000, 1.000000000000000000 ) ) ;
#186 = DIRECTION ( 'NONE',  ( 0.0000000000000000000, 0.0000000000000000000, 1.000000000000000000 ) ) ;
#187 = AXIS2_PLACEMENT_3D ( 'NONE', #251, #26, #227 ) ;
#188 = LENGTH_MEASURE_WITH_UNIT ( LENGTH_MEASURE( 0.02539999999999999897 ), #164 );
#189 = CIRCLE ( 'NONE', #24, 0.05905500000000001720 ) ;
#190 = FILL_AREA_STYLE ('',( #193 ) ) ;
#191 =( NAMED_UNIT ( * ) SI_UNIT ( $, .STERADIAN. ) SOLID_ANGLE_UNIT ( ) );
#192 = DIRECTION ( 'NONE',  ( 0.0000000000000000000, 0.0000000000000000000, -1.000000000000000000 ) ) ;
#193 = FILL_AREA_STYLE_COLOUR ( '', #274 ) ;
#194 = AXIS2_PLACEMENT_3D ( 'NONE', #181, #52, #117 ) ;
#195 = LENGTH_MEASURE_WITH_UNIT ( LENGTH_MEASURE( 0.02539999999999999897 ), #237 );
#196 = ORIENTED_EDGE ( 'NONE', *, *, #44, .F. ) ;
#197 = CARTESIAN_POINT ( 'NONE',  ( 0.03933063000000004000, 0.0000000000000000000, 0.2362200000000000133 ) ) ;
#198 = DIMENSIONAL_EXPONENTS ( 1.000000000000000000, 0.0000000000000000000, 0.0000000000000000000, 0.0000000000000000000, 0.0000000000000000000, 0.0000000000000000000, 0.0000000000000000000 ) ;
#199 = CIRCLE ( 'NONE', #273, 0.04405499999999960142 ) ;
#200 = ORIENTED_EDGE ( 'NONE', *, *, #142, .F. ) ;
#201 = FACE_OUTER_BOUND ( 'NONE', #90, .T. ) ;
#202 = DIRECTION ( 'NONE',  ( -0.0000000000000000000, -0.0000000000000000000, -1.000000000000000000 ) ) ;
#203 = ORIENTED_EDGE ( 'NONE', *, *, #14, .T. ) ;
#204 = PRODUCT_DEFINITION_SHAPE ( 'NONE', 'NONE',  #242 ) ;
#205 = DIRECTION ( 'NONE',  ( 1.000000000000000000, 0.0000000000000000000, -0.0000000000000000000 ) ) ;
#206 = EDGE_CURVE ( 'NONE', #22, #239, #69, .T. ) ;
#207 = CONICAL_SURFACE ( 'NONE', #288, 0.03933063000000001225, 0.1745329251994338915 ) ;
#208 = VECTOR ( 'NONE', #66, 39.37007874015748143 ) ;
#209 = CARTESIAN_POINT ( 'NONE',  ( -0.03933062999999999837, 0.0000000000000000000, 9.633226027589770864E-18 ) ) ;
#210 = DIRECTION ( 'NONE',  ( -1.000000000000000000, 0.0000000000000000000, 1.224646799147352961E-16 ) ) ;
#211 = CARTESIAN_POINT ( 'NONE',  ( 0.04405499999999960142, 6.313666573004155588E-18, 2.244094000000000033 ) ) ;
#212 = PRODUCT_CONTEXT ( 'NONE', #122, 'mechanical' ) ;
#213 = DIRECTION ( 'NONE',  ( 1.000000000000000000, 0.0000000000000000000, 0.0000000000000000000 ) ) ;
#214 = CARTESIAN_POINT ( 'NONE',  ( -0.03933063000000000531, 0.0000000000000000000, 4.816613013794886973E-18 ) ) ;
#215 = ORIENTED_EDGE ( 'NONE', *, *, #14, .F. ) ;
#216 = PRODUCT_RELATED_PRODUCT_CATEGORY ( 'part', '', ( #61 ) ) ;
#217 = ORIENTED_EDGE ( 'NONE', *, *, #285, .F. ) ;
#218 = LINE ( 'NONE', #214, #208 ) ;
#219 = ORIENTED_EDGE ( 'NONE', *, *, #128, .F. ) ;
#220 = LINE ( 'NONE', #197, #88 ) ;
#221 = EDGE_LOOP ( 'NONE', ( #196, #113, #240, #289 ) ) ;
#222 =( NAMED_UNIT ( * ) SI_UNIT ( $, .STERADIAN. ) SOLID_ANGLE_UNIT ( ) );
#223 = ORIENTED_EDGE ( 'NONE', *, *, #49, .T. ) ;
#224 = VECTOR ( 'NONE', #16, 39.37007874015748143 ) ;
#225 = ORIENTED_EDGE ( 'NONE', *, *, #68, .F. ) ;
#226 = CARTESIAN_POINT ( 'NONE',  ( 0.0000000000000000000, 0.0000000000000000000, 0.0000000000000000000 ) ) ;
#227 = DIRECTION ( 'NONE',  ( 1.000000000000000000, 0.0000000000000000000, 0.0000000000000000000 ) ) ;
#228 = AXIS2_PLACEMENT_3D ( 'NONE', #130, #92, #149 ) ;
#229 = DIRECTION ( 'NONE',  ( 1.000000000000000000, 0.0000000000000000000, 0.0000000000000000000 ) ) ;
#230 = CARTESIAN_POINT ( 'NONE',  ( 0.05905500000000001720, 7.232151672364695422E-18, 2.244094000000000033 ) ) ;
#231 = FACE_OUTER_BOUND ( 'NONE', #129, .T. ) ;
#232 = EDGE_CURVE ( 'NONE', #72, #43, #233, .T. ) ;
#233 = CIRCLE ( 'NONE', #228, 0.05905500000000001720 ) ;
#234 = DIRECTION ( 'NONE',  ( -0.1736481776669311916, 2.126576849575783316E-17, 0.9848077530122080203 ) ) ;
#235 = DIRECTION ( 'NONE',  ( -1.224646799147353207E-16, -0.0000000000000000000, -1.000000000000000000 ) ) ;
#236 = DIRECTION ( 'NONE',  ( -1.000000000000000000, 0.0000000000000000000, 1.224646799147353207E-16 ) ) ;
#237 =( LENGTH_UNIT ( ) NAMED_UNIT ( * ) SI_UNIT ( $, .METRE. ) );
#238 = ADVANCED_FACE ( 'NONE', ( #62 ), #183, .T. ) ;
#239 = VERTEX_POINT ( 'NONE', #243 ) ;
#240 = ORIENTED_EDGE ( 'NONE', *, *, #247, .T. ) ;
#241 = ORIENTED_EDGE ( 'NONE', *, *, #232, .F. ) ;
#242 = PRODUCT_DEFINITION ( 'UNKNOWN', '', #11, #264 ) ;
#243 = CARTESIAN_POINT ( 'NONE',  ( -0.05905499999999996863, 0.0000000000000000000, 0.3480824609844123674 ) ) ;
#244 = DIRECTION ( 'NONE',  ( -1.000000000000000000, 0.0000000000000000000, 0.0000000000000000000 ) ) ;
#245 = CARTESIAN_POINT ( 'NONE',  ( 0.04405499999999960142, 5.395181473643616524E-18, 2.244094000000000033 ) ) ;
#246 = DIRECTION ( 'NONE',  ( -1.000000000000000000, 0.0000000000000000000, 0.0000000000000000000 ) ) ;
#247 = EDGE_CURVE ( 'NONE', #3, #132, #218, .T. ) ;
#248 = AXIS2_PLACEMENT_3D ( 'NONE', #112, #192, #290 ) ;
#249 = DIRECTION ( 'NONE',  ( -1.224646799147353207E-16, -0.0000000000000000000, -1.000000000000000000 ) ) ;
#250 = ORIENTED_EDGE ( 'NONE', *, *, #44, .T. ) ;
#251 = CARTESIAN_POINT ( 'NONE',  ( 4.262780716838940317E-17, 0.0000000000000000000, 0.3480824609844123674 ) ) ;
#252 = AXIS2_PLACEMENT_3D ( 'NONE', #226, #99, #25 ) ;
#253 = PRESENTATION_LAYER_ASSIGNMENT (  '', '', ( #42 ) ) ;
#254 = FACE_OUTER_BOUND ( 'NONE', #221, .T. ) ;
#255 = DIRECTION ( 'NONE',  ( -1.224646799147353207E-16, -0.0000000000000000000, -1.000000000000000000 ) ) ;
#256 = EDGE_CURVE ( 'NONE', #174, #43, #266, .T. ) ;
#257 = DIRECTION ( 'NONE',  ( 1.000000000000000000, 0.0000000000000000000, -0.0000000000000000000 ) ) ;
#258 = PLANE ( 'NONE',  #85 ) ;
#259 = FILL_AREA_STYLE_COLOUR ( '', #59 ) ;
#260 = EDGE_CURVE ( 'NONE', #137, #22, #220, .T. ) ;
#261 = CARTESIAN_POINT ( 'NONE',  ( 2.892860668945878169E-17, 0.0000000000000000000, 0.2362200000000000133 ) ) ;
#262 = AXIS2_PLACEMENT_3D ( 'NONE', #34, #107, #236 ) ;
#263 = ORIENTED_EDGE ( 'NONE', *, *, #206, .T. ) ;
#264 = PRODUCT_DEFINITION_CONTEXT ( 'detailed design', #172, 'design' ) ;
#265 = DIRECTION ( 'NONE',  ( 1.000000000000000000, 0.0000000000000000000, 0.0000000000000000000 ) ) ;
#266 = LINE ( 'NONE', #131, #224 ) ;
#267 = ORIENTED_EDGE ( 'NONE', *, *, #54, .T. ) ;
#268 =( GEOMETRIC_REPRESENTATION_CONTEXT ( 3 ) GLOBAL_UNCERTAINTY_ASSIGNED_CONTEXT ( ( #270 ) ) GLOBAL_UNIT_ASSIGNED_CONTEXT ( ( #296, #21, #191 ) ) REPRESENTATION_CONTEXT ( 'NONE', 'WORKASPACE' ) );
#269 = ORIENTED_EDGE ( 'NONE', *, *, #109, .T. ) ;
#270 = UNCERTAINTY_MEASURE_WITH_UNIT (LENGTH_MEASURE( 1.000000000000000082E-05 ), #296, 'distance_accuracy_value', 'NONE');
#271 = EDGE_LOOP ( 'NONE', ( #150, #225, #63, #241 ) ) ;
#272 = CARTESIAN_POINT ( 'NONE',  ( 0.05905500000000005884, 7.232151672364700045E-18, 0.3480824609844123674 ) ) ;
#273 = AXIS2_PLACEMENT_3D ( 'NONE', #50, #178, #158 ) ;
#274 = COLOUR_RGB ( '',0.7921568627450980005, 0.8196078431372548767, 0.9333333333333333481 ) ;
#275 = FACE_OUTER_BOUND ( 'NONE', #27, .T. ) ;
#276 = EDGE_LOOP ( 'NONE', ( #102, #269, #215, #147 ) ) ;
#277 = CIRCLE ( 'NONE', #73, 0.04405499999999960142 ) ;
#278 = AXIS2_PLACEMENT_3D ( 'NONE', #167, #82, #205 ) ;
#279 = CARTESIAN_POINT ( 'NONE',  ( 5.898649710075393742E-34, 0.0000000000000000000, 4.816613013794885432E-18 ) ) ;
#280 = ADVANCED_FACE ( 'NONE', ( #13 ), #41, .T. ) ;
#281 = DIRECTION ( 'NONE',  ( 1.000000000000000000, 0.0000000000000000000, 0.0000000000000000000 ) ) ;
#282 = CARTESIAN_POINT ( 'NONE',  ( -0.04405499999999960142, 0.0000000000000000000, 2.244094000000000033 ) ) ;
#283 = AXIS2_PLACEMENT_3D ( 'NONE', #4, #235, #210 ) ;
#284 =( CONVERSION_BASED_UNIT ( 'INCH', #188 ) LENGTH_UNIT ( ) NAMED_UNIT ( #198 ) );
#285 = EDGE_CURVE ( 'NONE', #43, #72, #189, .T. ) ;
#286 = CARTESIAN_POINT ( 'NONE',  ( 0.03933062999999999837, 4.816613013794885432E-18, -9.478001694819074349E-34 ) ) ;
#287 = ORIENTED_EDGE ( 'NONE', *, *, #109, .F. ) ;
#288 = AXIS2_PLACEMENT_3D ( 'NONE', #294, #180, #95 ) ;
#289 = ORIENTED_EDGE ( 'NONE', *, *, #89, .F. ) ;
#290 = DIRECTION ( 'NONE',  ( -1.000000000000000000, 0.0000000000000000000, 0.0000000000000000000 ) ) ;
#291 = CARTESIAN_POINT ( 'NONE',  ( 0.0000000000000000000, 0.0000000000000000000, 2.229093999999999465 ) ) ;
#292 = VERTEX_POINT ( 'NONE', #286 ) ;
#293 = AXIS2_PLACEMENT_3D ( 'NONE', #119, #116, #135 ) ;
#294 = CARTESIAN_POINT ( 'NONE',  ( 2.892860668945878169E-17, 0.0000000000000000000, 0.2362200000000000133 ) ) ;
#295 = AXIS2_PLACEMENT_3D ( 'NONE', #144, #126, #175 ) ;
#296 =( CONVERSION_BASED_UNIT ( 'INCH', #36 ) LENGTH_UNIT ( ) NAMED_UNIT ( #96 ) );
#297 = ADVANCED_FACE ( 'NONE', ( #151 ), #38, .T. ) ;
#298 = ORIENTED_EDGE ( 'NONE', *, *, #89, .T. ) ;
#299 = ORIENTED_EDGE ( 'NONE', *, *, #179, .T. ) ;
ENDSEC;
END-ISO-10303-21;
