ISO-10303-21;
HEADER;
FILE_DESCRIPTION (( 'STEP AP214' ),
    '1' );
FILE_NAME ('Micro_DM-375-4120.STEP',
    '2021-09-02T16:04:46',
    ( '' ),
    ( '' ),
    'SwSTEP 2.0',
    'SolidWorks 2020',
    '' );
FILE_SCHEMA (( 'AUTOMOTIVE_DESIGN' ));
ENDSEC;

DATA;
#1 = LINE ( 'NONE', #145, #94 ) ;
#2 = CARTESIAN_POINT ( 'NONE',  ( -0.007499999999999999722, 1.193724467468882761E-17, 1.707404996040164512E-17 ) ) ;
#3 = ORIENTED_EDGE ( 'NONE', *, *, #48, .F. ) ;
#4 = CIRCLE ( 'NONE', #166, 0.1875000000000000278 ) ;
#5 = EDGE_LOOP ( 'NONE', ( #153, #50, #62, #78 ) ) ;
#6 = VERTEX_POINT ( 'NONE', #111 ) ;
#7 = VERTEX_POINT ( 'NONE', #296 ) ;
#8 =( GEOMETRIC_REPRESENTATION_CONTEXT ( 3 ) GLOBAL_UNCERTAINTY_ASSIGNED_CONTEXT ( ( #149 ) ) GLOBAL_UNIT_ASSIGNED_CONTEXT ( ( #38, #159, #184 ) ) REPRESENTATION_CONTEXT ( 'NONE', 'WORKASPACE' ) );
#9 = VECTOR ( 'NONE', #24, 39.37007874015748143 ) ;
#10 = CARTESIAN_POINT ( 'NONE',  ( 0.0000000000000000000, 0.0000000000000000000, 2.484999999999999432 ) ) ;
#11 = EDGE_LOOP ( 'NONE', ( #282, #12, #186, #175 ) ) ;
#12 = ORIENTED_EDGE ( 'NONE', *, *, #238, .T. ) ;
#13 = SHAPE_DEFINITION_REPRESENTATION ( #244, #158 ) ;
#14 = FACE_OUTER_BOUND ( 'NONE', #319, .T. ) ;
#15 = CONICAL_SURFACE ( 'NONE', #88, 0.1724999999999995981, 0.7853981633974357335 ) ;
#16 = LENGTH_MEASURE_WITH_UNIT ( LENGTH_MEASURE( 0.02539999999999999897 ), #64 );
#17 = FACE_OUTER_BOUND ( 'NONE', #82, .T. ) ;
#18 = PRESENTATION_LAYER_ASSIGNMENT (  '', '', ( #324 ) ) ;
#19 = CARTESIAN_POINT ( 'NONE',  ( 0.0000000000000000000, 0.0000000000000000000, 1.707404996040164512E-17 ) ) ;
#20 = DIRECTION ( 'NONE',  ( -0.0000000000000000000, -0.0000000000000000000, -1.000000000000000000 ) ) ;
#21 = DIRECTION ( 'NONE',  ( -0.0000000000000000000, 0.0000000000000000000, -1.000000000000000000 ) ) ;
#22 = FACE_OUTER_BOUND ( 'NONE', #5, .T. ) ;
#23 = VECTOR ( 'NONE', #114, 39.37007874015748854 ) ;
#24 = DIRECTION ( 'NONE',  ( -0.0000000000000000000, -0.0000000000000000000, -1.000000000000000000 ) ) ;
#25 = FACE_OUTER_BOUND ( 'NONE', #201, .T. ) ;
#26 = ORIENTED_EDGE ( 'NONE', *, *, #261, .F. ) ;
#27 = ORIENTED_EDGE ( 'NONE', *, *, #60, .T. ) ;
#28 = ADVANCED_FACE ( 'NONE', ( #14 ), #160, .T. ) ;
#29 = DIRECTION ( 'NONE',  ( -0.0000000000000000000, -0.0000000000000000000, -1.000000000000000000 ) ) ;
#30 = EDGE_LOOP ( 'NONE', ( #155, #173 ) ) ;
#31 = CARTESIAN_POINT ( 'NONE',  ( 0.1874500000000001443, 2.295600425001715468E-17, 1.000000000000000000 ) ) ;
#32 = EDGE_LOOP ( 'NONE', ( #233, #318, #26, #138 ) ) ;
#33 = AXIS2_PLACEMENT_3D ( 'NONE', #19, #220, #43 ) ;
#34 = APPLICATION_PROTOCOL_DEFINITION ( 'draft international standard', 'automotive_design', 1998, #299 ) ;
#35 = FILL_AREA_STYLE_COLOUR ( '', #99 ) ;
#36 = LENGTH_MEASURE_WITH_UNIT ( LENGTH_MEASURE( 0.02539999999999999897 ), #259 );
#37 = DIRECTION ( 'NONE',  ( 1.000000000000000000, 0.0000000000000000000, 0.0000000000000000000 ) ) ;
#38 =( CONVERSION_BASED_UNIT ( 'INCH', #16 ) LENGTH_UNIT ( ) NAMED_UNIT ( #121 ) );
#39 = AXIS2_PLACEMENT_3D ( 'NONE', #98, #197, #68 ) ;
#40 = DIRECTION ( 'NONE',  ( 0.0000000000000000000, 0.0000000000000000000, 1.000000000000000000 ) ) ;
#41 = CARTESIAN_POINT ( 'NONE',  ( 0.1875000000000000278, 2.296212748401287726E-17, 1.000000000000000000 ) ) ;
#42 = AXIS2_PLACEMENT_3D ( 'NONE', #240, #165, #272 ) ;
#43 = DIRECTION ( 'NONE',  ( 1.000000000000000000, 0.0000000000000000000, 0.0000000000000000000 ) ) ;
#44 = CARTESIAN_POINT ( 'NONE',  ( 0.0000000000000000000, 0.0000000000000000000, 2.500000000000000000 ) ) ;
#45 = AXIS2_PLACEMENT_3D ( 'NONE', #269, #293, #37 ) ;
#46 = FACE_OUTER_BOUND ( 'NONE', #132, .T. ) ;
#47 =( GEOMETRIC_REPRESENTATION_CONTEXT ( 3 ) GLOBAL_UNCERTAINTY_ASSIGNED_CONTEXT ( ( #308 ) ) GLOBAL_UNIT_ASSIGNED_CONTEXT ( ( #232, #311, #151 ) ) REPRESENTATION_CONTEXT ( 'NONE', 'WORKASPACE' ) );
#48 = EDGE_CURVE ( 'NONE', #260, #179, #235, .T. ) ;
#49 = CARTESIAN_POINT ( 'NONE',  ( 0.0000000000000000000, 0.0000000000000000000, 2.500000000000000000 ) ) ;
#50 = ORIENTED_EDGE ( 'NONE', *, *, #263, .T. ) ;
#51 = MANIFOLD_SOLID_BREP ( 'Cut-Revolve4', #133 ) ;
#52 = DIRECTION ( 'NONE',  ( -1.000000000000000000, 0.0000000000000000000, 0.0000000000000000000 ) ) ;
#53 = EDGE_CURVE ( 'NONE', #107, #130, #188, .T. ) ;
#54 = ORIENTED_EDGE ( 'NONE', *, *, #198, .F. ) ;
#55 = AXIS2_PLACEMENT_3D ( 'NONE', #275, #196, #307 ) ;
#56 = DIRECTION ( 'NONE',  ( -1.000000000000000000, 0.0000000000000000000, 0.0000000000000000000 ) ) ;
#57 = ADVANCED_FACE ( 'NONE', ( #270 ), #15, .T. ) ;
#58 = PRESENTATION_STYLE_ASSIGNMENT (( #286 ) ) ;
#59 = EDGE_LOOP ( 'NONE', ( #80, #225, #54, #314 ) ) ;
#60 = EDGE_CURVE ( 'NONE', #130, #150, #65, .T. ) ;
#61 =( CONVERSION_BASED_UNIT ( 'INCH', #36 ) LENGTH_UNIT ( ) NAMED_UNIT ( #101 ) );
#62 = ORIENTED_EDGE ( 'NONE', *, *, #276, .T. ) ;
#63 = CIRCLE ( 'NONE', #208, 0.1874500000000001443 ) ;
#64 =( LENGTH_UNIT ( ) NAMED_UNIT ( * ) SI_UNIT ( $, .METRE. ) );
#65 = LINE ( 'NONE', #207, #23 ) ;
#66 = COLOUR_RGB ( '',0.7921568627450980005, 0.8196078431372548767, 0.9333333333333333481 ) ;
#67 = DIRECTION ( 'NONE',  ( -0.0000000000000000000, -0.0000000000000000000, -1.000000000000000000 ) ) ;
#68 = DIRECTION ( 'NONE',  ( 1.000000000000000000, 0.0000000000000000000, 0.0000000000000000000 ) ) ;
#69 = ADVANCED_FACE ( 'NONE', ( #17 ), #255, .T. ) ;
#70 = CYLINDRICAL_SURFACE ( 'NONE', #321, 0.1874500000000000610 ) ;
#71 = CARTESIAN_POINT ( 'NONE',  ( -0.1875000000000000278, 0.0000000000000000000, 2.484999999999999432 ) ) ;
#72 = CARTESIAN_POINT ( 'NONE',  ( -0.1874500000000000610, 0.0000000000000000000, 0.0000000000000000000 ) ) ;
#73 = FACE_OUTER_BOUND ( 'NONE', #59, .T. ) ;
#74 = ADVANCED_FACE ( 'NONE', ( #89 ), #322, .T. ) ;
#75 = AXIS2_PLACEMENT_3D ( 'NONE', #202, #104, #251 ) ;
#76 = ORIENTED_EDGE ( 'NONE', *, *, #248, .T. ) ;
#77 = LINE ( 'NONE', #172, #315 ) ;
#78 = ORIENTED_EDGE ( 'NONE', *, *, #210, .F. ) ;
#79 = CARTESIAN_POINT ( 'NONE',  ( 0.0000000000000000000, 0.0000000000000000000, 0.1038941809406725564 ) ) ;
#80 = ORIENTED_EDGE ( 'NONE', *, *, #222, .T. ) ;
#81 = FILL_AREA_STYLE ('',( #316 ) ) ;
#82 = EDGE_LOOP ( 'NONE', ( #185, #206, #181, #102 ) ) ;
#83 = APPLICATION_CONTEXT ( 'automotive_design' ) ;
#84 = ORIENTED_EDGE ( 'NONE', *, *, #109, .F. ) ;
#85 = SURFACE_STYLE_FILL_AREA ( #236 ) ;
#86 =( NAMED_UNIT ( * ) SI_UNIT ( $, .STERADIAN. ) SOLID_ANGLE_UNIT ( ) );
#87 = ORIENTED_EDGE ( 'NONE', *, *, #234, .T. ) ;
#88 = AXIS2_PLACEMENT_3D ( 'NONE', #142, #300, #239 ) ;
#89 = FACE_OUTER_BOUND ( 'NONE', #134, .T. ) ;
#90 = EDGE_CURVE ( 'NONE', #203, #266, #125, .T. ) ;
#91 = DIRECTION ( 'NONE',  ( -0.0000000000000000000, -0.0000000000000000000, -1.000000000000000000 ) ) ;
#92 = PLANE ( 'NONE',  #283 ) ;
#93 = MECHANICAL_DESIGN_GEOMETRIC_PRESENTATION_REPRESENTATION (  '', ( #289 ), #8 ) ;
#94 = VECTOR ( 'NONE', #191, 39.37007874015748143 ) ;
#95 = CARTESIAN_POINT ( 'NONE',  ( 0.0000000000000000000, 0.0000000000000000000, 1.707404996040164512E-17 ) ) ;
#96 = PRODUCT_DEFINITION_FORMATION_WITH_SPECIFIED_SOURCE ( 'ANY', '', #115, .NOT_KNOWN. ) ;
#97 = CARTESIAN_POINT ( 'NONE',  ( 0.1874500000000000610, 0.0000000000000000000, 0.1038941809406725564 ) ) ;
#98 = CARTESIAN_POINT ( 'NONE',  ( 0.0000000000000000000, 0.0000000000000000000, 2.500000000000000000 ) ) ;
#99 = COLOUR_RGB ( '',0.7921568627450980005, 0.8196078431372548767, 0.9333333333333333481 ) ;
#100 = CARTESIAN_POINT ( 'NONE',  ( -0.1874500000000000610, 2.295600425001714852E-17, 0.1038941809406725564 ) ) ;
#101 = DIMENSIONAL_EXPONENTS ( 1.000000000000000000, 0.0000000000000000000, 0.0000000000000000000, 0.0000000000000000000, 0.0000000000000000000, 0.0000000000000000000, 0.0000000000000000000 ) ;
#102 = ORIENTED_EDGE ( 'NONE', *, *, #113, .F. ) ;
#103 = DIRECTION ( 'NONE',  ( -1.000000000000000000, 0.0000000000000000000, 0.0000000000000000000 ) ) ;
#104 = DIRECTION ( 'NONE',  ( 0.0000000000000000000, 0.0000000000000000000, -1.000000000000000000 ) ) ;
#105 = ORIENTED_EDGE ( 'NONE', *, *, #109, .T. ) ;
#106 = CARTESIAN_POINT ( 'NONE',  ( -0.1875000000000000278, 0.0000000000000000000, 2.500000000000000000 ) ) ;
#107 = VERTEX_POINT ( 'NONE', #215 ) ;
#108 = DIRECTION ( 'NONE',  ( -0.0000000000000000000, -0.0000000000000000000, -1.000000000000000000 ) ) ;
#109 = EDGE_CURVE ( 'NONE', #7, #228, #231, .T. ) ;
#110 = ORIENTED_EDGE ( 'NONE', *, *, #292, .F. ) ;
#111 = CARTESIAN_POINT ( 'NONE',  ( 0.1875000000000000278, 2.296212748401287726E-17, 2.484999999999999432 ) ) ;
#112 =( GEOMETRIC_REPRESENTATION_CONTEXT ( 3 ) GLOBAL_UNCERTAINTY_ASSIGNED_CONTEXT ( ( #250 ) ) GLOBAL_UNIT_ASSIGNED_CONTEXT ( ( #61, #265, #86 ) ) REPRESENTATION_CONTEXT ( 'NONE', 'WORKASPACE' ) );
#113 = EDGE_CURVE ( 'NONE', #7, #179, #1, .T. ) ;
#114 = DIRECTION ( 'NONE',  ( -0.7071067811865385799, 0.0000000000000000000, -0.7071067811865563435 ) ) ;
#115 = PRODUCT ( 'Micro_DM-375-4120', 'Micro_DM-375-4120', '', ( #295 ) ) ;
#116 = CARTESIAN_POINT ( 'NONE',  ( 0.1874500000000000610, 2.295600425001714235E-17, 0.0000000000000000000 ) ) ;
#117 = ADVANCED_FACE ( 'NONE', ( #22 ), #218, .T. ) ;
#118 = PRESENTATION_LAYER_ASSIGNMENT (  '', '', ( #289 ) ) ;
#119 = CIRCLE ( 'NONE', #242, 0.1874500000000000333 ) ;
#120 = DIRECTION ( 'NONE',  ( -0.0000000000000000000, -0.0000000000000000000, -1.000000000000000000 ) ) ;
#121 = DIMENSIONAL_EXPONENTS ( 1.000000000000000000, 0.0000000000000000000, 0.0000000000000000000, 0.0000000000000000000, 0.0000000000000000000, 0.0000000000000000000, 0.0000000000000000000 ) ;
#122 = FACE_BOUND ( 'NONE', #30, .T. ) ;
#123 = DIRECTION ( 'NONE',  ( -1.000000000000000000, 0.0000000000000000000, 0.0000000000000000000 ) ) ;
#124 = CIRCLE ( 'NONE', #39, 0.1724999999999995981 ) ;
#125 = LINE ( 'NONE', #72, #297 ) ;
#126 = DIRECTION ( 'NONE',  ( -0.0000000000000000000, -0.0000000000000000000, -1.000000000000000000 ) ) ;
#127 = DIRECTION ( 'NONE',  ( -0.8660254037844400399, 1.060575238724908640E-16, 0.4999999999999976685 ) ) ;
#128 = EDGE_LOOP ( 'NONE', ( #285, #84, #288, #221 ) ) ;
#129 = AXIS2_PLACEMENT_3D ( 'NONE', #320, #40, #323 ) ;
#130 = VERTEX_POINT ( 'NONE', #306 ) ;
#131 = CARTESIAN_POINT ( 'NONE',  ( 0.0000000000000000000, 0.0000000000000000000, 1.000000000000000000 ) ) ;
#132 = EDGE_LOOP ( 'NONE', ( #156, #254 ) ) ;
#133 = CLOSED_SHELL ( 'NONE', ( #163, #69, #57, #219, #117, #28, #301, #226, #139, #74, #305 ) ) ;
#134 = EDGE_LOOP ( 'NONE', ( #3, #87, #298, #110 ) ) ;
#135 = VECTOR ( 'NONE', #256, 39.37007874015748143 ) ;
#136 = DIRECTION ( 'NONE',  ( -1.000000000000000000, 0.0000000000000000000, 0.0000000000000000000 ) ) ;
#137 = CARTESIAN_POINT ( 'NONE',  ( 0.0000000000000000000, 0.0000000000000000000, 0.0000000000000000000 ) ) ;
#138 = ORIENTED_EDGE ( 'NONE', *, *, #60, .F. ) ;
#139 = ADVANCED_FACE ( 'NONE', ( #245 ), #171, .T. ) ;
#140 = PRESENTATION_STYLE_ASSIGNMENT (( #141 ) ) ;
#141 = SURFACE_STYLE_USAGE ( .BOTH. , #182 ) ;
#142 = CARTESIAN_POINT ( 'NONE',  ( 0.0000000000000000000, 0.0000000000000000000, 2.500000000000000000 ) ) ;
#143 = DIRECTION ( 'NONE',  ( -1.000000000000000000, 0.0000000000000000000, 0.0000000000000000000 ) ) ;
#144 = CARTESIAN_POINT ( 'NONE',  ( 0.0000000000000000000, 0.0000000000000000000, 2.500000000000000000 ) ) ;
#145 = CARTESIAN_POINT ( 'NONE',  ( 0.007499999999999999722, 0.0000000000000000000, 1.707404996040164512E-17 ) ) ;
#146 = DIRECTION ( 'NONE',  ( -0.0000000000000000000, -0.0000000000000000000, -1.000000000000000000 ) ) ;
#147 = LINE ( 'NONE', #249, #9 ) ;
#148 = DIRECTION ( 'NONE',  ( -1.000000000000000000, 0.0000000000000000000, 0.0000000000000000000 ) ) ;
#149 = UNCERTAINTY_MEASURE_WITH_UNIT (LENGTH_MEASURE( 1.000000000000000082E-05 ), #38, 'distance_accuracy_value', 'NONE');
#150 = VERTEX_POINT ( 'NONE', #71 ) ;
#151 =( NAMED_UNIT ( * ) SI_UNIT ( $, .STERADIAN. ) SOLID_ANGLE_UNIT ( ) );
#152 = AXIS2_PLACEMENT_3D ( 'NONE', #154, #279, #312 ) ;
#153 = ORIENTED_EDGE ( 'NONE', *, *, #238, .F. ) ;
#154 = CARTESIAN_POINT ( 'NONE',  ( 0.0000000000000000000, 0.0000000000000000000, 0.0000000000000000000 ) ) ;
#155 = ORIENTED_EDGE ( 'NONE', *, *, #222, .F. ) ;
#156 = ORIENTED_EDGE ( 'NONE', *, *, #294, .T. ) ;
#157 = CARTESIAN_POINT ( 'NONE',  ( 0.0000000000000000000, 0.0000000000000000000, 0.0000000000000000000 ) ) ;
#158 = ADVANCED_BREP_SHAPE_REPRESENTATION ( 'Micro_DM-375-4120', ( #51, #304 ), #47 ) ;
#159 =( NAMED_UNIT ( * ) PLANE_ANGLE_UNIT ( ) SI_UNIT ( $, .RADIAN. ) );
#160 = PLANE ( 'NONE',  #129 ) ;
#161 = AXIS2_PLACEMENT_3D ( 'NONE', #49, #281, #52 ) ;
#162 = ORIENTED_EDGE ( 'NONE', *, *, #325, .T. ) ;
#163 = ADVANCED_FACE ( 'NONE', ( #73 ), #70, .T. ) ;
#164 = CARTESIAN_POINT ( 'NONE',  ( -0.1875000000000000278, 0.0000000000000000000, 1.000000000000000000 ) ) ;
#165 = DIRECTION ( 'NONE',  ( -0.0000000000000000000, -0.0000000000000000000, -1.000000000000000000 ) ) ;
#166 = AXIS2_PLACEMENT_3D ( 'NONE', #131, #29, #148 ) ;
#167 = PRODUCT_DEFINITION ( 'UNKNOWN', '', #96, #280 ) ;
#168 = CARTESIAN_POINT ( 'NONE',  ( 0.0000000000000000000, 0.0000000000000000000, 1.000000000000000000 ) ) ;
#169 = CYLINDRICAL_SURFACE ( 'NONE', #262, 0.1875000000000000278 ) ;
#170 = CARTESIAN_POINT ( 'NONE',  ( 0.0000000000000000000, 0.0000000000000000000, 0.0000000000000000000 ) ) ;
#171 = CONICAL_SURFACE ( 'NONE', #33, 0.007499999999999999722, 1.047197551196600518 ) ;
#172 = CARTESIAN_POINT ( 'NONE',  ( -0.007499999999999999722, 9.184850993605147975E-19, 1.707404996040164512E-17 ) ) ;
#173 = ORIENTED_EDGE ( 'NONE', *, *, #234, .F. ) ;
#174 = DIRECTION ( 'NONE',  ( -0.0000000000000000000, -0.0000000000000000000, -1.000000000000000000 ) ) ;
#175 = ORIENTED_EDGE ( 'NONE', *, *, #276, .F. ) ;
#176 = AXIS2_PLACEMENT_3D ( 'NONE', #157, #264, #136 ) ;
#177 = FACE_OUTER_BOUND ( 'NONE', #230, .T. ) ;
#178 = SURFACE_SIDE_STYLE ('',( #253 ) ) ;
#179 = VERTEX_POINT ( 'NONE', #97 ) ;
#180 = DIRECTION ( 'NONE',  ( 0.0000000000000000000, 0.0000000000000000000, 1.000000000000000000 ) ) ;
#181 = ORIENTED_EDGE ( 'NONE', *, *, #198, .T. ) ;
#182 = SURFACE_SIDE_STYLE ('',( #85 ) ) ;
#183 = AXIS2_PLACEMENT_3D ( 'NONE', #95, #326, #123 ) ;
#184 =( NAMED_UNIT ( * ) SI_UNIT ( $, .STERADIAN. ) SOLID_ANGLE_UNIT ( ) );
#185 = ORIENTED_EDGE ( 'NONE', *, *, #325, .F. ) ;
#186 = ORIENTED_EDGE ( 'NONE', *, *, #294, .F. ) ;
#187 = PRODUCT_RELATED_PRODUCT_CATEGORY ( 'part', '', ( #115 ) ) ;
#188 = CIRCLE ( 'NONE', #45, 0.1724999999999995981 ) ;
#189 = CIRCLE ( 'NONE', #204, 0.007499999999999999722 ) ;
#190 = DIRECTION ( 'NONE',  ( 1.000000000000000000, 0.0000000000000000000, 0.0000000000000000000 ) ) ;
#191 = DIRECTION ( 'NONE',  ( 0.8660254037844400399, 0.0000000000000000000, 0.4999999999999976685 ) ) ;
#192 = EDGE_CURVE ( 'NONE', #107, #6, #195, .T. ) ;
#193 = DIRECTION ( 'NONE',  ( -0.0000000000000000000, -0.0000000000000000000, -1.000000000000000000 ) ) ;
#194 = VECTOR ( 'NONE', #328, 39.37007874015748854 ) ;
#195 = LINE ( 'NONE', #214, #194 ) ;
#196 = DIRECTION ( 'NONE',  ( -0.0000000000000000000, -0.0000000000000000000, -1.000000000000000000 ) ) ;
#197 = DIRECTION ( 'NONE',  ( 0.0000000000000000000, 0.0000000000000000000, 1.000000000000000000 ) ) ;
#198 = EDGE_CURVE ( 'NONE', #266, #179, #278, .T. ) ;
#199 = AXIS2_PLACEMENT_3D ( 'NONE', #144, #91, #302 ) ;
#200 = LENGTH_MEASURE_WITH_UNIT ( LENGTH_MEASURE( 0.02539999999999999897 ), #229 );
#201 = EDGE_LOOP ( 'NONE', ( #105, #162 ) ) ;
#202 = CARTESIAN_POINT ( 'NONE',  ( 0.0000000000000000000, 0.0000000000000000000, 2.484999999999999432 ) ) ;
#203 = VERTEX_POINT ( 'NONE', #243 ) ;
#204 = AXIS2_PLACEMENT_3D ( 'NONE', #227, #174, #103 ) ;
#205 = ORIENTED_EDGE ( 'NONE', *, *, #53, .T. ) ;
#206 = ORIENTED_EDGE ( 'NONE', *, *, #317, .T. ) ;
#207 = CARTESIAN_POINT ( 'NONE',  ( -0.1724999999999995981, 0.0000000000000000000, 2.500000000000000000 ) ) ;
#208 = AXIS2_PLACEMENT_3D ( 'NONE', #168, #193, #327 ) ;
#209 = CARTESIAN_POINT ( 'NONE',  ( 0.0000000000000000000, 0.0000000000000000000, 1.707404996040164512E-17 ) ) ;
#210 = EDGE_CURVE ( 'NONE', #257, #211, #217, .T. ) ;
#211 = VERTEX_POINT ( 'NONE', #164 ) ;
#212 = DIRECTION ( 'NONE',  ( 0.0000000000000000000, 0.0000000000000000000, 1.000000000000000000 ) ) ;
#213 = AXIS2_PLACEMENT_3D ( 'NONE', #10, #224, #258 ) ;
#214 = CARTESIAN_POINT ( 'NONE',  ( 0.1724999999999995981, 2.112515728529179297E-17, 2.500000000000000000 ) ) ;
#215 = CARTESIAN_POINT ( 'NONE',  ( 0.1724999999999995981, 2.204364238465233357E-17, 2.500000000000000000 ) ) ;
#216 = CARTESIAN_POINT ( 'NONE',  ( 0.0000000000000000000, 0.0000000000000000000, 1.000000000000000000 ) ) ;
#217 = CIRCLE ( 'NONE', #55, 0.1875000000000000278 ) ;
#218 = CYLINDRICAL_SURFACE ( 'NONE', #199, 0.1875000000000000278 ) ;
#219 = ADVANCED_FACE ( 'NONE', ( #277 ), #169, .T. ) ;
#220 = DIRECTION ( 'NONE',  ( 0.0000000000000000000, 0.0000000000000000000, 1.000000000000000000 ) ) ;
#221 = ORIENTED_EDGE ( 'NONE', *, *, #292, .T. ) ;
#222 = EDGE_CURVE ( 'NONE', #203, #260, #63, .T. ) ;
#223 = CIRCLE ( 'NONE', #75, 0.1875000000000000278 ) ;
#224 = DIRECTION ( 'NONE',  ( 0.0000000000000000000, 0.0000000000000000000, -1.000000000000000000 ) ) ;
#225 = ORIENTED_EDGE ( 'NONE', *, *, #48, .T. ) ;
#226 = ADVANCED_FACE ( 'NONE', ( #122, #46 ), #92, .T. ) ;
#227 = CARTESIAN_POINT ( 'NONE',  ( 0.0000000000000000000, 0.0000000000000000000, 1.707404996040164512E-17 ) ) ;
#228 = VERTEX_POINT ( 'NONE', #2 ) ;
#229 =( LENGTH_UNIT ( ) NAMED_UNIT ( * ) SI_UNIT ( $, .METRE. ) );
#230 = EDGE_LOOP ( 'NONE', ( #287, #267, #27, #252 ) ) ;
#231 = CIRCLE ( 'NONE', #183, 0.007499999999999999722 ) ;
#232 =( CONVERSION_BASED_UNIT ( 'INCH', #200 ) LENGTH_UNIT ( ) NAMED_UNIT ( #273 ) );
#233 = ORIENTED_EDGE ( 'NONE', *, *, #53, .F. ) ;
#234 = EDGE_CURVE ( 'NONE', #260, #203, #247, .T. ) ;
#235 = LINE ( 'NONE', #116, #241 ) ;
#236 = FILL_AREA_STYLE ('',( #35 ) ) ;
#237 = AXIS2_PLACEMENT_3D ( 'NONE', #209, #212, #190 ) ;
#238 = EDGE_CURVE ( 'NONE', #6, #257, #147, .T. ) ;
#239 = DIRECTION ( 'NONE',  ( -1.000000000000000000, 0.0000000000000000000, 0.0000000000000000000 ) ) ;
#240 = CARTESIAN_POINT ( 'NONE',  ( 0.0000000000000000000, 0.0000000000000000000, 0.1038941809406725564 ) ) ;
#241 = VECTOR ( 'NONE', #67, 39.37007874015748143 ) ;
#242 = AXIS2_PLACEMENT_3D ( 'NONE', #79, #108, #56 ) ;
#243 = CARTESIAN_POINT ( 'NONE',  ( -0.1874500000000001443, 0.0000000000000000000, 1.000000000000000000 ) ) ;
#244 = PRODUCT_DEFINITION_SHAPE ( 'NONE', 'NONE',  #167 ) ;
#245 = FACE_OUTER_BOUND ( 'NONE', #128, .T. ) ;
#246 = DIRECTION ( 'NONE',  ( -1.000000000000000000, 0.0000000000000000000, 0.0000000000000000000 ) ) ;
#247 = CIRCLE ( 'NONE', #268, 0.1874500000000001443 ) ;
#248 = EDGE_CURVE ( 'NONE', #130, #107, #124, .T. ) ;
#249 = CARTESIAN_POINT ( 'NONE',  ( 0.1875000000000000278, 2.296212748401287726E-17, 2.500000000000000000 ) ) ;
#250 = UNCERTAINTY_MEASURE_WITH_UNIT (LENGTH_MEASURE( 1.000000000000000082E-05 ), #61, 'distance_accuracy_value', 'NONE');
#251 = DIRECTION ( 'NONE',  ( 1.000000000000000000, 0.0000000000000000000, 0.0000000000000000000 ) ) ;
#252 = ORIENTED_EDGE ( 'NONE', *, *, #263, .F. ) ;
#253 = SURFACE_STYLE_FILL_AREA ( #81 ) ;
#254 = ORIENTED_EDGE ( 'NONE', *, *, #210, .T. ) ;
#255 = CONICAL_SURFACE ( 'NONE', #237, 0.007499999999999999722, 1.047197551196600518 ) ;
#256 = DIRECTION ( 'NONE',  ( -0.0000000000000000000, -0.0000000000000000000, -1.000000000000000000 ) ) ;
#257 = VERTEX_POINT ( 'NONE', #41 ) ;
#258 = DIRECTION ( 'NONE',  ( 1.000000000000000000, 0.0000000000000000000, 0.0000000000000000000 ) ) ;
#259 =( LENGTH_UNIT ( ) NAMED_UNIT ( * ) SI_UNIT ( $, .METRE. ) );
#260 = VERTEX_POINT ( 'NONE', #31 ) ;
#261 = EDGE_CURVE ( 'NONE', #150, #6, #223, .T. ) ;
#262 = AXIS2_PLACEMENT_3D ( 'NONE', #44, #20, #143 ) ;
#263 = EDGE_CURVE ( 'NONE', #6, #150, #329, .T. ) ;
#264 = DIRECTION ( 'NONE',  ( -0.0000000000000000000, -0.0000000000000000000, -1.000000000000000000 ) ) ;
#265 =( NAMED_UNIT ( * ) PLANE_ANGLE_UNIT ( ) SI_UNIT ( $, .RADIAN. ) );
#266 = VERTEX_POINT ( 'NONE', #100 ) ;
#267 = ORIENTED_EDGE ( 'NONE', *, *, #248, .F. ) ;
#268 = AXIS2_PLACEMENT_3D ( 'NONE', #216, #146, #246 ) ;
#269 = CARTESIAN_POINT ( 'NONE',  ( 0.0000000000000000000, 0.0000000000000000000, 2.500000000000000000 ) ) ;
#270 = FACE_OUTER_BOUND ( 'NONE', #32, .T. ) ;
#271 = DIRECTION ( 'NONE',  ( -1.000000000000000000, 0.0000000000000000000, 0.0000000000000000000 ) ) ;
#272 = DIRECTION ( 'NONE',  ( -1.000000000000000000, 0.0000000000000000000, 0.0000000000000000000 ) ) ;
#273 = DIMENSIONAL_EXPONENTS ( 1.000000000000000000, 0.0000000000000000000, 0.0000000000000000000, 0.0000000000000000000, 0.0000000000000000000, 0.0000000000000000000, 0.0000000000000000000 ) ;
#274 = DIRECTION ( 'NONE',  ( -1.000000000000000000, 0.0000000000000000000, 0.0000000000000000000 ) ) ;
#275 = CARTESIAN_POINT ( 'NONE',  ( 0.0000000000000000000, 0.0000000000000000000, 1.000000000000000000 ) ) ;
#276 = EDGE_CURVE ( 'NONE', #150, #211, #313, .T. ) ;
#277 = FACE_OUTER_BOUND ( 'NONE', #11, .T. ) ;
#278 = CIRCLE ( 'NONE', #42, 0.1874500000000000333 ) ;
#279 = DIRECTION ( 'NONE',  ( 0.0000000000000000000, 0.0000000000000000000, 1.000000000000000000 ) ) ;
#280 = PRODUCT_DEFINITION_CONTEXT ( 'detailed design', #299, 'design' ) ;
#281 = DIRECTION ( 'NONE',  ( 0.0000000000000000000, 0.0000000000000000000, -1.000000000000000000 ) ) ;
#282 = ORIENTED_EDGE ( 'NONE', *, *, #261, .T. ) ;
#283 = AXIS2_PLACEMENT_3D ( 'NONE', #303, #21, #274 ) ;
#284 = PLANE ( 'NONE',  #152 ) ;
#285 = ORIENTED_EDGE ( 'NONE', *, *, #317, .F. ) ;
#286 = SURFACE_STYLE_USAGE ( .BOTH. , #178 ) ;
#287 = ORIENTED_EDGE ( 'NONE', *, *, #192, .F. ) ;
#288 = ORIENTED_EDGE ( 'NONE', *, *, #113, .T. ) ;
#289 = STYLED_ITEM ( 'NONE', ( #140 ), #51 ) ;
#290 = MECHANICAL_DESIGN_GEOMETRIC_PRESENTATION_REPRESENTATION (  '', ( #324 ), #112 ) ;
#291 = DIRECTION ( 'NONE',  ( 1.000000000000000000, 0.0000000000000000000, 0.0000000000000000000 ) ) ;
#292 = EDGE_CURVE ( 'NONE', #179, #266, #119, .T. ) ;
#293 = DIRECTION ( 'NONE',  ( 0.0000000000000000000, 0.0000000000000000000, 1.000000000000000000 ) ) ;
#294 = EDGE_CURVE ( 'NONE', #211, #257, #4, .T. ) ;
#295 = PRODUCT_CONTEXT ( 'NONE', #83, 'mechanical' ) ;
#296 = CARTESIAN_POINT ( 'NONE',  ( 0.007499999999999999722, 0.0000000000000000000, 1.707404996040164512E-17 ) ) ;
#297 = VECTOR ( 'NONE', #120, 39.37007874015748143 ) ;
#298 = ORIENTED_EDGE ( 'NONE', *, *, #90, .T. ) ;
#299 = APPLICATION_CONTEXT ( 'automotive_design' ) ;
#300 = DIRECTION ( 'NONE',  ( 0.0000000000000000000, 0.0000000000000000000, -1.000000000000000000 ) ) ;
#301 = ADVANCED_FACE ( 'NONE', ( #177 ), #310, .T. ) ;
#302 = DIRECTION ( 'NONE',  ( -1.000000000000000000, 0.0000000000000000000, 0.0000000000000000000 ) ) ;
#303 = CARTESIAN_POINT ( 'NONE',  ( 0.1874500000000001443, 0.0000000000000000000, 1.000000000000000000 ) ) ;
#304 = AXIS2_PLACEMENT_3D ( 'NONE', #137, #180, #291 ) ;
#305 = ADVANCED_FACE ( 'NONE', ( #25 ), #284, .F. ) ;
#306 = CARTESIAN_POINT ( 'NONE',  ( -0.1724999999999995981, 0.0000000000000000000, 2.500000000000000000 ) ) ;
#307 = DIRECTION ( 'NONE',  ( -1.000000000000000000, 0.0000000000000000000, 0.0000000000000000000 ) ) ;
#308 = UNCERTAINTY_MEASURE_WITH_UNIT (LENGTH_MEASURE( 1.000000000000000082E-05 ), #232, 'distance_accuracy_value', 'NONE');
#309 = APPLICATION_PROTOCOL_DEFINITION ( 'draft international standard', 'automotive_design', 1998, #83 ) ;
#310 = CONICAL_SURFACE ( 'NONE', #161, 0.1724999999999995981, 0.7853981633974357335 ) ;
#311 =( NAMED_UNIT ( * ) PLANE_ANGLE_UNIT ( ) SI_UNIT ( $, .RADIAN. ) );
#312 = DIRECTION ( 'NONE',  ( 1.000000000000000000, 0.0000000000000000000, -0.0000000000000000000 ) ) ;
#313 = LINE ( 'NONE', #106, #135 ) ;
#314 = ORIENTED_EDGE ( 'NONE', *, *, #90, .F. ) ;
#315 = VECTOR ( 'NONE', #127, 39.37007874015748143 ) ;
#316 = FILL_AREA_STYLE_COLOUR ( '', #66 ) ;
#317 = EDGE_CURVE ( 'NONE', #228, #266, #77, .T. ) ;
#318 = ORIENTED_EDGE ( 'NONE', *, *, #192, .T. ) ;
#319 = EDGE_LOOP ( 'NONE', ( #76, #205 ) ) ;
#320 = CARTESIAN_POINT ( 'NONE',  ( 0.0000000000000000000, 0.0000000000000000000, 2.500000000000000000 ) ) ;
#321 = AXIS2_PLACEMENT_3D ( 'NONE', #170, #126, #271 ) ;
#322 = CYLINDRICAL_SURFACE ( 'NONE', #176, 0.1874500000000000610 ) ;
#323 = DIRECTION ( 'NONE',  ( 1.000000000000000000, 0.0000000000000000000, -0.0000000000000000000 ) ) ;
#324 = STYLED_ITEM ( 'NONE', ( #58 ), #158 ) ;
#325 = EDGE_CURVE ( 'NONE', #228, #7, #189, .T. ) ;
#326 = DIRECTION ( 'NONE',  ( -0.0000000000000000000, -0.0000000000000000000, -1.000000000000000000 ) ) ;
#327 = DIRECTION ( 'NONE',  ( -1.000000000000000000, 0.0000000000000000000, 0.0000000000000000000 ) ) ;
#328 = DIRECTION ( 'NONE',  ( 0.7071067811865385799, 8.659560562354823157E-17, -0.7071067811865563435 ) ) ;
#329 = CIRCLE ( 'NONE', #213, 0.1875000000000000278 ) ;
ENDSEC;
END-ISO-10303-21;
