ISO-10303-21;
HEADER;
FILE_DESCRIPTION (( 'STEP AP214' ),
    '1' );
FILE_NAME ('59627.STEP',
    '2023-07-24T15:16:49',
    ( '' ),
    ( '' ),
    'SwSTEP 2.0',
    'SolidWorks 2023',
    '' );
FILE_SCHEMA (( 'AUTOMOTIVE_DESIGN' ));
ENDSEC;

DATA;
#1 = EDGE_CURVE ( 'NONE', #194, #274, #322, .T. ) ;
#2 = MECHANICAL_DESIGN_GEOMETRIC_PRESENTATION_REPRESENTATION (  '', ( #260 ), #30 ) ;
#3 = EDGE_LOOP ( 'NONE', ( #276, #210 ) ) ;
#4 = ORIENTED_EDGE ( 'NONE', *, *, #349, .T. ) ;
#5 = AXIS2_PLACEMENT_3D ( 'NONE', #173, #313, #230 ) ;
#6 = DIRECTION ( 'NONE',  ( -0.000000000000000000, -1.000000000000000000, -0.000000000000000000 ) ) ;
#7 = ORIENTED_EDGE ( 'NONE', *, *, #131, .T. ) ;
#8 = UNCERTAINTY_MEASURE_WITH_UNIT (LENGTH_MEASURE( 1.000000000000000082E-05 ), #138, 'distance_accuracy_value', 'NONE');
#9 = ORIENTED_EDGE ( 'NONE', *, *, #339, .T. ) ;
#10 = ORIENTED_EDGE ( 'NONE', *, *, #259, .F. ) ;
#11 = ORIENTED_EDGE ( 'NONE', *, *, #301, .T. ) ;
#12 = DIRECTION ( 'NONE',  ( -1.000000000000000000, 0.000000000000000000, 0.000000000000000000 ) ) ;
#13 = TOROIDAL_SURFACE ( 'NONE', #120, 2.499999999999998668, 0.5000000000000002220 ) ;
#14 = AXIS2_PLACEMENT_3D ( 'NONE', #251, #6, #154 ) ;
#15 = DIRECTION ( 'NONE',  ( -1.000000000000000000, 0.000000000000000000, 0.000000000000000000 ) ) ;
#16 = DIRECTION ( 'NONE',  ( -1.444848463910660280E-16, 1.000000000000000000, -0.000000000000000000 ) ) ;
#17 = CIRCLE ( 'NONE', #145, 2.499999999999998668 ) ;
#18 = PRODUCT_DEFINITION_CONTEXT ( 'detailed design', #74, 'design' ) ;
#19 = SURFACE_SIDE_STYLE ('',( #261 ) ) ;
#20 = CARTESIAN_POINT ( 'NONE',  ( 0.000000000000000000, 0.000000000000000000, -2.499999999999998668 ) ) ;
#21 = DIRECTION ( 'NONE',  ( -0.000000000000000000, -1.000000000000000000, -0.000000000000000000 ) ) ;
#22 = LINE ( 'NONE', #132, #116 ) ;
#23 = CARTESIAN_POINT ( 'NONE',  ( 0.000000000000000000, 0.000000000000000000, 0.000000000000000000 ) ) ;
#24 = COLOUR_RGB ( '',1.000000000000000000, 0.000000000000000000, 0.000000000000000000 ) ;
#25 = DIRECTION ( 'NONE',  ( 0.000000000000000000, 0.000000000000000000, 1.000000000000000000 ) ) ;
#26 = STYLED_ITEM ( 'NONE', ( #250 ), #285 ) ;
#27 = DIRECTION ( 'NONE',  ( 0.000000000000000000, 0.000000000000000000, 1.000000000000000000 ) ) ;
#28 = FACE_OUTER_BOUND ( 'NONE', #147, .T. ) ;
#29 = TOROIDAL_SURFACE ( 'NONE', #240, 2.499999999999998668, 0.5000000000000002220 ) ;
#30 =( GEOMETRIC_REPRESENTATION_CONTEXT ( 3 ) GLOBAL_UNCERTAINTY_ASSIGNED_CONTEXT ( ( #191 ) ) GLOBAL_UNIT_ASSIGNED_CONTEXT ( ( #63, #298, #211 ) ) REPRESENTATION_CONTEXT ( 'NONE', 'WORKASPACE' ) );
#31 = CARTESIAN_POINT ( 'NONE',  ( 3.061616997868381662E-16, 0.5000000000000000000, 2.499999999999998668 ) ) ;
#32 = AXIS2_PLACEMENT_3D ( 'NONE', #306, #80, #103 ) ;
#33 = DIRECTION ( 'NONE',  ( 1.000000000000000000, 0.000000000000000000, 0.000000000000000000 ) ) ;
#34 = DIRECTION ( 'NONE',  ( -1.000000000000000000, 0.000000000000000000, 0.000000000000000000 ) ) ;
#35 = EDGE_LOOP ( 'NONE', ( #148, #40, #197, #171 ) ) ;
#36 = CARTESIAN_POINT ( 'NONE',  ( -2.999999999999970690, 18.00000000000000355, 0.000000000000000000 ) ) ;
#37 = STYLED_ITEM ( 'NONE', ( #188 ), #158 ) ;
#38 = DIRECTION ( 'NONE',  ( 0.000000000000000000, 0.000000000000000000, -1.000000000000000000 ) ) ;
#39 = STYLED_ITEM ( 'NONE', ( #266 ), #338 ) ;
#40 = ORIENTED_EDGE ( 'NONE', *, *, #161, .T. ) ;
#41 = STYLED_ITEM ( 'NONE', ( #123 ), #46 ) ;
#42 = DIRECTION ( 'NONE',  ( -1.444848463910660280E-16, 1.000000000000000000, -0.000000000000000000 ) ) ;
#43 = APPLICATION_PROTOCOL_DEFINITION ( 'draft international standard', 'automotive_design', 1998, #74 ) ;
#44 = FILL_AREA_STYLE_COLOUR ( '', #357 ) ;
#45 = PRESENTATION_STYLE_ASSIGNMENT (( #359 ) ) ;
#46 = MANIFOLD_SOLID_BREP ( 'Revolve - Cutting Edge', #244 ) ;
#47 =( NAMED_UNIT ( * ) SI_UNIT ( $, .STERADIAN. ) SOLID_ANGLE_UNIT ( ) );
#48 = MECHANICAL_DESIGN_GEOMETRIC_PRESENTATION_REPRESENTATION (  '', ( #26 ), #196 ) ;
#49 = FILL_AREA_STYLE_COLOUR ( '', #307 ) ;
#50 = AXIS2_PLACEMENT_3D ( 'NONE', #208, #112, #150 ) ;
#51 = SURFACE_STYLE_FILL_AREA ( #78 ) ;
#52 = DIRECTION ( 'NONE',  ( -0.000000000000000000, -1.000000000000000000, -0.000000000000000000 ) ) ;
#53 = SURFACE_STYLE_USAGE ( .BOTH. , #97 ) ;
#54 = DIRECTION ( 'NONE',  ( -0.000000000000000000, -1.000000000000000000, -0.000000000000000000 ) ) ;
#55 = COLOUR_RGB ( '',1.000000000000000000, 0.000000000000000000, 0.000000000000000000 ) ;
#56 = ORIENTED_EDGE ( 'NONE', *, *, #333, .F. ) ;
#57 = ORIENTED_EDGE ( 'NONE', *, *, #259, .T. ) ;
#58 = FILL_AREA_STYLE ('',( #44 ) ) ;
#59 = DIRECTION ( 'NONE',  ( -0.000000000000000000, -1.000000000000000000, -0.000000000000000000 ) ) ;
#60 = FACE_OUTER_BOUND ( 'NONE', #369, .T. ) ;
#61 = PRESENTATION_LAYER_ASSIGNMENT (  '', '', ( #41 ) ) ;
#62 = PRODUCT ( '59627', '59627', '', ( #342 ) ) ;
#63 =( LENGTH_UNIT ( ) NAMED_UNIT ( * ) SI_UNIT ( .MILLI., .METRE. ) );
#64 = ADVANCED_FACE ( 'NONE', ( #181 ), #129, .F. ) ;
#65 = AXIS2_PLACEMENT_3D ( 'NONE', #104, #271, #268 ) ;
#66 = STYLED_ITEM ( 'NONE', ( #45 ), #220 ) ;
#67 =( NAMED_UNIT ( * ) PLANE_ANGLE_UNIT ( ) SI_UNIT ( $, .RADIAN. ) );
#68 = CARTESIAN_POINT ( 'NONE',  ( 0.000000000000000000, 18.00000000000000355, 0.000000000000000000 ) ) ;
#69 = LINE ( 'NONE', #258, #243 ) ;
#70 = ADVANCED_BREP_SHAPE_REPRESENTATION ( '59627', ( #46, #285, #318 ), #140 ) ;
#71 = DIRECTION ( 'NONE',  ( 1.000000000000000000, 1.444848463910660280E-16, 0.000000000000000000 ) ) ;
#72 = CIRCLE ( 'NONE', #143, 2.999999999999984457 ) ;
#73 = UNCERTAINTY_MEASURE_WITH_UNIT (LENGTH_MEASURE( 1.000000000000000082E-05 ), #227, 'distance_accuracy_value', 'NONE');
#74 = APPLICATION_CONTEXT ( 'automotive_design' ) ;
#75 = UNCERTAINTY_MEASURE_WITH_UNIT (LENGTH_MEASURE( 1.000000000000000082E-05 ), #347, 'distance_accuracy_value', 'NONE');
#76 = VECTOR ( 'NONE', #122, 1000.000000000000000 ) ;
#77 = DIRECTION ( 'NONE',  ( 1.444848463910660280E-16, -1.000000000000000000, 0.000000000000000000 ) ) ;
#78 = FILL_AREA_STYLE ('',( #49 ) ) ;
#79 = SURFACE_STYLE_USAGE ( .BOTH. , #324 ) ;
#80 = DIRECTION ( 'NONE',  ( -1.444848463910660280E-16, 1.000000000000000000, -0.000000000000000000 ) ) ;
#81 = PRODUCT_DEFINITION_FORMATION_WITH_SPECIFIED_SOURCE ( 'ANY', '', #62, .NOT_KNOWN. ) ;
#82 = ADVANCED_FACE ( 'NONE', ( #198 ), #174, .T. ) ;
#83 = FILL_AREA_STYLE ('',( #109 ) ) ;
#84 = SURFACE_STYLE_USAGE ( .BOTH. , #363 ) ;
#85 =( NAMED_UNIT ( * ) PLANE_ANGLE_UNIT ( ) SI_UNIT ( $, .RADIAN. ) );
#86 = VERTEX_POINT ( 'NONE', #110 ) ;
#87 =( NAMED_UNIT ( * ) SI_UNIT ( $, .STERADIAN. ) SOLID_ANGLE_UNIT ( ) );
#88 = MECHANICAL_DESIGN_GEOMETRIC_PRESENTATION_REPRESENTATION (  '', ( #41 ), #178 ) ;
#89 = EDGE_CURVE ( 'NONE', #86, #305, #212, .T. ) ;
#90 = ADVANCED_FACE ( 'NONE', ( #113 ), #368, .T. ) ;
#91 = ORIENTED_EDGE ( 'NONE', *, *, #339, .F. ) ;
#92 = ORIENTED_EDGE ( 'NONE', *, *, #290, .F. ) ;
#93 = UNCERTAINTY_MEASURE_WITH_UNIT (LENGTH_MEASURE( 1.000000000000000082E-05 ), #300, 'distance_accuracy_value', 'NONE');
#94 =( NAMED_UNIT ( * ) PLANE_ANGLE_UNIT ( ) SI_UNIT ( $, .RADIAN. ) );
#95 = CYLINDRICAL_SURFACE ( 'NONE', #32, 2.999999999999988454 ) ;
#96 = CARTESIAN_POINT ( 'NONE',  ( 7.592810154713587074E-15, 63.00000000000000000, 0.000000000000000000 ) ) ;
#97 = SURFACE_SIDE_STYLE ('',( #153 ) ) ;
#98 = PLANE ( 'NONE',  #65 ) ;
#99 =( GEOMETRIC_REPRESENTATION_CONTEXT ( 3 ) GLOBAL_UNCERTAINTY_ASSIGNED_CONTEXT ( ( #75 ) ) GLOBAL_UNIT_ASSIGNED_CONTEXT ( ( #347, #315, #47 ) ) REPRESENTATION_CONTEXT ( 'NONE', 'WORKASPACE' ) );
#100 = AXIS2_PLACEMENT_3D ( 'NONE', #134, #238, #193 ) ;
#101 = FACE_OUTER_BOUND ( 'NONE', #124, .T. ) ;
#102 = COLOUR_RGB ( '',1.000000000000000000, 0.000000000000000000, 0.000000000000000000 ) ;
#103 = DIRECTION ( 'NONE',  ( -1.000000000000000000, 0.000000000000000000, 0.000000000000000000 ) ) ;
#104 = CARTESIAN_POINT ( 'NONE',  ( 0.000000000000000000, 18.00000000000000355, 0.000000000000000000 ) ) ;
#105 = UNCERTAINTY_MEASURE_WITH_UNIT (LENGTH_MEASURE( 1.000000000000000082E-05 ), #288, 'distance_accuracy_value', 'NONE');
#106 = FACE_OUTER_BOUND ( 'NONE', #35, .T. ) ;
#107 =( NAMED_UNIT ( * ) PLANE_ANGLE_UNIT ( ) SI_UNIT ( $, .RADIAN. ) );
#108 = SURFACE_STYLE_FILL_AREA ( #364 ) ;
#109 = FILL_AREA_STYLE_COLOUR ( '', #24 ) ;
#110 = CARTESIAN_POINT ( 'NONE',  ( 0.000000000000000000, 0.5000000000000000000, -2.999999999999999112 ) ) ;
#111 = VERTEX_POINT ( 'NONE', #36 ) ;
#112 = DIRECTION ( 'NONE',  ( -0.000000000000000000, -1.000000000000000000, -0.000000000000000000 ) ) ;
#113 = FACE_OUTER_BOUND ( 'NONE', #219, .T. ) ;
#114 = EDGE_CURVE ( 'NONE', #249, #111, #72, .T. ) ;
#115 = ORIENTED_EDGE ( 'NONE', *, *, #349, .F. ) ;
#116 = VECTOR ( 'NONE', #352, 1000.000000000000000 ) ;
#117 = ORIENTED_EDGE ( 'NONE', *, *, #114, .T. ) ;
#118 = CARTESIAN_POINT ( 'NONE',  ( 2.999999999999996003, 63.00000000000000000, 3.673940397442045077E-16 ) ) ;
#119 = DIRECTION ( 'NONE',  ( -1.444848463910660280E-16, 1.000000000000000000, -0.000000000000000000 ) ) ;
#120 = AXIS2_PLACEMENT_3D ( 'NONE', #325, #291, #184 ) ;
#121 = CARTESIAN_POINT ( 'NONE',  ( 2.999999999999999112, 18.00000000000000355, 3.673940397442046556E-16 ) ) ;
#122 = DIRECTION ( 'NONE',  ( -0.000000000000000000, -1.000000000000000000, -0.000000000000000000 ) ) ;
#123 = PRESENTATION_STYLE_ASSIGNMENT (( #296 ) ) ;
#124 = EDGE_LOOP ( 'NONE', ( #176, #9, #229, #56 ) ) ;
#125 = DIRECTION ( 'NONE',  ( -1.444848463910660280E-16, 1.000000000000000000, -0.000000000000000000 ) ) ;
#126 = FILL_AREA_STYLE ('',( #180 ) ) ;
#127 = CIRCLE ( 'NONE', #50, 2.999999999999999112 ) ;
#128 = EDGE_CURVE ( 'NONE', #335, #255, #340, .T. ) ;
#129 = PLANE ( 'NONE',  #100 ) ;
#130 = FILL_AREA_STYLE_COLOUR ( '', #156 ) ;
#131 = EDGE_CURVE ( 'NONE', #249, #335, #278, .T. ) ;
#132 = CARTESIAN_POINT ( 'NONE',  ( 0.000000000000000000, 0.000000000000000000, -2.999999999999999112 ) ) ;
#133 = CARTESIAN_POINT ( 'NONE',  ( 3.673940397442058882E-16, 0.000000000000000000, 2.999999999999999112 ) ) ;
#134 = CARTESIAN_POINT ( 'NONE',  ( 1.409462824231155764E-14, 18.00000000000000355, 0.000000000000000000 ) ) ;
#135 = CLOSED_SHELL ( 'NONE', ( #141, #64, #82, #200 ) ) ;
#136 = SURFACE_SIDE_STYLE ('',( #353 ) ) ;
#137 = SURFACE_STYLE_USAGE ( .BOTH. , #264 ) ;
#138 =( LENGTH_UNIT ( ) NAMED_UNIT ( * ) SI_UNIT ( .MILLI., .METRE. ) );
#139 = FILL_AREA_STYLE_COLOUR ( '', #177 ) ;
#140 =( GEOMETRIC_REPRESENTATION_CONTEXT ( 3 ) GLOBAL_UNCERTAINTY_ASSIGNED_CONTEXT ( ( #358 ) ) GLOBAL_UNIT_ASSIGNED_CONTEXT ( ( #186, #206, #267 ) ) REPRESENTATION_CONTEXT ( 'NONE', 'WORKASPACE' ) );
#141 = ADVANCED_FACE ( 'NONE', ( #60 ), #95, .T. ) ;
#142 = PRESENTATION_LAYER_ASSIGNMENT (  '', '', ( #260 ) ) ;
#143 = AXIS2_PLACEMENT_3D ( 'NONE', #280, #253, #15 ) ;
#144 = DIRECTION ( 'NONE',  ( 1.000000000000000000, 0.000000000000000000, -1.224646799147353207E-16 ) ) ;
#145 = AXIS2_PLACEMENT_3D ( 'NONE', #215, #54, #38 ) ;
#146 = CARTESIAN_POINT ( 'NONE',  ( 7.592810154713587074E-15, 63.00000000000000000, 0.000000000000000000 ) ) ;
#147 = EDGE_LOOP ( 'NONE', ( #345, #4, #341, #91 ) ) ;
#148 = ORIENTED_EDGE ( 'NONE', *, *, #290, .T. ) ;
#149 = CIRCLE ( 'NONE', #317, 2.999999999999991562 ) ;
#150 = DIRECTION ( 'NONE',  ( 0.000000000000000000, 0.000000000000000000, -1.000000000000000000 ) ) ;
#151 = ORIENTED_EDGE ( 'NONE', *, *, #1, .F. ) ;
#152 = CIRCLE ( 'NONE', #190, 2.999999999999984457 ) ;
#153 = SURFACE_STYLE_FILL_AREA ( #350 ) ;
#154 = DIRECTION ( 'NONE',  ( 0.000000000000000000, 0.000000000000000000, -1.000000000000000000 ) ) ;
#155 = CARTESIAN_POINT ( 'NONE',  ( 0.000000000000000000, 0.000000000000000000, 0.000000000000000000 ) ) ;
#156 = COLOUR_RGB ( '',0.7921568627450980005, 0.8196078431372548767, 0.9333333333333333481 ) ;
#157 = DIRECTION ( 'NONE',  ( 0.000000000000000000, 0.000000000000000000, -1.000000000000000000 ) ) ;
#158 = ADVANCED_FACE ( 'NONE', ( #106 ), #361, .T. ) ;
#159 = DIRECTION ( 'NONE',  ( 0.000000000000000000, 0.000000000000000000, -1.000000000000000000 ) ) ;
#160 = PRESENTATION_LAYER_ASSIGNMENT (  '', '', ( #66 ) ) ;
#161 = EDGE_CURVE ( 'NONE', #334, #305, #281, .T. ) ;
#162 = CARTESIAN_POINT ( 'NONE',  ( 0.000000000000000000, 0.5000000000000000000, 0.000000000000000000 ) ) ;
#163 = MECHANICAL_DESIGN_GEOMETRIC_PRESENTATION_REPRESENTATION (  '', ( #66 ), #299 ) ;
#164 = ORIENTED_EDGE ( 'NONE', *, *, #89, .T. ) ;
#165 = FACE_OUTER_BOUND ( 'NONE', #224, .T. ) ;
#166 = DIRECTION ( 'NONE',  ( 0.000000000000000000, 0.000000000000000000, -1.000000000000000000 ) ) ;
#167 = CARTESIAN_POINT ( 'NONE',  ( 3.673940397442058882E-16, 18.00000000000000355, 2.999999999999999112 ) ) ;
#168 = PRESENTATION_STYLE_ASSIGNMENT (( #53 ) ) ;
#169 = PRESENTATION_LAYER_ASSIGNMENT (  '', '', ( #257 ) ) ;
#170 = DIRECTION ( 'NONE',  ( -1.444848463910660280E-16, 1.000000000000000000, -0.000000000000000000 ) ) ;
#171 = ORIENTED_EDGE ( 'NONE', *, *, #242, .F. ) ;
#172 = ORIENTED_EDGE ( 'NONE', *, *, #223, .T. ) ;
#173 = CARTESIAN_POINT ( 'NONE',  ( 0.000000000000000000, 0.000000000000000000, 0.000000000000000000 ) ) ;
#174 = CYLINDRICAL_SURFACE ( 'NONE', #265, 2.999999999999988454 ) ;
#175 = ORIENTED_EDGE ( 'NONE', *, *, #131, .F. ) ;
#176 = ORIENTED_EDGE ( 'NONE', *, *, #301, .F. ) ;
#177 = COLOUR_RGB ( '',1.000000000000000000, 0.000000000000000000, 0.000000000000000000 ) ;
#178 =( GEOMETRIC_REPRESENTATION_CONTEXT ( 3 ) GLOBAL_UNCERTAINTY_ASSIGNED_CONTEXT ( ( #73 ) ) GLOBAL_UNIT_ASSIGNED_CONTEXT ( ( #227, #67, #287 ) ) REPRESENTATION_CONTEXT ( 'NONE', 'WORKASPACE' ) );
#179 = DIRECTION ( 'NONE',  ( 0.000000000000000000, 0.000000000000000000, -1.000000000000000000 ) ) ;
#180 = FILL_AREA_STYLE_COLOUR ( '', #55 ) ;
#181 = FACE_OUTER_BOUND ( 'NONE', #3, .T. ) ;
#182 = CIRCLE ( 'NONE', #221, 0.5000000000000004441 ) ;
#183 = DIRECTION ( 'NONE',  ( 0.000000000000000000, 0.000000000000000000, -1.000000000000000000 ) ) ;
#184 = DIRECTION ( 'NONE',  ( 0.000000000000000000, 0.000000000000000000, -1.000000000000000000 ) ) ;
#185 = AXIS2_PLACEMENT_3D ( 'NONE', #311, #125, #12 ) ;
#186 =( LENGTH_UNIT ( ) NAMED_UNIT ( * ) SI_UNIT ( .MILLI., .METRE. ) );
#187 = UNCERTAINTY_MEASURE_WITH_UNIT (LENGTH_MEASURE( 1.000000000000000082E-05 ), #297, 'distance_accuracy_value', 'NONE');
#188 = PRESENTATION_STYLE_ASSIGNMENT (( #79 ) ) ;
#189 = CIRCLE ( 'NONE', #245, 0.5000000000000004441 ) ;
#190 = AXIS2_PLACEMENT_3D ( 'NONE', #303, #170, #275 ) ;
#191 = UNCERTAINTY_MEASURE_WITH_UNIT (LENGTH_MEASURE( 1.000000000000000082E-05 ), #63, 'distance_accuracy_value', 'NONE');
#192 = DIRECTION ( 'NONE',  ( -0.000000000000000000, -1.000000000000000000, -0.000000000000000000 ) ) ;
#193 = DIRECTION ( 'NONE',  ( -1.000000000000000000, -1.444848463910660280E-16, 0.000000000000000000 ) ) ;
#194 = VERTEX_POINT ( 'NONE', #20 ) ;
#195 = ADVANCED_FACE ( 'NONE', ( #234 ), #98, .T. ) ;
#196 =( GEOMETRIC_REPRESENTATION_CONTEXT ( 3 ) GLOBAL_UNCERTAINTY_ASSIGNED_CONTEXT ( ( #93 ) ) GLOBAL_UNIT_ASSIGNED_CONTEXT ( ( #300, #107, #248 ) ) REPRESENTATION_CONTEXT ( 'NONE', 'WORKASPACE' ) );
#197 = ORIENTED_EDGE ( 'NONE', *, *, #89, .F. ) ;
#198 = FACE_OUTER_BOUND ( 'NONE', #233, .T. ) ;
#199 = MECHANICAL_DESIGN_GEOMETRIC_PRESENTATION_REPRESENTATION (  '', ( #351 ), #294 ) ;
#200 = ADVANCED_FACE ( 'NONE', ( #165 ), #321, .F. ) ;
#201 = COLOUR_RGB ( '',1.000000000000000000, 0.000000000000000000, 0.000000000000000000 ) ;
#202 = FILL_AREA_STYLE ('',( #237 ) ) ;
#203 = DIRECTION ( 'NONE',  ( -1.000000000000000000, 0.000000000000000000, 0.000000000000000000 ) ) ;
#204 = APPLICATION_PROTOCOL_DEFINITION ( 'draft international standard', 'automotive_design', 1998, #247 ) ;
#205 = PRODUCT_DEFINITION ( 'UNKNOWN', '', #81, #18 ) ;
#206 =( NAMED_UNIT ( * ) PLANE_ANGLE_UNIT ( ) SI_UNIT ( $, .RADIAN. ) );
#207 = PRODUCT_DEFINITION_SHAPE ( 'NONE', 'NONE',  #205 ) ;
#208 = CARTESIAN_POINT ( 'NONE',  ( 0.000000000000000000, 0.5000000000000000000, 0.000000000000000000 ) ) ;
#209 = CARTESIAN_POINT ( 'NONE',  ( 2.999999999999999112, 63.00000000000000000, 0.000000000000000000 ) ) ;
#210 = ORIENTED_EDGE ( 'NONE', *, *, #114, .F. ) ;
#211 =( NAMED_UNIT ( * ) SI_UNIT ( $, .STERADIAN. ) SOLID_ANGLE_UNIT ( ) );
#212 = CIRCLE ( 'NONE', #246, 2.999999999999999112 ) ;
#213 = CARTESIAN_POINT ( 'NONE',  ( 3.673940397442058389E-16, 0.5000000000000000000, 2.999999999999999112 ) ) ;
#214 =( LENGTH_UNIT ( ) NAMED_UNIT ( * ) SI_UNIT ( .MILLI., .METRE. ) );
#215 = CARTESIAN_POINT ( 'NONE',  ( 0.000000000000000000, 0.000000000000000000, 0.000000000000000000 ) ) ;
#216 = PRESENTATION_LAYER_ASSIGNMENT (  '', '', ( #26 ) ) ;
#217 =( GEOMETRIC_REPRESENTATION_CONTEXT ( 3 ) GLOBAL_UNCERTAINTY_ASSIGNED_CONTEXT ( ( #187 ) ) GLOBAL_UNIT_ASSIGNED_CONTEXT ( ( #297, #331, #87 ) ) REPRESENTATION_CONTEXT ( 'NONE', 'WORKASPACE' ) );
#218 = ORIENTED_EDGE ( 'NONE', *, *, #333, .T. ) ;
#219 = EDGE_LOOP ( 'NONE', ( #329, #218 ) ) ;
#220 = ADVANCED_FACE ( 'NONE', ( #28 ), #286, .T. ) ;
#221 = AXIS2_PLACEMENT_3D ( 'NONE', #31, #144, #367 ) ;
#222 = DIRECTION ( 'NONE',  ( -1.444848463910660280E-16, 1.000000000000000000, -0.000000000000000000 ) ) ;
#223 = EDGE_CURVE ( 'NONE', #111, #255, #69, .T. ) ;
#224 = EDGE_LOOP ( 'NONE', ( #57, #293 ) ) ;
#225 = CARTESIAN_POINT ( 'NONE',  ( -2.999999999999983569, 63.00000000000000000, 0.000000000000000000 ) ) ;
#226 = PRESENTATION_STYLE_ASSIGNMENT (( #241 ) ) ;
#227 =( LENGTH_UNIT ( ) NAMED_UNIT ( * ) SI_UNIT ( .MILLI., .METRE. ) );
#228 = CIRCLE ( 'NONE', #254, 2.999999999999999112 ) ;
#229 = ORIENTED_EDGE ( 'NONE', *, *, #272, .T. ) ;
#230 = DIRECTION ( 'NONE',  ( 0.000000000000000000, 0.000000000000000000, -1.000000000000000000 ) ) ;
#231 = SURFACE_STYLE_USAGE ( .BOTH. , #19 ) ;
#232 = SURFACE_STYLE_FILL_AREA ( #235 ) ;
#233 = EDGE_LOOP ( 'NONE', ( #175, #117, #172, #284 ) ) ;
#234 = FACE_OUTER_BOUND ( 'NONE', #302, .T. ) ;
#235 = FILL_AREA_STYLE ('',( #130 ) ) ;
#236 = MECHANICAL_DESIGN_GEOMETRIC_PRESENTATION_REPRESENTATION (  '', ( #37 ), #217 ) ;
#237 = FILL_AREA_STYLE_COLOUR ( '', #201 ) ;
#238 = DIRECTION ( 'NONE',  ( -1.444848463910660280E-16, 1.000000000000000000, 0.000000000000000000 ) ) ;
#239 = FACE_OUTER_BOUND ( 'NONE', #332, .T. ) ;
#240 = AXIS2_PLACEMENT_3D ( 'NONE', #162, #192, #179 ) ;
#241 = SURFACE_STYLE_USAGE ( .BOTH. , #136 ) ;
#242 = EDGE_CURVE ( 'NONE', #310, #86, #22, .T. ) ;
#243 = VECTOR ( 'NONE', #42, 1000.000000000000000 ) ;
#244 = CLOSED_SHELL ( 'NONE', ( #158, #273, #90, #338, #220, #195 ) ) ;
#245 = AXIS2_PLACEMENT_3D ( 'NONE', #292, #263, #25 ) ;
#246 = AXIS2_PLACEMENT_3D ( 'NONE', #337, #59, #256 ) ;
#247 = APPLICATION_CONTEXT ( 'automotive_design' ) ;
#248 =( NAMED_UNIT ( * ) SI_UNIT ( $, .STERADIAN. ) SOLID_ANGLE_UNIT ( ) );
#249 = VERTEX_POINT ( 'NONE', #121 ) ;
#250 = PRESENTATION_STYLE_ASSIGNMENT (( #84 ) ) ;
#251 = CARTESIAN_POINT ( 'NONE',  ( 0.000000000000000000, 0.000000000000000000, 0.000000000000000000 ) ) ;
#252 = VECTOR ( 'NONE', #222, 1000.000000000000000 ) ;
#253 = DIRECTION ( 'NONE',  ( -1.444848463910660280E-16, 1.000000000000000000, -0.000000000000000000 ) ) ;
#254 = AXIS2_PLACEMENT_3D ( 'NONE', #68, #21, #159 ) ;
#255 = VERTEX_POINT ( 'NONE', #225 ) ;
#256 = DIRECTION ( 'NONE',  ( 0.000000000000000000, 0.000000000000000000, -1.000000000000000000 ) ) ;
#257 = STYLED_ITEM ( 'NONE', ( #226 ), #195 ) ;
#258 = CARTESIAN_POINT ( 'NONE',  ( -2.999999999999980460, 63.00000000000000000, 0.000000000000000000 ) ) ;
#259 = EDGE_CURVE ( 'NONE', #255, #335, #149, .T. ) ;
#260 = STYLED_ITEM ( 'NONE', ( #346 ), #273 ) ;
#261 = SURFACE_STYLE_FILL_AREA ( #126 ) ;
#262 = CARTESIAN_POINT ( 'NONE',  ( 3.367778697655220026E-16, 0.000000000000000000, 2.499999999999998668 ) ) ;
#263 = DIRECTION ( 'NONE',  ( -1.000000000000000000, 0.000000000000000000, 0.000000000000000000 ) ) ;
#264 = SURFACE_SIDE_STYLE ('',( #51 ) ) ;
#265 = AXIS2_PLACEMENT_3D ( 'NONE', #146, #119, #34 ) ;
#266 = PRESENTATION_STYLE_ASSIGNMENT (( #137 ) ) ;
#267 =( NAMED_UNIT ( * ) SI_UNIT ( $, .STERADIAN. ) SOLID_ANGLE_UNIT ( ) );
#268 = DIRECTION ( 'NONE',  ( 0.000000000000000000, -0.000000000000000000, 1.000000000000000000 ) ) ;
#269 = AXIS2_PLACEMENT_3D ( 'NONE', #155, #356, #157 ) ;
#270 =( NAMED_UNIT ( * ) PLANE_ANGLE_UNIT ( ) SI_UNIT ( $, .RADIAN. ) );
#271 = DIRECTION ( 'NONE',  ( 0.000000000000000000, 1.000000000000000000, 0.000000000000000000 ) ) ;
#272 = EDGE_CURVE ( 'NONE', #86, #194, #189, .T. ) ;
#273 = ADVANCED_FACE ( 'NONE', ( #239 ), #13, .T. ) ;
#274 = VERTEX_POINT ( 'NONE', #262 ) ;
#275 = DIRECTION ( 'NONE',  ( -1.000000000000000000, 0.000000000000000000, 0.000000000000000000 ) ) ;
#276 = ORIENTED_EDGE ( 'NONE', *, *, #320, .F. ) ;
#277 = SURFACE_STYLE_FILL_AREA ( #58 ) ;
#278 = LINE ( 'NONE', #118, #252 ) ;
#279 = ORIENTED_EDGE ( 'NONE', *, *, #223, .F. ) ;
#280 = CARTESIAN_POINT ( 'NONE',  ( 1.409462824231155764E-14, 18.00000000000000355, 0.000000000000000000 ) ) ;
#281 = LINE ( 'NONE', #133, #76 ) ;
#282 = FILL_AREA_STYLE_COLOUR ( '', #102 ) ;
#283 = DIRECTION ( 'NONE',  ( -0.000000000000000000, -1.000000000000000000, -0.000000000000000000 ) ) ;
#284 = ORIENTED_EDGE ( 'NONE', *, *, #128, .F. ) ;
#285 = MANIFOLD_SOLID_BREP ( 'Revolve - Tool Body (Straight Shanked)', #135 ) ;
#286 = CYLINDRICAL_SURFACE ( 'NONE', #269, 2.999999999999999112 ) ;
#287 =( NAMED_UNIT ( * ) SI_UNIT ( $, .STERADIAN. ) SOLID_ANGLE_UNIT ( ) );
#288 =( LENGTH_UNIT ( ) NAMED_UNIT ( * ) SI_UNIT ( .MILLI., .METRE. ) );
#289 = CIRCLE ( 'NONE', #336, 2.999999999999999112 ) ;
#290 = EDGE_CURVE ( 'NONE', #310, #334, #289, .T. ) ;
#291 = DIRECTION ( 'NONE',  ( -0.000000000000000000, -1.000000000000000000, -0.000000000000000000 ) ) ;
#292 = CARTESIAN_POINT ( 'NONE',  ( 0.000000000000000000, 0.5000000000000000000, -2.499999999999998668 ) ) ;
#293 = ORIENTED_EDGE ( 'NONE', *, *, #128, .T. ) ;
#294 =( GEOMETRIC_REPRESENTATION_CONTEXT ( 3 ) GLOBAL_UNCERTAINTY_ASSIGNED_CONTEXT ( ( #105 ) ) GLOBAL_UNIT_ASSIGNED_CONTEXT ( ( #288, #94, #309 ) ) REPRESENTATION_CONTEXT ( 'NONE', 'WORKASPACE' ) );
#295 = SURFACE_SIDE_STYLE ('',( #108 ) ) ;
#296 = SURFACE_STYLE_USAGE ( .BOTH. , #348 ) ;
#297 =( LENGTH_UNIT ( ) NAMED_UNIT ( * ) SI_UNIT ( .MILLI., .METRE. ) );
#298 =( NAMED_UNIT ( * ) PLANE_ANGLE_UNIT ( ) SI_UNIT ( $, .RADIAN. ) );
#299 =( GEOMETRIC_REPRESENTATION_CONTEXT ( 3 ) GLOBAL_UNCERTAINTY_ASSIGNED_CONTEXT ( ( #327 ) ) GLOBAL_UNIT_ASSIGNED_CONTEXT ( ( #214, #85, #314 ) ) REPRESENTATION_CONTEXT ( 'NONE', 'WORKASPACE' ) );
#300 =( LENGTH_UNIT ( ) NAMED_UNIT ( * ) SI_UNIT ( .MILLI., .METRE. ) );
#301 = EDGE_CURVE ( 'NONE', #305, #274, #182, .T. ) ;
#302 = EDGE_LOOP ( 'NONE', ( #92, #115 ) ) ;
#303 = CARTESIAN_POINT ( 'NONE',  ( 1.409462824231155764E-14, 18.00000000000000355, 0.000000000000000000 ) ) ;
#304 = AXIS2_PLACEMENT_3D ( 'NONE', #209, #77, #71 ) ;
#305 = VERTEX_POINT ( 'NONE', #213 ) ;
#306 = CARTESIAN_POINT ( 'NONE',  ( 7.592810154713587074E-15, 63.00000000000000000, 0.000000000000000000 ) ) ;
#307 = COLOUR_RGB ( '',1.000000000000000000, 0.000000000000000000, 0.000000000000000000 ) ;
#308 = ORIENTED_EDGE ( 'NONE', *, *, #272, .F. ) ;
#309 =( NAMED_UNIT ( * ) SI_UNIT ( $, .STERADIAN. ) SOLID_ANGLE_UNIT ( ) );
#310 = VERTEX_POINT ( 'NONE', #370 ) ;
#311 = CARTESIAN_POINT ( 'NONE',  ( 7.592810154713587074E-15, 63.00000000000000000, 0.000000000000000000 ) ) ;
#312 = PRODUCT_RELATED_PRODUCT_CATEGORY ( 'part', '', ( #62 ) ) ;
#313 = DIRECTION ( 'NONE',  ( 0.000000000000000000, -1.000000000000000000, -0.000000000000000000 ) ) ;
#314 =( NAMED_UNIT ( * ) SI_UNIT ( $, .STERADIAN. ) SOLID_ANGLE_UNIT ( ) );
#315 =( NAMED_UNIT ( * ) PLANE_ANGLE_UNIT ( ) SI_UNIT ( $, .RADIAN. ) );
#316 = CARTESIAN_POINT ( 'NONE',  ( 2.999999999999999556, 63.00000000000000000, 3.673940397442047542E-16 ) ) ;
#317 = AXIS2_PLACEMENT_3D ( 'NONE', #96, #16, #203 ) ;
#318 = AXIS2_PLACEMENT_3D ( 'NONE', #319, #27, #33 ) ;
#319 = CARTESIAN_POINT ( 'NONE',  ( 0.000000000000000000, 0.000000000000000000, 0.000000000000000000 ) ) ;
#320 = EDGE_CURVE ( 'NONE', #111, #249, #152, .T. ) ;
#321 = PLANE ( 'NONE',  #304 ) ;
#322 = CIRCLE ( 'NONE', #366, 2.499999999999998668 ) ;
#323 =( GEOMETRIC_REPRESENTATION_CONTEXT ( 3 ) GLOBAL_UNCERTAINTY_ASSIGNED_CONTEXT ( ( #8 ) ) GLOBAL_UNIT_ASSIGNED_CONTEXT ( ( #138, #270, #360 ) ) REPRESENTATION_CONTEXT ( 'NONE', 'WORKASPACE' ) );
#324 = SURFACE_SIDE_STYLE ('',( #328 ) ) ;
#325 = CARTESIAN_POINT ( 'NONE',  ( 0.000000000000000000, 0.5000000000000000000, 0.000000000000000000 ) ) ;
#326 = MECHANICAL_DESIGN_GEOMETRIC_PRESENTATION_REPRESENTATION (  '', ( #257 ), #99 ) ;
#327 = UNCERTAINTY_MEASURE_WITH_UNIT (LENGTH_MEASURE( 1.000000000000000082E-05 ), #214, 'distance_accuracy_value', 'NONE');
#328 = SURFACE_STYLE_FILL_AREA ( #83 ) ;
#329 = ORIENTED_EDGE ( 'NONE', *, *, #1, .T. ) ;
#330 = PRESENTATION_LAYER_ASSIGNMENT (  '', '', ( #37 ) ) ;
#331 =( NAMED_UNIT ( * ) PLANE_ANGLE_UNIT ( ) SI_UNIT ( $, .RADIAN. ) );
#332 = EDGE_LOOP ( 'NONE', ( #164, #11, #151, #308 ) ) ;
#333 = EDGE_CURVE ( 'NONE', #274, #194, #17, .T. ) ;
#334 = VERTEX_POINT ( 'NONE', #167 ) ;
#335 = VERTEX_POINT ( 'NONE', #316 ) ;
#336 = AXIS2_PLACEMENT_3D ( 'NONE', #355, #52, #166 ) ;
#337 = CARTESIAN_POINT ( 'NONE',  ( 0.000000000000000000, 0.5000000000000000000, 0.000000000000000000 ) ) ;
#338 = ADVANCED_FACE ( 'NONE', ( #101 ), #29, .T. ) ;
#339 = EDGE_CURVE ( 'NONE', #305, #86, #127, .T. ) ;
#340 = CIRCLE ( 'NONE', #185, 2.999999999999991562 ) ;
#341 = ORIENTED_EDGE ( 'NONE', *, *, #242, .T. ) ;
#342 = PRODUCT_CONTEXT ( 'NONE', #247, 'mechanical' ) ;
#343 = SHAPE_DEFINITION_REPRESENTATION ( #207, #70 ) ;
#344 = MECHANICAL_DESIGN_GEOMETRIC_PRESENTATION_REPRESENTATION (  '', ( #39 ), #323 ) ;
#345 = ORIENTED_EDGE ( 'NONE', *, *, #161, .F. ) ;
#346 = PRESENTATION_STYLE_ASSIGNMENT (( #231 ) ) ;
#347 =( LENGTH_UNIT ( ) NAMED_UNIT ( * ) SI_UNIT ( .MILLI., .METRE. ) );
#348 = SURFACE_SIDE_STYLE ('',( #232 ) ) ;
#349 = EDGE_CURVE ( 'NONE', #334, #310, #228, .T. ) ;
#350 = FILL_AREA_STYLE ('',( #282 ) ) ;
#351 = STYLED_ITEM ( 'NONE', ( #168 ), #90 ) ;
#352 = DIRECTION ( 'NONE',  ( -0.000000000000000000, -1.000000000000000000, -0.000000000000000000 ) ) ;
#353 = SURFACE_STYLE_FILL_AREA ( #202 ) ;
#354 = PRESENTATION_LAYER_ASSIGNMENT (  '', '', ( #39 ) ) ;
#355 = CARTESIAN_POINT ( 'NONE',  ( 0.000000000000000000, 18.00000000000000355, 0.000000000000000000 ) ) ;
#356 = DIRECTION ( 'NONE',  ( -0.000000000000000000, -1.000000000000000000, -0.000000000000000000 ) ) ;
#357 = COLOUR_RGB ( '',0.7921568627450980005, 0.8196078431372548767, 0.9333333333333333481 ) ;
#358 = UNCERTAINTY_MEASURE_WITH_UNIT (LENGTH_MEASURE( 1.000000000000000082E-05 ), #186, 'distance_accuracy_value', 'NONE');
#359 = SURFACE_STYLE_USAGE ( .BOTH. , #295 ) ;
#360 =( NAMED_UNIT ( * ) SI_UNIT ( $, .STERADIAN. ) SOLID_ANGLE_UNIT ( ) );
#361 = CYLINDRICAL_SURFACE ( 'NONE', #14, 2.999999999999999112 ) ;
#362 = ORIENTED_EDGE ( 'NONE', *, *, #320, .T. ) ;
#363 = SURFACE_SIDE_STYLE ('',( #277 ) ) ;
#364 = FILL_AREA_STYLE ('',( #139 ) ) ;
#365 = PRESENTATION_LAYER_ASSIGNMENT (  '', '', ( #351 ) ) ;
#366 = AXIS2_PLACEMENT_3D ( 'NONE', #23, #283, #183 ) ;
#367 = DIRECTION ( 'NONE',  ( -1.224646799147352468E-16, 0.000000000000000000, -1.000000000000000000 ) ) ;
#368 = PLANE ( 'NONE',  #5 ) ;
#369 = EDGE_LOOP ( 'NONE', ( #362, #7, #10, #279 ) ) ;
#370 = CARTESIAN_POINT ( 'NONE',  ( 0.000000000000000000, 18.00000000000000355, -2.999999999999999112 ) ) ;
ENDSEC;
END-ISO-10303-21;
