ISO-10303-21;
HEADER;
FILE_DESCRIPTION (( 'STEP AP214' ),
    '1' );
FILE_NAME ('Micro_AEMM-050-2.STEP',
    '2022-03-15T14:26:09',
    ( '' ),
    ( '' ),
    'SwSTEP 2.0',
    'SolidWorks 2022',
    '' );
FILE_SCHEMA (( 'AUTOMOTIVE_DESIGN' ));
ENDSEC;

DATA;
#1 = DIRECTION ( 'NONE',  ( -0.000000000000000000, -0.000000000000000000, -1.000000000000000000 ) ) ;
#2 = EDGE_CURVE ( 'NONE', #256, #134, #216, .T. ) ;
#3 = PRESENTATION_LAYER_ASSIGNMENT (  '', '', ( #198 ) ) ;
#4 = ORIENTED_EDGE ( 'NONE', *, *, #173, .F. ) ;
#5 = CARTESIAN_POINT ( 'NONE',  ( 0.000000000000000000, 0.000000000000000000, 2.229093999999999465 ) ) ;
#6 = DIRECTION ( 'NONE',  ( 1.000000000000000000, 0.000000000000000000, 0.000000000000000000 ) ) ;
#7 =( GEOMETRIC_REPRESENTATION_CONTEXT ( 3 ) GLOBAL_UNCERTAINTY_ASSIGNED_CONTEXT ( ( #95 ) ) GLOBAL_UNIT_ASSIGNED_CONTEXT ( ( #35, #226, #78 ) ) REPRESENTATION_CONTEXT ( 'NONE', 'WORKASPACE' ) );
#8 = PRESENTATION_STYLE_ASSIGNMENT (( #219 ) ) ;
#9 = APPLICATION_CONTEXT ( 'automotive_design' ) ;
#10 = AXIS2_PLACEMENT_3D ( 'NONE', #167, #100, #169 ) ;
#11 =( GEOMETRIC_REPRESENTATION_CONTEXT ( 3 ) GLOBAL_UNCERTAINTY_ASSIGNED_CONTEXT ( ( #23 ) ) GLOBAL_UNIT_ASSIGNED_CONTEXT ( ( #139, #153, #61 ) ) REPRESENTATION_CONTEXT ( 'NONE', 'WORKASPACE' ) );
#12 = CARTESIAN_POINT ( 'NONE',  ( 0.000000000000000000, 0.000000000000000000, 2.244094000000000033 ) ) ;
#13 = CARTESIAN_POINT ( 'NONE',  ( 0.1031100000000002570, 1.262733314600838667E-17, 2.244094000000000033 ) ) ;
#14 = CYLINDRICAL_SURFACE ( 'NONE', #160, 0.1181100000000000066 ) ;
#15 = VERTEX_POINT ( 'NONE', #192 ) ;
#16 = ORIENTED_EDGE ( 'NONE', *, *, #165, .F. ) ;
#17 = EDGE_CURVE ( 'NONE', #26, #134, #119, .T. ) ;
#18 = CARTESIAN_POINT ( 'NONE',  ( 0.09832657500000008266, 0.000000000000000000, 0.6299209999999999532 ) ) ;
#19 = DIRECTION ( 'NONE',  ( -0.7071067811865358044, 0.000000000000000000, -0.7071067811865590080 ) ) ;
#20 = VERTEX_POINT ( 'NONE', #217 ) ;
#21 = VECTOR ( 'NONE', #68, 39.37007874015748143 ) ;
#22 = ORIENTED_EDGE ( 'NONE', *, *, #2, .T. ) ;
#23 = UNCERTAINTY_MEASURE_WITH_UNIT (LENGTH_MEASURE( 1.000000000000000082E-05 ), #139, 'distance_accuracy_value', 'NONE');
#24 = EDGE_CURVE ( 'NONE', #204, #256, #286, .T. ) ;
#25 = CARTESIAN_POINT ( 'NONE',  ( -0.1181100000000000066, 0.000000000000000000, 2.244094000000000033 ) ) ;
#26 = VERTEX_POINT ( 'NONE', #285 ) ;
#27 = VECTOR ( 'NONE', #1, 39.37007874015748143 ) ;
#28 = CIRCLE ( 'NONE', #211, 0.1031100000000002570 ) ;
#29 = APPLICATION_CONTEXT ( 'automotive_design' ) ;
#30 = DIRECTION ( 'NONE',  ( 0.000000000000000000, 0.000000000000000000, -1.000000000000000000 ) ) ;
#31 = ADVANCED_FACE ( 'NONE', ( #73 ), #149, .T. ) ;
#32 = CARTESIAN_POINT ( 'NONE',  ( 0.000000000000000000, 0.000000000000000000, 2.229093999999999465 ) ) ;
#33 = CARTESIAN_POINT ( 'NONE',  ( 0.09832657499999998552, 1.204153253448721512E-17, -1.204153253448721512E-17 ) ) ;
#34 = AXIS2_PLACEMENT_3D ( 'NONE', #184, #257, #44 ) ;
#35 =( CONVERSION_BASED_UNIT ( 'INCH', #174 ) LENGTH_UNIT ( ) NAMED_UNIT ( #105 ) );
#36 = COLOUR_RGB ( '',0.7921568627450980005, 0.8196078431372548767, 0.9333333333333333481 ) ;
#37 = CYLINDRICAL_SURFACE ( 'NONE', #283, 0.1181100000000000066 ) ;
#38 = ORIENTED_EDGE ( 'NONE', *, *, #190, .F. ) ;
#39 = CARTESIAN_POINT ( 'NONE',  ( 7.714307363656999460E-17, 0.000000000000000000, 0.6299209999999999532 ) ) ;
#40 = CARTESIAN_POINT ( 'NONE',  ( -0.09832657499999998552, 0.000000000000000000, 2.408306506897443024E-17 ) ) ;
#41 = CONICAL_SURFACE ( 'NONE', #172, 0.09832657499999998552, 0.1745329251994338637 ) ;
#42 = CARTESIAN_POINT ( 'NONE',  ( 1.474662427518848307E-33, 0.000000000000000000, 1.204153253448721512E-17 ) ) ;
#43 = ORIENTED_EDGE ( 'NONE', *, *, #261, .F. ) ;
#44 = DIRECTION ( 'NONE',  ( -1.000000000000000000, 0.000000000000000000, 1.224646799147353207E-16 ) ) ;
#45 = DIRECTION ( 'NONE',  ( -1.224646799147353207E-16, -0.000000000000000000, -1.000000000000000000 ) ) ;
#46 = EDGE_CURVE ( 'NONE', #256, #204, #146, .T. ) ;
#47 = FACE_OUTER_BOUND ( 'NONE', #280, .T. ) ;
#48 = ORIENTED_EDGE ( 'NONE', *, *, #173, .T. ) ;
#49 = ORIENTED_EDGE ( 'NONE', *, *, #17, .T. ) ;
#50 = AXIS2_PLACEMENT_3D ( 'NONE', #5, #124, #99 ) ;
#51 = PRESENTATION_LAYER_ASSIGNMENT (  '', '', ( #111 ) ) ;
#52 = DIRECTION ( 'NONE',  ( 1.000000000000000000, 0.000000000000000000, 0.000000000000000000 ) ) ;
#53 = LENGTH_MEASURE_WITH_UNIT ( LENGTH_MEASURE( 0.02539999999999999897 ), #58 );
#54 =( LENGTH_UNIT ( ) NAMED_UNIT ( * ) SI_UNIT ( $, .METRE. ) );
#55 = EDGE_CURVE ( 'NONE', #15, #20, #28, .T. ) ;
#56 = APPLICATION_PROTOCOL_DEFINITION ( 'draft international standard', 'automotive_design', 1998, #9 ) ;
#57 = DIMENSIONAL_EXPONENTS ( 1.000000000000000000, 0.000000000000000000, 0.000000000000000000, 0.000000000000000000, 0.000000000000000000, 0.000000000000000000, 0.000000000000000000 ) ;
#58 =( LENGTH_UNIT ( ) NAMED_UNIT ( * ) SI_UNIT ( $, .METRE. ) );
#59 = VECTOR ( 'NONE', #19, 39.37007874015748854 ) ;
#60 = VERTEX_POINT ( 'NONE', #127 ) ;
#61 =( NAMED_UNIT ( * ) SI_UNIT ( $, .STERADIAN. ) SOLID_ANGLE_UNIT ( ) );
#62 = FACE_OUTER_BOUND ( 'NONE', #188, .T. ) ;
#63 = UNCERTAINTY_MEASURE_WITH_UNIT (LENGTH_MEASURE( 1.000000000000000082E-05 ), #199, 'distance_accuracy_value', 'NONE');
#64 = DIRECTION ( 'NONE',  ( 0.7071067811865358044, 8.659560562354788645E-17, -0.7071067811865590080 ) ) ;
#65 = ORIENTED_EDGE ( 'NONE', *, *, #152, .T. ) ;
#66 = AXIS2_PLACEMENT_3D ( 'NONE', #126, #45, #282 ) ;
#67 = ORIENTED_EDGE ( 'NONE', *, *, #101, .T. ) ;
#68 = DIRECTION ( 'NONE',  ( -0.000000000000000000, -0.000000000000000000, -1.000000000000000000 ) ) ;
#69 = LINE ( 'NONE', #213, #215 ) ;
#70 = DIRECTION ( 'NONE',  ( -1.224646799147353207E-16, -0.000000000000000000, -1.000000000000000000 ) ) ;
#71 = PRODUCT_DEFINITION_SHAPE ( 'NONE', 'NONE',  #136 ) ;
#72 = CARTESIAN_POINT ( 'NONE',  ( 1.474662427518848307E-33, 0.000000000000000000, 1.204153253448721512E-17 ) ) ;
#73 = FACE_OUTER_BOUND ( 'NONE', #96, .T. ) ;
#74 = CIRCLE ( 'NONE', #247, 0.09832657499999998552 ) ;
#75 = DIRECTION ( 'NONE',  ( -1.224646799147353207E-16, -0.000000000000000000, -1.000000000000000000 ) ) ;
#76 = DIRECTION ( 'NONE',  ( 0.000000000000000000, 0.000000000000000000, 1.000000000000000000 ) ) ;
#77 = VECTOR ( 'NONE', #64, 39.37007874015748854 ) ;
#78 =( NAMED_UNIT ( * ) SI_UNIT ( $, .STERADIAN. ) SOLID_ANGLE_UNIT ( ) );
#79 =( NAMED_UNIT ( * ) PLANE_ANGLE_UNIT ( ) SI_UNIT ( $, .RADIAN. ) );
#80 = DIMENSIONAL_EXPONENTS ( 1.000000000000000000, 0.000000000000000000, 0.000000000000000000, 0.000000000000000000, 0.000000000000000000, 0.000000000000000000, 0.000000000000000000 ) ;
#81 = CARTESIAN_POINT ( 'NONE',  ( -0.09832657499999990225, 1.204153253448721512E-17, 0.6299209999999999532 ) ) ;
#82 = PRODUCT_DEFINITION_CONTEXT ( 'detailed design', #29, 'design' ) ;
#83 = CARTESIAN_POINT ( 'NONE',  ( 0.000000000000000000, 0.000000000000000000, 2.244094000000000033 ) ) ;
#84 =( GEOMETRIC_REPRESENTATION_CONTEXT ( 3 ) GLOBAL_UNCERTAINTY_ASSIGNED_CONTEXT ( ( #63 ) ) GLOBAL_UNIT_ASSIGNED_CONTEXT ( ( #199, #79, #271 ) ) REPRESENTATION_CONTEXT ( 'NONE', 'WORKASPACE' ) );
#85 = ORIENTED_EDGE ( 'NONE', *, *, #55, .F. ) ;
#86 = FILL_AREA_STYLE_COLOUR ( '', #273 ) ;
#87 = CARTESIAN_POINT ( 'NONE',  ( -0.1031100000000002570, 0.000000000000000000, 2.244094000000000033 ) ) ;
#88 = ORIENTED_EDGE ( 'NONE', *, *, #24, .F. ) ;
#89 = CARTESIAN_POINT ( 'NONE',  ( 0.1181100000000000066, 1.446430334472939084E-17, 2.244094000000000033 ) ) ;
#90 = AXIS2_PLACEMENT_3D ( 'NONE', #164, #236, #123 ) ;
#91 = ORIENTED_EDGE ( 'NONE', *, *, #275, .F. ) ;
#92 = CYLINDRICAL_SURFACE ( 'NONE', #34, 0.09832657499999998552 ) ;
#93 = ADVANCED_FACE ( 'NONE', ( #47 ), #41, .T. ) ;
#94 = DIRECTION ( 'NONE',  ( -1.224646799147353207E-16, -0.000000000000000000, -1.000000000000000000 ) ) ;
#95 = UNCERTAINTY_MEASURE_WITH_UNIT (LENGTH_MEASURE( 1.000000000000000082E-05 ), #35, 'distance_accuracy_value', 'NONE');
#96 = EDGE_LOOP ( 'NONE', ( #38, #85, #121, #88 ) ) ;
#97 = MECHANICAL_DESIGN_GEOMETRIC_PRESENTATION_REPRESENTATION (  '', ( #198 ), #84 ) ;
#98 = ORIENTED_EDGE ( 'NONE', *, *, #261, .T. ) ;
#99 = DIRECTION ( 'NONE',  ( 1.000000000000000000, 0.000000000000000000, 0.000000000000000000 ) ) ;
#100 = DIRECTION ( 'NONE',  ( 0.000000000000000000, 0.000000000000000000, -1.000000000000000000 ) ) ;
#101 = EDGE_CURVE ( 'NONE', #134, #26, #191, .T. ) ;
#102 = AXIS2_PLACEMENT_3D ( 'NONE', #32, #30, #284 ) ;
#103 = DIRECTION ( 'NONE',  ( -1.224646799147353207E-16, -0.000000000000000000, -1.000000000000000000 ) ) ;
#104 = PRESENTATION_STYLE_ASSIGNMENT (( #268 ) ) ;
#105 = DIMENSIONAL_EXPONENTS ( 1.000000000000000000, 0.000000000000000000, 0.000000000000000000, 0.000000000000000000, 0.000000000000000000, 0.000000000000000000, 0.000000000000000000 ) ;
#106 = LINE ( 'NONE', #87, #59 ) ;
#107 = FILL_AREA_STYLE_COLOUR ( '', #36 ) ;
#108 = DIRECTION ( 'NONE',  ( -1.000000000000000000, 0.000000000000000000, 0.000000000000000000 ) ) ;
#109 = ORIENTED_EDGE ( 'NONE', *, *, #17, .F. ) ;
#110 = CARTESIAN_POINT ( 'NONE',  ( 7.714307363656999460E-17, 0.000000000000000000, 0.6299209999999999532 ) ) ;
#111 = STYLED_ITEM ( 'NONE', ( #104 ), #266 ) ;
#112 = EDGE_CURVE ( 'NONE', #60, #239, #69, .T. ) ;
#113 = ORIENTED_EDGE ( 'NONE', *, *, #190, .T. ) ;
#114 = DIRECTION ( 'NONE',  ( -1.224646799147353207E-16, -0.000000000000000000, -1.000000000000000000 ) ) ;
#115 = DIRECTION ( 'NONE',  ( -1.000000000000000000, 0.000000000000000000, 1.224646799147353207E-16 ) ) ;
#116 = ORIENTED_EDGE ( 'NONE', *, *, #246, .F. ) ;
#117 = ADVANCED_FACE ( 'NONE', ( #189 ), #142, .T. ) ;
#118 = DIRECTION ( 'NONE',  ( -1.224646799147353207E-16, -0.000000000000000000, -1.000000000000000000 ) ) ;
#119 = CIRCLE ( 'NONE', #66, 0.1181100000000000066 ) ;
#120 = VECTOR ( 'NONE', #133, 39.37007874015748143 ) ;
#121 = ORIENTED_EDGE ( 'NONE', *, *, #246, .T. ) ;
#122 = DIRECTION ( 'NONE',  ( 1.224646799147353207E-16, 0.000000000000000000, 1.000000000000000000 ) ) ;
#123 = DIRECTION ( 'NONE',  ( 1.000000000000000000, 0.000000000000000000, 0.000000000000000000 ) ) ;
#124 = DIRECTION ( 'NONE',  ( 0.000000000000000000, 0.000000000000000000, -1.000000000000000000 ) ) ;
#125 = AXIS2_PLACEMENT_3D ( 'NONE', #39, #103, #135 ) ;
#126 = CARTESIAN_POINT ( 'NONE',  ( 9.088328968579682115E-17, 0.000000000000000000, 0.7421183785322699178 ) ) ;
#127 = CARTESIAN_POINT ( 'NONE',  ( -0.09832657499999990225, 1.325291793960830375E-17, 0.6299209999999999532 ) ) ;
#128 = FACE_OUTER_BOUND ( 'NONE', #183, .T. ) ;
#129 = CONICAL_SURFACE ( 'NONE', #205, 0.1031100000000002570, 0.7853981633974318477 ) ;
#130 = SURFACE_STYLE_FILL_AREA ( #202 ) ;
#131 = CIRCLE ( 'NONE', #297, 0.09832657499999998552 ) ;
#132 = CARTESIAN_POINT ( 'NONE',  ( 0.000000000000000000, 0.000000000000000000, 2.244094000000000033 ) ) ;
#133 = DIRECTION ( 'NONE',  ( 0.1736481776669313581, 0.000000000000000000, 0.9848077530122077983 ) ) ;
#134 = VERTEX_POINT ( 'NONE', #214 ) ;
#135 = DIRECTION ( 'NONE',  ( -1.000000000000000000, 0.000000000000000000, 0.000000000000000000 ) ) ;
#136 = PRODUCT_DEFINITION ( 'UNKNOWN', '', #220, #82 ) ;
#137 = AXIS2_PLACEMENT_3D ( 'NONE', #298, #187, #281 ) ;
#138 = ORIENTED_EDGE ( 'NONE', *, *, #165, .T. ) ;
#139 =( CONVERSION_BASED_UNIT ( 'INCH', #158 ) LENGTH_UNIT ( ) NAMED_UNIT ( #80 ) );
#140 = PLANE ( 'NONE',  #137 ) ;
#141 = ORIENTED_EDGE ( 'NONE', *, *, #201, .T. ) ;
#142 = CONICAL_SURFACE ( 'NONE', #90, 0.09832657499999998552, 0.1745329251994338637 ) ;
#143 = DIRECTION ( 'NONE',  ( 1.000000000000000000, 0.000000000000000000, 0.000000000000000000 ) ) ;
#144 = CARTESIAN_POINT ( 'NONE',  ( 9.088328968579682115E-17, 0.000000000000000000, 0.7421183785322699178 ) ) ;
#145 = CARTESIAN_POINT ( 'NONE',  ( 0.000000000000000000, 0.000000000000000000, 2.244094000000000033 ) ) ;
#146 = CIRCLE ( 'NONE', #50, 0.1181100000000000066 ) ;
#147 = LINE ( 'NONE', #33, #263 ) ;
#148 = PRODUCT_CONTEXT ( 'NONE', #9, 'mechanical' ) ;
#149 = CONICAL_SURFACE ( 'NONE', #10, 0.1031100000000002570, 0.7853981633974318477 ) ;
#150 = AXIS2_PLACEMENT_3D ( 'NONE', #278, #118, #115 ) ;
#151 = ORIENTED_EDGE ( 'NONE', *, *, #112, .T. ) ;
#152 = EDGE_CURVE ( 'NONE', #186, #239, #74, .T. ) ;
#153 =( NAMED_UNIT ( * ) PLANE_ANGLE_UNIT ( ) SI_UNIT ( $, .RADIAN. ) );
#154 = CARTESIAN_POINT ( 'NONE',  ( 0.000000000000000000, 0.000000000000000000, 0.000000000000000000 ) ) ;
#155 = ORIENTED_EDGE ( 'NONE', *, *, #112, .F. ) ;
#156 = PLANE ( 'NONE',  #264 ) ;
#157 = EDGE_LOOP ( 'NONE', ( #163, #141, #91, #155 ) ) ;
#158 = LENGTH_MEASURE_WITH_UNIT ( LENGTH_MEASURE( 0.02539999999999999897 ), #182 );
#159 = CLOSED_SHELL ( 'NONE', ( #253, #93, #243, #212, #221, #279, #31, #117, #269, #168 ) ) ;
#160 = AXIS2_PLACEMENT_3D ( 'NONE', #83, #181, #252 ) ;
#161 = ORIENTED_EDGE ( 'NONE', *, *, #55, .T. ) ;
#162 = FACE_OUTER_BOUND ( 'NONE', #180, .T. ) ;
#163 = ORIENTED_EDGE ( 'NONE', *, *, #176, .T. ) ;
#164 = CARTESIAN_POINT ( 'NONE',  ( 7.714307363656999460E-17, 0.000000000000000000, 0.6299209999999999532 ) ) ;
#165 = EDGE_CURVE ( 'NONE', #20, #15, #185, .T. ) ;
#166 = DIRECTION ( 'NONE',  ( -1.224646799147353207E-16, -0.000000000000000000, -1.000000000000000000 ) ) ;
#167 = CARTESIAN_POINT ( 'NONE',  ( 0.000000000000000000, 0.000000000000000000, 2.244094000000000033 ) ) ;
#168 = ADVANCED_FACE ( 'NONE', ( #287 ), #156, .F. ) ;
#169 = DIRECTION ( 'NONE',  ( -1.000000000000000000, 0.000000000000000000, 0.000000000000000000 ) ) ;
#170 = CIRCLE ( 'NONE', #238, 0.09832657499999998552 ) ;
#171 = CARTESIAN_POINT ( 'NONE',  ( 0.09832657500000008266, 0.000000000000000000, 0.6299209999999999532 ) ) ;
#172 = AXIS2_PLACEMENT_3D ( 'NONE', #218, #122, #6 ) ;
#173 = EDGE_CURVE ( 'NONE', #251, #26, #195, .T. ) ;
#174 = LENGTH_MEASURE_WITH_UNIT ( LENGTH_MEASURE( 0.02539999999999999897 ), #54 );
#175 = DIRECTION ( 'NONE',  ( -1.000000000000000000, 0.000000000000000000, 0.000000000000000000 ) ) ;
#176 = EDGE_CURVE ( 'NONE', #60, #251, #196, .T. ) ;
#177 = APPLICATION_PROTOCOL_DEFINITION ( 'draft international standard', 'automotive_design', 1998, #29 ) ;
#178 = AXIS2_PLACEMENT_3D ( 'NONE', #270, #76, #223 ) ;
#179 = DIRECTION ( 'NONE',  ( -0.1736481776669311639, 2.126576849575783008E-17, 0.9848077530122080203 ) ) ;
#180 = EDGE_LOOP ( 'NONE', ( #295, #240, #151, #230 ) ) ;
#181 = DIRECTION ( 'NONE',  ( -0.000000000000000000, -0.000000000000000000, -1.000000000000000000 ) ) ;
#182 =( LENGTH_UNIT ( ) NAMED_UNIT ( * ) SI_UNIT ( $, .METRE. ) );
#183 = EDGE_LOOP ( 'NONE', ( #43, #194, #22, #109 ) ) ;
#184 = CARTESIAN_POINT ( 'NONE',  ( 0.000000000000000000, 0.000000000000000000, 0.000000000000000000 ) ) ;
#185 = CIRCLE ( 'NONE', #289, 0.1031100000000002570 ) ;
#186 = VERTEX_POINT ( 'NONE', #203 ) ;
#187 = DIRECTION ( 'NONE',  ( 0.000000000000000000, 0.000000000000000000, 1.000000000000000000 ) ) ;
#188 = EDGE_LOOP ( 'NONE', ( #16, #113, #228, #116 ) ) ;
#189 = FACE_OUTER_BOUND ( 'NONE', #274, .T. ) ;
#190 = EDGE_CURVE ( 'NONE', #20, #204, #291, .T. ) ;
#191 = CIRCLE ( 'NONE', #244, 0.1181100000000000066 ) ;
#192 = CARTESIAN_POINT ( 'NONE',  ( -0.1031100000000002570, 0.000000000000000000, 2.244094000000000033 ) ) ;
#193 = PRODUCT_RELATED_PRODUCT_CATEGORY ( 'part', '', ( #290 ) ) ;
#194 = ORIENTED_EDGE ( 'NONE', *, *, #24, .T. ) ;
#195 = LINE ( 'NONE', #171, #120 ) ;
#196 = CIRCLE ( 'NONE', #125, 0.09832657499999998552 ) ;
#197 = EDGE_CURVE ( 'NONE', #60, #134, #248, .T. ) ;
#198 = STYLED_ITEM ( 'NONE', ( #8 ), #241 ) ;
#199 =( CONVERSION_BASED_UNIT ( 'INCH', #53 ) LENGTH_UNIT ( ) NAMED_UNIT ( #57 ) );
#200 = SURFACE_STYLE_FILL_AREA ( #276 ) ;
#201 = EDGE_CURVE ( 'NONE', #251, #186, #147, .T. ) ;
#202 = FILL_AREA_STYLE ('',( #107 ) ) ;
#203 = CARTESIAN_POINT ( 'NONE',  ( 0.09832657499999998552, 1.204153253448721512E-17, 0.000000000000000000 ) ) ;
#204 = VERTEX_POINT ( 'NONE', #292 ) ;
#205 = AXIS2_PLACEMENT_3D ( 'NONE', #132, #222, #108 ) ;
#206 = FACE_OUTER_BOUND ( 'NONE', #293, .T. ) ;
#207 = DIRECTION ( 'NONE',  ( -1.000000000000000000, 0.000000000000000000, 1.224646799147353207E-16 ) ) ;
#208 = ORIENTED_EDGE ( 'NONE', *, *, #176, .F. ) ;
#209 = CARTESIAN_POINT ( 'NONE',  ( -0.1181100000000000066, 0.000000000000000000, 2.229093999999999465 ) ) ;
#210 = FACE_OUTER_BOUND ( 'NONE', #259, .T. ) ;
#211 = AXIS2_PLACEMENT_3D ( 'NONE', #299, #265, #52 ) ;
#212 = ADVANCED_FACE ( 'NONE', ( #206 ), #37, .T. ) ;
#213 = CARTESIAN_POINT ( 'NONE',  ( -0.09832657499999998552, 0.000000000000000000, 1.204153253448721512E-17 ) ) ;
#214 = CARTESIAN_POINT ( 'NONE',  ( -0.1181099999999999234, 0.000000000000000000, 0.7421183785322699178 ) ) ;
#215 = VECTOR ( 'NONE', #94, 39.37007874015748143 ) ;
#216 = LINE ( 'NONE', #25, #27 ) ;
#217 = CARTESIAN_POINT ( 'NONE',  ( 0.1031100000000002570, 1.354581824536888722E-17, 2.244094000000000033 ) ) ;
#218 = CARTESIAN_POINT ( 'NONE',  ( 7.714307363656999460E-17, 0.000000000000000000, 0.6299209999999999532 ) ) ;
#219 = SURFACE_STYLE_USAGE ( .BOTH. , #272 ) ;
#220 = PRODUCT_DEFINITION_FORMATION_WITH_SPECIFIED_SOURCE ( 'ANY', '', #290, .NOT_KNOWN. ) ;
#221 = ADVANCED_FACE ( 'NONE', ( #128 ), #14, .T. ) ;
#222 = DIRECTION ( 'NONE',  ( 0.000000000000000000, 0.000000000000000000, -1.000000000000000000 ) ) ;
#223 = DIRECTION ( 'NONE',  ( 1.000000000000000000, 0.000000000000000000, 0.000000000000000000 ) ) ;
#224 = DIRECTION ( 'NONE',  ( 0.000000000000000000, 0.000000000000000000, 1.000000000000000000 ) ) ;
#225 = ORIENTED_EDGE ( 'NONE', *, *, #2, .F. ) ;
#226 =( NAMED_UNIT ( * ) PLANE_ANGLE_UNIT ( ) SI_UNIT ( $, .RADIAN. ) );
#227 = DIRECTION ( 'NONE',  ( -0.000000000000000000, -0.000000000000000000, -1.000000000000000000 ) ) ;
#228 = ORIENTED_EDGE ( 'NONE', *, *, #46, .F. ) ;
#229 = ORIENTED_EDGE ( 'NONE', *, *, #197, .T. ) ;
#230 = ORIENTED_EDGE ( 'NONE', *, *, #152, .F. ) ;
#231 = FACE_OUTER_BOUND ( 'NONE', #157, .T. ) ;
#232 = ORIENTED_EDGE ( 'NONE', *, *, #197, .F. ) ;
#233 = EDGE_CURVE ( 'NONE', #251, #60, #131, .T. ) ;
#234 = MECHANICAL_DESIGN_GEOMETRIC_PRESENTATION_REPRESENTATION (  '', ( #111 ), #7 ) ;
#235 = ORIENTED_EDGE ( 'NONE', *, *, #233, .F. ) ;
#236 = DIRECTION ( 'NONE',  ( 1.224646799147353207E-16, 0.000000000000000000, 1.000000000000000000 ) ) ;
#237 = DIRECTION ( 'NONE',  ( 0.000000000000000000, 0.000000000000000000, 1.000000000000000000 ) ) ;
#238 = AXIS2_PLACEMENT_3D ( 'NONE', #42, #114, #207 ) ;
#239 = VERTEX_POINT ( 'NONE', #40 ) ;
#240 = ORIENTED_EDGE ( 'NONE', *, *, #233, .T. ) ;
#241 = MANIFOLD_SOLID_BREP ( 'Cut-Revolve1', #159 ) ;
#242 = DIRECTION ( 'NONE',  ( 1.000000000000000000, 0.000000000000000000, 0.000000000000000000 ) ) ;
#243 = ADVANCED_FACE ( 'NONE', ( #62 ), #129, .T. ) ;
#244 = AXIS2_PLACEMENT_3D ( 'NONE', #144, #70, #143 ) ;
#245 = SHAPE_DEFINITION_REPRESENTATION ( #71, #266 ) ;
#246 = EDGE_CURVE ( 'NONE', #15, #256, #106, .T. ) ;
#247 = AXIS2_PLACEMENT_3D ( 'NONE', #72, #166, #260 ) ;
#248 = LINE ( 'NONE', #81, #254 ) ;
#249 = ORIENTED_EDGE ( 'NONE', *, *, #101, .F. ) ;
#250 = DIRECTION ( 'NONE',  ( 1.000000000000000000, 0.000000000000000000, -0.000000000000000000 ) ) ;
#251 = VERTEX_POINT ( 'NONE', #18 ) ;
#252 = DIRECTION ( 'NONE',  ( -1.000000000000000000, 0.000000000000000000, 0.000000000000000000 ) ) ;
#253 = ADVANCED_FACE ( 'NONE', ( #231 ), #255, .T. ) ;
#254 = VECTOR ( 'NONE', #179, 39.37007874015747433 ) ;
#255 = CYLINDRICAL_SURFACE ( 'NONE', #150, 0.09832657499999998552 ) ;
#256 = VERTEX_POINT ( 'NONE', #209 ) ;
#257 = DIRECTION ( 'NONE',  ( -1.224646799147353207E-16, -0.000000000000000000, -1.000000000000000000 ) ) ;
#258 = ORIENTED_EDGE ( 'NONE', *, *, #46, .T. ) ;
#259 = EDGE_LOOP ( 'NONE', ( #161, #138 ) ) ;
#260 = DIRECTION ( 'NONE',  ( -1.000000000000000000, 0.000000000000000000, 1.224646799147353207E-16 ) ) ;
#261 = EDGE_CURVE ( 'NONE', #204, #26, #296, .T. ) ;
#262 = ORIENTED_EDGE ( 'NONE', *, *, #275, .T. ) ;
#263 = VECTOR ( 'NONE', #75, 39.37007874015748143 ) ;
#264 = AXIS2_PLACEMENT_3D ( 'NONE', #154, #224, #250 ) ;
#265 = DIRECTION ( 'NONE',  ( 0.000000000000000000, 0.000000000000000000, 1.000000000000000000 ) ) ;
#266 = ADVANCED_BREP_SHAPE_REPRESENTATION ( 'Micro_AEMM-050-2', ( #241, #178 ), #11 ) ;
#267 = DIRECTION ( 'NONE',  ( -1.000000000000000000, 0.000000000000000000, 0.000000000000000000 ) ) ;
#268 = SURFACE_STYLE_USAGE ( .BOTH. , #288 ) ;
#269 = ADVANCED_FACE ( 'NONE', ( #162 ), #92, .T. ) ;
#270 = CARTESIAN_POINT ( 'NONE',  ( 0.000000000000000000, 0.000000000000000000, 0.000000000000000000 ) ) ;
#271 =( NAMED_UNIT ( * ) SI_UNIT ( $, .STERADIAN. ) SOLID_ANGLE_UNIT ( ) );
#272 = SURFACE_SIDE_STYLE ('',( #200 ) ) ;
#273 = COLOUR_RGB ( '',0.7921568627450980005, 0.8196078431372548767, 0.9333333333333333481 ) ;
#274 = EDGE_LOOP ( 'NONE', ( #232, #235, #48, #49 ) ) ;
#275 = EDGE_CURVE ( 'NONE', #239, #186, #170, .T. ) ;
#276 = FILL_AREA_STYLE ('',( #86 ) ) ;
#277 = EDGE_LOOP ( 'NONE', ( #262, #65 ) ) ;
#278 = CARTESIAN_POINT ( 'NONE',  ( 0.000000000000000000, 0.000000000000000000, 0.000000000000000000 ) ) ;
#279 = ADVANCED_FACE ( 'NONE', ( #210 ), #140, .T. ) ;
#280 = EDGE_LOOP ( 'NONE', ( #208, #229, #67, #4 ) ) ;
#281 = DIRECTION ( 'NONE',  ( 1.000000000000000000, 0.000000000000000000, -0.000000000000000000 ) ) ;
#282 = DIRECTION ( 'NONE',  ( 1.000000000000000000, 0.000000000000000000, 0.000000000000000000 ) ) ;
#283 = AXIS2_PLACEMENT_3D ( 'NONE', #12, #227, #175 ) ;
#284 = DIRECTION ( 'NONE',  ( 1.000000000000000000, 0.000000000000000000, 0.000000000000000000 ) ) ;
#285 = CARTESIAN_POINT ( 'NONE',  ( 0.1181100000000000899, 1.446430334472940009E-17, 0.7421183785322699178 ) ) ;
#286 = CIRCLE ( 'NONE', #102, 0.1181100000000000066 ) ;
#287 = FACE_OUTER_BOUND ( 'NONE', #277, .T. ) ;
#288 = SURFACE_SIDE_STYLE ('',( #130 ) ) ;
#289 = AXIS2_PLACEMENT_3D ( 'NONE', #145, #237, #242 ) ;
#290 = PRODUCT ( 'Micro_AEMM-050-2', 'Micro_AEMM-050-2', '', ( #148 ) ) ;
#291 = LINE ( 'NONE', #13, #77 ) ;
#292 = CARTESIAN_POINT ( 'NONE',  ( 0.1181100000000000066, 1.446430334472939084E-17, 2.229093999999999465 ) ) ;
#293 = EDGE_LOOP ( 'NONE', ( #258, #98, #249, #225 ) ) ;
#294 = DIRECTION ( 'NONE',  ( -1.224646799147353207E-16, -0.000000000000000000, -1.000000000000000000 ) ) ;
#295 = ORIENTED_EDGE ( 'NONE', *, *, #201, .F. ) ;
#296 = LINE ( 'NONE', #89, #21 ) ;
#297 = AXIS2_PLACEMENT_3D ( 'NONE', #110, #294, #267 ) ;
#298 = CARTESIAN_POINT ( 'NONE',  ( 0.000000000000000000, 0.000000000000000000, 2.244094000000000033 ) ) ;
#299 = CARTESIAN_POINT ( 'NONE',  ( 0.000000000000000000, 0.000000000000000000, 2.244094000000000033 ) ) ;
ENDSEC;
END-ISO-10303-21;
