ISO-10303-21;
HEADER;
FILE_DESCRIPTION (( 'STEP AP214' ),
    '1' );
FILE_NAME ('Micro_RNCM-080-2X.STEP',
    '2021-09-03T17:42:45',
    ( '' ),
    ( '' ),
    'SwSTEP 2.0',
    'SolidWorks 2020',
    '' );
FILE_SCHEMA (( 'AUTOMOTIVE_DESIGN' ));
ENDSEC;

DATA;
#1 = SURFACE_SIDE_STYLE ('',( #243 ) ) ;
#2 = ORIENTED_EDGE ( 'NONE', *, *, #236, .T. ) ;
#3 = VECTOR ( 'NONE', #168, 39.37007874015748143 ) ;
#4 = ORIENTED_EDGE ( 'NONE', *, *, #44, .T. ) ;
#5 = APPLICATION_CONTEXT ( 'automotive_design' ) ;
#6 = ORIENTED_EDGE ( 'NONE', *, *, #49, .F. ) ;
#7 = ADVANCED_BREP_SHAPE_REPRESENTATION ( 'Micro_RNCM-080-2X', ( #55, #233 ), #27 ) ;
#8 = FACE_OUTER_BOUND ( 'NONE', #175, .T. ) ;
#9 = CARTESIAN_POINT ( 'NONE',  ( 0.003936999999999995191, 0.0000000000000000000, 0.0000000000000000000 ) ) ;
#10 = DIRECTION ( 'NONE',  ( 1.000000000000000000, 0.0000000000000000000, 0.0000000000000000000 ) ) ;
#11 = LENGTH_MEASURE_WITH_UNIT ( LENGTH_MEASURE( 0.02539999999999999897 ), #82 );
#12 = CARTESIAN_POINT ( 'NONE',  ( 0.0000000000000000000, 0.0000000000000000000, 0.0000000000000000000 ) ) ;
#13 = PRODUCT ( 'Micro_RNCM-080-2X', 'Micro_RNCM-080-2X', '', ( #174 ) ) ;
#14 =( NAMED_UNIT ( * ) SI_UNIT ( $, .STERADIAN. ) SOLID_ANGLE_UNIT ( ) );
#15 = PRESENTATION_LAYER_ASSIGNMENT (  '', '', ( #124 ) ) ;
#16 = EDGE_CURVE ( 'NONE', #48, #210, #34, .T. ) ;
#17 = FILL_AREA_STYLE_COLOUR ( '', #154 ) ;
#18 = PLANE ( 'NONE',  #158 ) ;
#19 = PRESENTATION_STYLE_ASSIGNMENT (( #39 ) ) ;
#20 = ORIENTED_EDGE ( 'NONE', *, *, #69, .F. ) ;
#21 = FACE_OUTER_BOUND ( 'NONE', #228, .T. ) ;
#22 = VECTOR ( 'NONE', #192, 39.37007874015748143 ) ;
#23 = VECTOR ( 'NONE', #238, 39.37007874015748143 ) ;
#24 = EDGE_CURVE ( 'NONE', #123, #153, #87, .T. ) ;
#25 = EDGE_LOOP ( 'NONE', ( #59, #30, #2, #200 ) ) ;
#26 = ORIENTED_EDGE ( 'NONE', *, *, #182, .F. ) ;
#27 =( GEOMETRIC_REPRESENTATION_CONTEXT ( 3 ) GLOBAL_UNCERTAINTY_ASSIGNED_CONTEXT ( ( #191 ) ) GLOBAL_UNIT_ASSIGNED_CONTEXT ( ( #58, #187, #14 ) ) REPRESENTATION_CONTEXT ( 'NONE', 'WORKASPACE' ) );
#28 = ADVANCED_FACE ( 'NONE', ( #231 ), #18, .T. ) ;
#29 = AXIS2_PLACEMENT_3D ( 'NONE', #77, #164, #36 ) ;
#30 = ORIENTED_EDGE ( 'NONE', *, *, #249, .T. ) ;
#31 = ORIENTED_EDGE ( 'NONE', *, *, #249, .F. ) ;
#32 = ADVANCED_FACE ( 'NONE', ( #21 ), #76, .T. ) ;
#33 = CARTESIAN_POINT ( 'NONE',  ( 0.0000000000000000000, 0.0000000000000000000, 0.0000000000000000000 ) ) ;
#34 = LINE ( 'NONE', #113, #22 ) ;
#35 = DIRECTION ( 'NONE',  ( -0.0000000000000000000, -0.0000000000000000000, -1.000000000000000000 ) ) ;
#36 = DIRECTION ( 'NONE',  ( -1.000000000000000000, 0.0000000000000000000, 0.0000000000000000000 ) ) ;
#37 = DIRECTION ( 'NONE',  ( 0.0000000000000000000, 0.0000000000000000000, -1.000000000000000000 ) ) ;
#38 = DIRECTION ( 'NONE',  ( -0.0000000000000000000, -0.0000000000000000000, -1.000000000000000000 ) ) ;
#39 = SURFACE_STYLE_USAGE ( .BOTH. , #1 ) ;
#40 = AXIS2_PLACEMENT_3D ( 'NONE', #171, #222, #51 ) ;
#41 = DIRECTION ( 'NONE',  ( -1.000000000000000000, 0.0000000000000000000, 0.0000000000000000000 ) ) ;
#42 = CARTESIAN_POINT ( 'NONE',  ( 0.0000000000000000000, 0.0000000000000000000, 0.0000000000000000000 ) ) ;
#43 = SHAPE_DEFINITION_REPRESENTATION ( #142, #7 ) ;
#44 = EDGE_CURVE ( 'NONE', #210, #123, #169, .T. ) ;
#45 = AXIS2_PLACEMENT_3D ( 'NONE', #133, #37, #165 ) ;
#46 = APPLICATION_PROTOCOL_DEFINITION ( 'draft international standard', 'automotive_design', 1998, #215 ) ;
#47 = PRODUCT_DEFINITION_FORMATION_WITH_SPECIFIED_SOURCE ( 'ANY', '', #13, .NOT_KNOWN. ) ;
#48 = VERTEX_POINT ( 'NONE', #65 ) ;
#49 = EDGE_CURVE ( 'NONE', #198, #214, #96, .T. ) ;
#50 = ORIENTED_EDGE ( 'NONE', *, *, #239, .F. ) ;
#51 = DIRECTION ( 'NONE',  ( -1.000000000000000000, 0.0000000000000000000, 0.0000000000000000000 ) ) ;
#52 = DIRECTION ( 'NONE',  ( 0.0000000000000000000, 0.0000000000000000000, 1.000000000000000000 ) ) ;
#53 = AXIS2_PLACEMENT_3D ( 'NONE', #172, #94, #60 ) ;
#54 = CIRCLE ( 'NONE', #40, 0.1574805000000001620 ) ;
#55 = MANIFOLD_SOLID_BREP ( 'Mirror1', #128 ) ;
#56 = DIRECTION ( 'NONE',  ( -1.000000000000000000, 0.0000000000000000000, 0.0000000000000000000 ) ) ;
#57 =( NAMED_UNIT ( * ) SI_UNIT ( $, .STERADIAN. ) SOLID_ANGLE_UNIT ( ) );
#58 =( CONVERSION_BASED_UNIT ( 'INCH', #11 ) LENGTH_UNIT ( ) NAMED_UNIT ( #91 ) );
#59 = ORIENTED_EDGE ( 'NONE', *, *, #44, .F. ) ;
#60 = DIRECTION ( 'NONE',  ( 1.000000000000000000, 0.0000000000000000000, 0.0000000000000000000 ) ) ;
#61 =( GEOMETRIC_REPRESENTATION_CONTEXT ( 3 ) GLOBAL_UNCERTAINTY_ASSIGNED_CONTEXT ( ( #218 ) ) GLOBAL_UNIT_ASSIGNED_CONTEXT ( ( #224, #149, #57 ) ) REPRESENTATION_CONTEXT ( 'NONE', 'WORKASPACE' ) );
#62 =( NAMED_UNIT ( * ) SI_UNIT ( $, .STERADIAN. ) SOLID_ANGLE_UNIT ( ) );
#63 = DIRECTION ( 'NONE',  ( -0.0000000000000000000, -0.0000000000000000000, -1.000000000000000000 ) ) ;
#64 = LINE ( 'NONE', #196, #23 ) ;
#65 = CARTESIAN_POINT ( 'NONE',  ( 0.003936999999999995191, 0.0000000000000000000, 2.480315000000000047 ) ) ;
#66 = ORIENTED_EDGE ( 'NONE', *, *, #180, .T. ) ;
#67 = ORIENTED_EDGE ( 'NONE', *, *, #236, .F. ) ;
#68 = ORIENTED_EDGE ( 'NONE', *, *, #49, .T. ) ;
#69 = EDGE_CURVE ( 'NONE', #132, #84, #232, .T. ) ;
#70 = DIRECTION ( 'NONE',  ( -1.000000000000000000, 0.0000000000000000000, 0.0000000000000000000 ) ) ;
#71 = ORIENTED_EDGE ( 'NONE', *, *, #182, .T. ) ;
#72 = PRODUCT_DEFINITION_CONTEXT ( 'detailed design', #5, 'design' ) ;
#73 = CONICAL_SURFACE ( 'NONE', #197, 0.003936999999999995191, 0.7853981633974501664 ) ;
#74 = FACE_OUTER_BOUND ( 'NONE', #221, .T. ) ;
#75 = DIMENSIONAL_EXPONENTS ( 1.000000000000000000, 0.0000000000000000000, 0.0000000000000000000, 0.0000000000000000000, 0.0000000000000000000, 0.0000000000000000000, 0.0000000000000000000 ) ;
#76 = CONICAL_SURFACE ( 'NONE', #53, 0.003936999999999995191, 0.7853981633974501664 ) ;
#77 = CARTESIAN_POINT ( 'NONE',  ( 0.0000000000000000000, 0.0000000000000000000, 2.480315000000000047 ) ) ;
#78 = AXIS2_PLACEMENT_3D ( 'NONE', #131, #35, #41 ) ;
#79 = FACE_OUTER_BOUND ( 'NONE', #118, .T. ) ;
#80 =( LENGTH_UNIT ( ) NAMED_UNIT ( * ) SI_UNIT ( $, .METRE. ) );
#81 = CARTESIAN_POINT ( 'NONE',  ( 0.0000000000000000000, 0.0000000000000000000, 2.480315000000000047 ) ) ;
#82 =( LENGTH_UNIT ( ) NAMED_UNIT ( * ) SI_UNIT ( $, .METRE. ) );
#83 = VECTOR ( 'NONE', #220, 39.37007874015748143 ) ;
#84 = VERTEX_POINT ( 'NONE', #245 ) ;
#85 = CIRCLE ( 'NONE', #146, 0.003936999999999995191 ) ;
#86 = EDGE_LOOP ( 'NONE', ( #50, #216 ) ) ;
#87 = CIRCLE ( 'NONE', #160, 0.1574805000000001620 ) ;
#88 = ADVANCED_FACE ( 'NONE', ( #8 ), #129, .T. ) ;
#89 = ORIENTED_EDGE ( 'NONE', *, *, #16, .F. ) ;
#90 = ORIENTED_EDGE ( 'NONE', *, *, #155, .T. ) ;
#91 = DIMENSIONAL_EXPONENTS ( 1.000000000000000000, 0.0000000000000000000, 0.0000000000000000000, 0.0000000000000000000, 0.0000000000000000000, 0.0000000000000000000, 0.0000000000000000000 ) ;
#92 = DIRECTION ( 'NONE',  ( -0.0000000000000000000, -0.0000000000000000000, -1.000000000000000000 ) ) ;
#93 = ORIENTED_EDGE ( 'NONE', *, *, #234, .F. ) ;
#94 = DIRECTION ( 'NONE',  ( 0.0000000000000000000, 0.0000000000000000000, 1.000000000000000000 ) ) ;
#95 = DIRECTION ( 'NONE',  ( 0.0000000000000000000, 0.0000000000000000000, -1.000000000000000000 ) ) ;
#96 = LINE ( 'NONE', #135, #223 ) ;
#97 = DIRECTION ( 'NONE',  ( -0.7071067811865487940, -8.659560562354948882E-17, -0.7071067811865462405 ) ) ;
#98 = ORIENTED_EDGE ( 'NONE', *, *, #69, .T. ) ;
#99 = CONICAL_SURFACE ( 'NONE', #111, 0.003936999999999995191, 0.7853981633974501664 ) ;
#100 = DIRECTION ( 'NONE',  ( 0.0000000000000000000, 0.0000000000000000000, -1.000000000000000000 ) ) ;
#101 = CIRCLE ( 'NONE', #78, 0.003936999999999995191 ) ;
#102 = DIMENSIONAL_EXPONENTS ( 1.000000000000000000, 0.0000000000000000000, 0.0000000000000000000, 0.0000000000000000000, 0.0000000000000000000, 0.0000000000000000000, 0.0000000000000000000 ) ;
#103 = ADVANCED_FACE ( 'NONE', ( #74 ), #143, .F. ) ;
#104 = LENGTH_MEASURE_WITH_UNIT ( LENGTH_MEASURE( 0.02539999999999999897 ), #230 );
#105 = DIRECTION ( 'NONE',  ( -0.0000000000000000000, -0.0000000000000000000, -1.000000000000000000 ) ) ;
#106 = CARTESIAN_POINT ( 'NONE',  ( -0.003936999999999995191, 9.883971235068403538E-18, 0.0000000000000000000 ) ) ;
#107 = LINE ( 'NONE', #145, #3 ) ;
#108 = PRESENTATION_STYLE_ASSIGNMENT (( #134 ) ) ;
#109 = CARTESIAN_POINT ( 'NONE',  ( 0.0000000000000000000, 0.0000000000000000000, 0.1535434999999996108 ) ) ;
#110 = DIRECTION ( 'NONE',  ( -1.000000000000000000, 0.0000000000000000000, 0.0000000000000000000 ) ) ;
#111 = AXIS2_PLACEMENT_3D ( 'NONE', #226, #95, #170 ) ;
#112 = FILL_AREA_STYLE_COLOUR ( '', #116 ) ;
#113 = CARTESIAN_POINT ( 'NONE',  ( 0.003936999999999995191, 0.0000000000000000000, 2.480315000000000047 ) ) ;
#114 = FACE_OUTER_BOUND ( 'NONE', #240, .T. ) ;
#115 = CARTESIAN_POINT ( 'NONE',  ( 0.0000000000000000000, 0.0000000000000000000, 2.480315000000000047 ) ) ;
#116 = COLOUR_RGB ( '',0.7921568627450980005, 0.8196078431372548767, 0.9333333333333333481 ) ;
#117 = PRODUCT_DEFINITION ( 'UNKNOWN', '', #47, #72 ) ;
#118 = EDGE_LOOP ( 'NONE', ( #125, #68, #31, #89 ) ) ;
#119 = AXIS2_PLACEMENT_3D ( 'NONE', #33, #92, #166 ) ;
#120 = AXIS2_PLACEMENT_3D ( 'NONE', #157, #100, #137 ) ;
#121 = ORIENTED_EDGE ( 'NONE', *, *, #130, .T. ) ;
#122 = EDGE_LOOP ( 'NONE', ( #20, #66, #121, #93 ) ) ;
#123 = VERTEX_POINT ( 'NONE', #244 ) ;
#124 = STYLED_ITEM ( 'NONE', ( #108 ), #55 ) ;
#125 = ORIENTED_EDGE ( 'NONE', *, *, #239, .T. ) ;
#126 = ORIENTED_EDGE ( 'NONE', *, *, #229, .F. ) ;
#127 = ADVANCED_FACE ( 'NONE', ( #152 ), #207, .T. ) ;
#128 = CLOSED_SHELL ( 'NONE', ( #141, #140, #206, #127, #32, #103, #88, #28 ) ) ;
#129 = CONICAL_SURFACE ( 'NONE', #199, 0.003936999999999995191, 0.7853981633974501664 ) ;
#130 = EDGE_CURVE ( 'NONE', #153, #123, #183, .T. ) ;
#131 = CARTESIAN_POINT ( 'NONE',  ( 0.0000000000000000000, 0.0000000000000000000, 0.0000000000000000000 ) ) ;
#132 = VERTEX_POINT ( 'NONE', #106 ) ;
#133 = CARTESIAN_POINT ( 'NONE',  ( 0.0000000000000000000, 0.0000000000000000000, 2.480315000000000047 ) ) ;
#134 = SURFACE_STYLE_USAGE ( .BOTH. , #176 ) ;
#135 = CARTESIAN_POINT ( 'NONE',  ( -0.003936999999999995191, -4.821434448243123477E-19, 2.480315000000000047 ) ) ;
#136 = AXIS2_PLACEMENT_3D ( 'NONE', #213, #181, #219 ) ;
#137 = DIRECTION ( 'NONE',  ( -1.000000000000000000, 0.0000000000000000000, 0.0000000000000000000 ) ) ;
#138 = APPLICATION_PROTOCOL_DEFINITION ( 'draft international standard', 'automotive_design', 1998, #5 ) ;
#139 = UNCERTAINTY_MEASURE_WITH_UNIT (LENGTH_MEASURE( 1.000000000000000082E-05 ), #150, 'distance_accuracy_value', 'NONE');
#140 = ADVANCED_FACE ( 'NONE', ( #186 ), #73, .T. ) ;
#141 = ADVANCED_FACE ( 'NONE', ( #79 ), #99, .T. ) ;
#142 = PRODUCT_DEFINITION_SHAPE ( 'NONE', 'NONE',  #117 ) ;
#143 = PLANE ( 'NONE',  #136 ) ;
#144 = AXIS2_PLACEMENT_3D ( 'NONE', #205, #242, #110 ) ;
#145 = CARTESIAN_POINT ( 'NONE',  ( -0.1574804999999999955, 0.0000000000000000000, 2.480315000000000047 ) ) ;
#146 = AXIS2_PLACEMENT_3D ( 'NONE', #195, #177, #70 ) ;
#147 =( NAMED_UNIT ( * ) PLANE_ANGLE_UNIT ( ) SI_UNIT ( $, .RADIAN. ) );
#148 = CARTESIAN_POINT ( 'NONE',  ( 0.1574805000000001620, 1.928579902531249569E-17, 2.326771500000000437 ) ) ;
#149 =( NAMED_UNIT ( * ) PLANE_ANGLE_UNIT ( ) SI_UNIT ( $, .RADIAN. ) );
#150 =( CONVERSION_BASED_UNIT ( 'INCH', #104 ) LENGTH_UNIT ( ) NAMED_UNIT ( #102 ) );
#151 = DIRECTION ( 'NONE',  ( 0.0000000000000000000, 0.0000000000000000000, 1.000000000000000000 ) ) ;
#152 = FACE_OUTER_BOUND ( 'NONE', #25, .T. ) ;
#153 = VERTEX_POINT ( 'NONE', #194 ) ;
#154 = COLOUR_RGB ( '',0.7921568627450980005, 0.8196078431372548767, 0.9333333333333333481 ) ;
#155 = EDGE_CURVE ( 'NONE', #198, #48, #85, .T. ) ;
#156 = ORIENTED_EDGE ( 'NONE', *, *, #16, .T. ) ;
#157 = CARTESIAN_POINT ( 'NONE',  ( 0.0000000000000000000, 0.0000000000000000000, 2.326771500000000437 ) ) ;
#158 = AXIS2_PLACEMENT_3D ( 'NONE', #115, #151, #188 ) ;
#159 = CIRCLE ( 'NONE', #45, 0.003936999999999995191 ) ;
#160 = AXIS2_PLACEMENT_3D ( 'NONE', #109, #63, #167 ) ;
#161 = AXIS2_PLACEMENT_3D ( 'NONE', #81, #38, #56 ) ;
#162 = ORIENTED_EDGE ( 'NONE', *, *, #229, .T. ) ;
#163 = CARTESIAN_POINT ( 'NONE',  ( 0.0000000000000000000, 0.0000000000000000000, 2.480315000000000047 ) ) ;
#164 = DIRECTION ( 'NONE',  ( -0.0000000000000000000, -0.0000000000000000000, -1.000000000000000000 ) ) ;
#165 = DIRECTION ( 'NONE',  ( -1.000000000000000000, 0.0000000000000000000, 0.0000000000000000000 ) ) ;
#166 = DIRECTION ( 'NONE',  ( -1.000000000000000000, 0.0000000000000000000, 0.0000000000000000000 ) ) ;
#167 = DIRECTION ( 'NONE',  ( -1.000000000000000000, 0.0000000000000000000, 0.0000000000000000000 ) ) ;
#168 = DIRECTION ( 'NONE',  ( -0.0000000000000000000, -0.0000000000000000000, -1.000000000000000000 ) ) ;
#169 = LINE ( 'NONE', #248, #193 ) ;
#170 = DIRECTION ( 'NONE',  ( 1.000000000000000000, 0.0000000000000000000, 0.0000000000000000000 ) ) ;
#171 = CARTESIAN_POINT ( 'NONE',  ( 0.0000000000000000000, 0.0000000000000000000, 2.326771500000000437 ) ) ;
#172 = CARTESIAN_POINT ( 'NONE',  ( 0.0000000000000000000, 0.0000000000000000000, 0.0000000000000000000 ) ) ;
#173 = DIRECTION ( 'NONE',  ( 0.0000000000000000000, 0.0000000000000000000, 1.000000000000000000 ) ) ;
#174 = PRODUCT_CONTEXT ( 'NONE', #215, 'mechanical' ) ;
#175 = EDGE_LOOP ( 'NONE', ( #6, #90, #156, #26 ) ) ;
#176 = SURFACE_SIDE_STYLE ('',( #211 ) ) ;
#177 = DIRECTION ( 'NONE',  ( 0.0000000000000000000, 0.0000000000000000000, -1.000000000000000000 ) ) ;
#178 = MECHANICAL_DESIGN_GEOMETRIC_PRESENTATION_REPRESENTATION (  '', ( #246 ), #217 ) ;
#179 = ORIENTED_EDGE ( 'NONE', *, *, #24, .T. ) ;
#180 = EDGE_CURVE ( 'NONE', #132, #153, #64, .T. ) ;
#181 = DIRECTION ( 'NONE',  ( 0.0000000000000000000, 0.0000000000000000000, 1.000000000000000000 ) ) ;
#182 = EDGE_CURVE ( 'NONE', #214, #210, #203, .T. ) ;
#183 = CIRCLE ( 'NONE', #144, 0.1574805000000001620 ) ;
#184 = LINE ( 'NONE', #9, #83 ) ;
#185 = LENGTH_MEASURE_WITH_UNIT ( LENGTH_MEASURE( 0.02539999999999999897 ), #80 );
#186 = FACE_OUTER_BOUND ( 'NONE', #122, .T. ) ;
#187 =( NAMED_UNIT ( * ) PLANE_ANGLE_UNIT ( ) SI_UNIT ( $, .RADIAN. ) );
#188 = DIRECTION ( 'NONE',  ( 1.000000000000000000, 0.0000000000000000000, -0.0000000000000000000 ) ) ;
#189 = MECHANICAL_DESIGN_GEOMETRIC_PRESENTATION_REPRESENTATION (  '', ( #124 ), #61 ) ;
#190 = CYLINDRICAL_SURFACE ( 'NONE', #161, 0.1574804999999999955 ) ;
#191 = UNCERTAINTY_MEASURE_WITH_UNIT (LENGTH_MEASURE( 1.000000000000000082E-05 ), #58, 'distance_accuracy_value', 'NONE');
#192 = DIRECTION ( 'NONE',  ( 0.7071067811865487940, 0.0000000000000000000, -0.7071067811865462405 ) ) ;
#193 = VECTOR ( 'NONE', #105, 39.37007874015748143 ) ;
#194 = CARTESIAN_POINT ( 'NONE',  ( -0.1574805000000001620, 0.0000000000000000000, 0.1535434999999996108 ) ) ;
#195 = CARTESIAN_POINT ( 'NONE',  ( 0.0000000000000000000, 0.0000000000000000000, 2.480315000000000047 ) ) ;
#196 = CARTESIAN_POINT ( 'NONE',  ( -0.003936999999999995191, 4.821434448243123477E-19, 0.0000000000000000000 ) ) ;
#197 = AXIS2_PLACEMENT_3D ( 'NONE', #12, #52, #247 ) ;
#198 = VERTEX_POINT ( 'NONE', #209 ) ;
#199 = AXIS2_PLACEMENT_3D ( 'NONE', #163, #201, #10 ) ;
#200 = ORIENTED_EDGE ( 'NONE', *, *, #24, .F. ) ;
#201 = DIRECTION ( 'NONE',  ( 0.0000000000000000000, 0.0000000000000000000, -1.000000000000000000 ) ) ;
#202 = PRODUCT_RELATED_PRODUCT_CATEGORY ( 'part', '', ( #13 ) ) ;
#203 = CIRCLE ( 'NONE', #120, 0.1574805000000001620 ) ;
#204 = ORIENTED_EDGE ( 'NONE', *, *, #234, .T. ) ;
#205 = CARTESIAN_POINT ( 'NONE',  ( 0.0000000000000000000, 0.0000000000000000000, 0.1535434999999996108 ) ) ;
#206 = ADVANCED_FACE ( 'NONE', ( #114 ), #190, .T. ) ;
#207 = CYLINDRICAL_SURFACE ( 'NONE', #29, 0.1574804999999999955 ) ;
#208 = FILL_AREA_STYLE ('',( #112 ) ) ;
#209 = CARTESIAN_POINT ( 'NONE',  ( -0.003936999999999995191, -9.883971235068403538E-18, 2.480315000000000047 ) ) ;
#210 = VERTEX_POINT ( 'NONE', #148 ) ;
#211 = SURFACE_STYLE_FILL_AREA ( #208 ) ;
#212 = PRESENTATION_LAYER_ASSIGNMENT (  '', '', ( #246 ) ) ;
#213 = CARTESIAN_POINT ( 'NONE',  ( 0.0000000000000000000, 0.0000000000000000000, 0.0000000000000000000 ) ) ;
#214 = VERTEX_POINT ( 'NONE', #227 ) ;
#215 = APPLICATION_CONTEXT ( 'automotive_design' ) ;
#216 = ORIENTED_EDGE ( 'NONE', *, *, #155, .F. ) ;
#217 =( GEOMETRIC_REPRESENTATION_CONTEXT ( 3 ) GLOBAL_UNCERTAINTY_ASSIGNED_CONTEXT ( ( #139 ) ) GLOBAL_UNIT_ASSIGNED_CONTEXT ( ( #150, #147, #62 ) ) REPRESENTATION_CONTEXT ( 'NONE', 'WORKASPACE' ) );
#218 = UNCERTAINTY_MEASURE_WITH_UNIT (LENGTH_MEASURE( 1.000000000000000082E-05 ), #224, 'distance_accuracy_value', 'NONE');
#219 = DIRECTION ( 'NONE',  ( 1.000000000000000000, 0.0000000000000000000, -0.0000000000000000000 ) ) ;
#220 = DIRECTION ( 'NONE',  ( 0.7071067811865487940, 0.0000000000000000000, 0.7071067811865462405 ) ) ;
#221 = EDGE_LOOP ( 'NONE', ( #162, #98 ) ) ;
#222 = DIRECTION ( 'NONE',  ( 0.0000000000000000000, 0.0000000000000000000, -1.000000000000000000 ) ) ;
#223 = VECTOR ( 'NONE', #97, 39.37007874015748143 ) ;
#224 =( CONVERSION_BASED_UNIT ( 'INCH', #185 ) LENGTH_UNIT ( ) NAMED_UNIT ( #75 ) );
#225 = FILL_AREA_STYLE ('',( #17 ) ) ;
#226 = CARTESIAN_POINT ( 'NONE',  ( 0.0000000000000000000, 0.0000000000000000000, 2.480315000000000047 ) ) ;
#227 = CARTESIAN_POINT ( 'NONE',  ( -0.1574805000000001620, 0.0000000000000000000, 2.326771500000000437 ) ) ;
#228 = EDGE_LOOP ( 'NONE', ( #237, #126, #204, #179 ) ) ;
#229 = EDGE_CURVE ( 'NONE', #84, #132, #101, .T. ) ;
#230 =( LENGTH_UNIT ( ) NAMED_UNIT ( * ) SI_UNIT ( $, .METRE. ) );
#231 = FACE_OUTER_BOUND ( 'NONE', #86, .T. ) ;
#232 = CIRCLE ( 'NONE', #119, 0.003936999999999995191 ) ;
#233 = AXIS2_PLACEMENT_3D ( 'NONE', #42, #173, #235 ) ;
#234 = EDGE_CURVE ( 'NONE', #84, #123, #184, .T. ) ;
#235 = DIRECTION ( 'NONE',  ( 1.000000000000000000, 0.0000000000000000000, 0.0000000000000000000 ) ) ;
#236 = EDGE_CURVE ( 'NONE', #214, #153, #107, .T. ) ;
#237 = ORIENTED_EDGE ( 'NONE', *, *, #180, .F. ) ;
#238 = DIRECTION ( 'NONE',  ( -0.7071067811865487940, 8.659560562354948882E-17, 0.7071067811865462405 ) ) ;
#239 = EDGE_CURVE ( 'NONE', #48, #198, #159, .T. ) ;
#240 = EDGE_LOOP ( 'NONE', ( #71, #4, #241, #67 ) ) ;
#241 = ORIENTED_EDGE ( 'NONE', *, *, #130, .F. ) ;
#242 = DIRECTION ( 'NONE',  ( -0.0000000000000000000, -0.0000000000000000000, -1.000000000000000000 ) ) ;
#243 = SURFACE_STYLE_FILL_AREA ( #225 ) ;
#244 = CARTESIAN_POINT ( 'NONE',  ( 0.1574805000000001620, 1.928579902531249569E-17, 0.1535434999999996108 ) ) ;
#245 = CARTESIAN_POINT ( 'NONE',  ( 0.003936999999999995191, 0.0000000000000000000, 0.0000000000000000000 ) ) ;
#246 = STYLED_ITEM ( 'NONE', ( #19 ), #7 ) ;
#247 = DIRECTION ( 'NONE',  ( 1.000000000000000000, 0.0000000000000000000, 0.0000000000000000000 ) ) ;
#248 = CARTESIAN_POINT ( 'NONE',  ( 0.1574804999999999955, 1.928579902531247412E-17, 2.480315000000000047 ) ) ;
#249 = EDGE_CURVE ( 'NONE', #210, #214, #54, .T. ) ;
ENDSEC;
END-ISO-10303-21;
