ISO-10303-21;
HEADER;
FILE_DESCRIPTION (( 'STEP AP214' ),
    '1' );
FILE_NAME ('01662.STEP',
    '2023-06-22T14:42:36',
    ( '' ),
    ( '' ),
    'SwSTEP 2.0',
    'SolidWorks 2023',
    '' );
FILE_SCHEMA (( 'AUTOMOTIVE_DESIGN' ));
ENDSEC;

DATA;
#1 = SHAPE_DEFINITION_REPRESENTATION ( #62, #172 ) ;
#2 = DIRECTION ( 'NONE',  ( 1.031281515071456169E-16, 1.000000000000000000, -0.000000000000000000 ) ) ;
#3 = COLOUR_RGB ( '',1.000000000000000000, 0.000000000000000000, 0.000000000000000000 ) ;
#4 = STYLED_ITEM ( 'NONE', ( #182 ), #261 ) ;
#5 =( CONVERSION_BASED_UNIT ( 'INCH', #169 ) LENGTH_UNIT ( ) NAMED_UNIT ( #198 ) );
#6 = COLOUR_RGB ( '',0.7921568627450980005, 0.8196078431372548767, 0.9333333333333333481 ) ;
#7 = VERTEX_POINT ( 'NONE', #306 ) ;
#8 = EDGE_LOOP ( 'NONE', ( #13, #157, #40, #294 ) ) ;
#9 = SURFACE_STYLE_FILL_AREA ( #12 ) ;
#10 = CLOSED_SHELL ( 'NONE', ( #273, #163, #295, #221 ) ) ;
#11 = VERTEX_POINT ( 'NONE', #117 ) ;
#12 = FILL_AREA_STYLE ('',( #91 ) ) ;
#13 = ORIENTED_EDGE ( 'NONE', *, *, #270, .T. ) ;
#14 = PRESENTATION_STYLE_ASSIGNMENT (( #250 ) ) ;
#15 = ORIENTED_EDGE ( 'NONE', *, *, #107, .F. ) ;
#16 = CARTESIAN_POINT ( 'NONE',  ( -3.032960542342103792E-32, 1.625000000000000000, 0.000000000000000000 ) ) ;
#17 =( GEOMETRIC_REPRESENTATION_CONTEXT ( 3 ) GLOBAL_UNCERTAINTY_ASSIGNED_CONTEXT ( ( #31 ) ) GLOBAL_UNIT_ASSIGNED_CONTEXT ( ( #74, #145, #258 ) ) REPRESENTATION_CONTEXT ( 'NONE', 'WORKASPACE' ) );
#18 = SURFACE_STYLE_USAGE ( .BOTH. , #231 ) ;
#19 =( GEOMETRIC_REPRESENTATION_CONTEXT ( 3 ) GLOBAL_UNCERTAINTY_ASSIGNED_CONTEXT ( ( #105 ) ) GLOBAL_UNIT_ASSIGNED_CONTEXT ( ( #50, #23, #106 ) ) REPRESENTATION_CONTEXT ( 'NONE', 'WORKASPACE' ) );
#20 = DIRECTION ( 'NONE',  ( -0.000000000000000000, -1.000000000000000000, -0.000000000000000000 ) ) ;
#21 = LENGTH_MEASURE_WITH_UNIT ( LENGTH_MEASURE( 0.02539999999999999897 ), #103 );
#22 = CYLINDRICAL_SURFACE ( 'NONE', #194, 0.3750000000000000555 ) ;
#23 =( NAMED_UNIT ( * ) PLANE_ANGLE_UNIT ( ) SI_UNIT ( $, .RADIAN. ) );
#24 = SURFACE_STYLE_USAGE ( .BOTH. , #165 ) ;
#25 = CARTESIAN_POINT ( 'NONE',  ( 0.000000000000000000, 0.000000000000000000, 0.000000000000000000 ) ) ;
#26 = SURFACE_STYLE_FILL_AREA ( #132 ) ;
#27 =( CONVERSION_BASED_UNIT ( 'INCH', #65 ) LENGTH_UNIT ( ) NAMED_UNIT ( #78 ) );
#28 = PRODUCT_DEFINITION_CONTEXT ( 'detailed design', #180, 'design' ) ;
#29 = EDGE_CURVE ( 'NONE', #223, #246, #137, .T. ) ;
#30 = DIRECTION ( 'NONE',  ( 0.000000000000000000, 1.000000000000000000, 0.000000000000000000 ) ) ;
#31 = UNCERTAINTY_MEASURE_WITH_UNIT (LENGTH_MEASURE( 1.000000000000000082E-05 ), #74, 'distance_accuracy_value', 'NONE');
#32 = DIMENSIONAL_EXPONENTS ( 1.000000000000000000, 0.000000000000000000, 0.000000000000000000, 0.000000000000000000, 0.000000000000000000, 0.000000000000000000, 0.000000000000000000 ) ;
#33 = MECHANICAL_DESIGN_GEOMETRIC_PRESENTATION_REPRESENTATION (  '', ( #265 ), #226 ) ;
#34 = ORIENTED_EDGE ( 'NONE', *, *, #280, .T. ) ;
#35 = DIRECTION ( 'NONE',  ( -0.000000000000000000, -1.000000000000000000, -0.000000000000000000 ) ) ;
#36 = ORIENTED_EDGE ( 'NONE', *, *, #43, .F. ) ;
#37 = DIRECTION ( 'NONE',  ( 1.031281515071456046E-16, 1.000000000000000000, -0.000000000000000000 ) ) ;
#38 = MECHANICAL_DESIGN_GEOMETRIC_PRESENTATION_REPRESENTATION (  '', ( #174 ), #108 ) ;
#39 =( GEOMETRIC_REPRESENTATION_CONTEXT ( 3 ) GLOBAL_UNCERTAINTY_ASSIGNED_CONTEXT ( ( #75 ) ) GLOBAL_UNIT_ASSIGNED_CONTEXT ( ( #5, #219, #216 ) ) REPRESENTATION_CONTEXT ( 'NONE', 'WORKASPACE' ) );
#40 = ORIENTED_EDGE ( 'NONE', *, *, #29, .F. ) ;
#41 = FILL_AREA_STYLE ('',( #118 ) ) ;
#42 = PLANE ( 'NONE',  #269 ) ;
#43 = EDGE_CURVE ( 'NONE', #203, #248, #122, .T. ) ;
#44 = DIRECTION ( 'NONE',  ( -1.000000000000000000, 0.000000000000000000, 0.000000000000000000 ) ) ;
#45 = STYLED_ITEM ( 'NONE', ( #222 ), #155 ) ;
#46 = LINE ( 'NONE', #101, #54 ) ;
#47 = VECTOR ( 'NONE', #144, 39.37007874015748143 ) ;
#48 = FACE_OUTER_BOUND ( 'NONE', #8, .T. ) ;
#49 = CARTESIAN_POINT ( 'NONE',  ( 0.000000000000000000, 0.000000000000000000, 0.000000000000000000 ) ) ;
#50 =( CONVERSION_BASED_UNIT ( 'INCH', #21 ) LENGTH_UNIT ( ) NAMED_UNIT ( #131 ) );
#51 = EDGE_CURVE ( 'NONE', #203, #299, #46, .T. ) ;
#52 =( NAMED_UNIT ( * ) PLANE_ANGLE_UNIT ( ) SI_UNIT ( $, .RADIAN. ) );
#53 = DIRECTION ( 'NONE',  ( -0.000000000000000000, -1.000000000000000000, -0.000000000000000000 ) ) ;
#54 = VECTOR ( 'NONE', #189, 39.37007874015748143 ) ;
#55 = AXIS2_PLACEMENT_3D ( 'NONE', #25, #125, #284 ) ;
#56 = CARTESIAN_POINT ( 'NONE',  ( 0.000000000000000000, 1.625000000000000000, 0.000000000000000000 ) ) ;
#57 = PLANE ( 'NONE',  #277 ) ;
#58 = PRODUCT_RELATED_PRODUCT_CATEGORY ( 'part', '', ( #289 ) ) ;
#59 = PRESENTATION_LAYER_ASSIGNMENT (  '', '', ( #265 ) ) ;
#60 = SURFACE_STYLE_USAGE ( .BOTH. , #170 ) ;
#61 = EDGE_CURVE ( 'NONE', #248, #140, #190, .T. ) ;
#62 = PRODUCT_DEFINITION_SHAPE ( 'NONE', 'NONE',  #160 ) ;
#63 = EDGE_LOOP ( 'NONE', ( #161, #34 ) ) ;
#64 = PRESENTATION_LAYER_ASSIGNMENT (  '', '', ( #174 ) ) ;
#65 = LENGTH_MEASURE_WITH_UNIT ( LENGTH_MEASURE( 0.02539999999999999897 ), #171 );
#66 = ORIENTED_EDGE ( 'NONE', *, *, #264, .T. ) ;
#67 =( LENGTH_UNIT ( ) NAMED_UNIT ( * ) SI_UNIT ( $, .METRE. ) );
#68 = ORIENTED_EDGE ( 'NONE', *, *, #107, .T. ) ;
#69 = SURFACE_SIDE_STYLE ('',( #245 ) ) ;
#70 = AXIS2_PLACEMENT_3D ( 'NONE', #148, #290, #257 ) ;
#71 = ORIENTED_EDGE ( 'NONE', *, *, #270, .F. ) ;
#72 =( LENGTH_UNIT ( ) NAMED_UNIT ( * ) SI_UNIT ( $, .METRE. ) );
#73 = DIRECTION ( 'NONE',  ( 0.000000000000000000, 0.000000000000000000, -1.000000000000000000 ) ) ;
#74 =( CONVERSION_BASED_UNIT ( 'INCH', #235 ) LENGTH_UNIT ( ) NAMED_UNIT ( #32 ) );
#75 = UNCERTAINTY_MEASURE_WITH_UNIT (LENGTH_MEASURE( 1.000000000000000082E-05 ), #5, 'distance_accuracy_value', 'NONE');
#76 = LENGTH_MEASURE_WITH_UNIT ( LENGTH_MEASURE( 0.02539999999999999897 ), #146 );
#77 = DIRECTION ( 'NONE',  ( 1.031281515071456046E-16, 1.000000000000000000, -0.000000000000000000 ) ) ;
#78 = DIMENSIONAL_EXPONENTS ( 1.000000000000000000, 0.000000000000000000, 0.000000000000000000, 0.000000000000000000, 0.000000000000000000, 0.000000000000000000, 0.000000000000000000 ) ;
#79 = UNCERTAINTY_MEASURE_WITH_UNIT (LENGTH_MEASURE( 1.000000000000000082E-05 ), #141, 'distance_accuracy_value', 'NONE');
#80 = DIRECTION ( 'NONE',  ( -1.000000000000000000, 0.000000000000000000, 0.000000000000000000 ) ) ;
#81 = DIRECTION ( 'NONE',  ( 1.031281515071456046E-16, 1.000000000000000000, -0.000000000000000000 ) ) ;
#82 = CIRCLE ( 'NONE', #243, 0.3750000000000000555 ) ;
#83 = DIRECTION ( 'NONE',  ( 1.000000000000000000, -1.031281515071456169E-16, 0.000000000000000000 ) ) ;
#84 = DIRECTION ( 'NONE',  ( 0.000000000000000000, 0.000000000000000000, -1.000000000000000000 ) ) ;
#85 = PLANE ( 'NONE',  #212 ) ;
#86 = AXIS2_PLACEMENT_3D ( 'NONE', #16, #37, #44 ) ;
#87 = ORIENTED_EDGE ( 'NONE', *, *, #115, .F. ) ;
#88 = MECHANICAL_DESIGN_GEOMETRIC_PRESENTATION_REPRESENTATION (  '', ( #45 ), #39 ) ;
#89 = DIRECTION ( 'NONE',  ( 0.000000000000000000, 0.000000000000000000, -1.000000000000000000 ) ) ;
#90 = ORIENTED_EDGE ( 'NONE', *, *, #126, .F. ) ;
#91 = FILL_AREA_STYLE_COLOUR ( '', #119 ) ;
#92 = ORIENTED_EDGE ( 'NONE', *, *, #51, .F. ) ;
#93 = CARTESIAN_POINT ( 'NONE',  ( 0.000000000000000000, 0.000000000000000000, 0.000000000000000000 ) ) ;
#94 = PRESENTATION_STYLE_ASSIGNMENT (( #24 ) ) ;
#95 = LENGTH_MEASURE_WITH_UNIT ( LENGTH_MEASURE( 0.02539999999999999897 ), #67 );
#96 = FILL_AREA_STYLE ('',( #278 ) ) ;
#97 = SURFACE_STYLE_FILL_AREA ( #304 ) ;
#98 = CARTESIAN_POINT ( 'NONE',  ( 0.000000000000000000, 1.625000000000000000, 0.000000000000000000 ) ) ;
#99 = CARTESIAN_POINT ( 'NONE',  ( 2.449293598294707400E-16, 4.000000000000000000, 0.000000000000000000 ) ) ;
#100 = COLOUR_RGB ( '',0.7921568627450980005, 0.8196078431372548767, 0.9333333333333333481 ) ;
#101 = CARTESIAN_POINT ( 'NONE',  ( 0.000000000000000000, 0.000000000000000000, -0.3750000000000000555 ) ) ;
#102 = DIMENSIONAL_EXPONENTS ( 1.000000000000000000, 0.000000000000000000, 0.000000000000000000, 0.000000000000000000, 0.000000000000000000, 0.000000000000000000, 0.000000000000000000 ) ;
#103 =( LENGTH_UNIT ( ) NAMED_UNIT ( * ) SI_UNIT ( $, .METRE. ) );
#104 = PLANE ( 'NONE',  #188 ) ;
#105 = UNCERTAINTY_MEASURE_WITH_UNIT (LENGTH_MEASURE( 1.000000000000000082E-05 ), #50, 'distance_accuracy_value', 'NONE');
#106 =( NAMED_UNIT ( * ) SI_UNIT ( $, .STERADIAN. ) SOLID_ANGLE_UNIT ( ) );
#107 = EDGE_CURVE ( 'NONE', #299, #140, #82, .T. ) ;
#108 =( GEOMETRIC_REPRESENTATION_CONTEXT ( 3 ) GLOBAL_UNCERTAINTY_ASSIGNED_CONTEXT ( ( #191 ) ) GLOBAL_UNIT_ASSIGNED_CONTEXT ( ( #27, #173, #197 ) ) REPRESENTATION_CONTEXT ( 'NONE', 'WORKASPACE' ) );
#109 =( GEOMETRIC_REPRESENTATION_CONTEXT ( 3 ) GLOBAL_UNCERTAINTY_ASSIGNED_CONTEXT ( ( #154 ) ) GLOBAL_UNIT_ASSIGNED_CONTEXT ( ( #298, #138, #136 ) ) REPRESENTATION_CONTEXT ( 'NONE', 'WORKASPACE' ) );
#110 = VECTOR ( 'NONE', #123, 39.37007874015748143 ) ;
#111 = ADVANCED_FACE ( 'NONE', ( #162 ), #22, .T. ) ;
#112 = ORIENTED_EDGE ( 'NONE', *, *, #217, .T. ) ;
#113 = AXIS2_PLACEMENT_3D ( 'NONE', #263, #286, #80 ) ;
#114 = LENGTH_MEASURE_WITH_UNIT ( LENGTH_MEASURE( 0.02539999999999999897 ), #247 );
#115 = EDGE_CURVE ( 'NONE', #11, #246, #236, .T. ) ;
#116 = LINE ( 'NONE', #230, #47 ) ;
#117 = CARTESIAN_POINT ( 'NONE',  ( 0.3750000000000000555, 1.625000000000000000, 4.592425496802573602E-17 ) ) ;
#118 = FILL_AREA_STYLE_COLOUR ( '', #100 ) ;
#119 = COLOUR_RGB ( '',1.000000000000000000, 0.000000000000000000, 0.000000000000000000 ) ;
#120 = FILL_AREA_STYLE_COLOUR ( '', #6 ) ;
#121 = DIRECTION ( 'NONE',  ( -0.000000000000000000, -1.000000000000000000, -0.000000000000000000 ) ) ;
#122 = CIRCLE ( 'NONE', #133, 0.3750000000000000555 ) ;
#123 = DIRECTION ( 'NONE',  ( 1.031281515071456169E-16, 1.000000000000000000, -0.000000000000000000 ) ) ;
#124 = CIRCLE ( 'NONE', #86, 0.3750000000000000555 ) ;
#125 = DIRECTION ( 'NONE',  ( 0.000000000000000000, 0.000000000000000000, 1.000000000000000000 ) ) ;
#126 = EDGE_CURVE ( 'NONE', #140, #299, #276, .T. ) ;
#127 = PRODUCT_CONTEXT ( 'NONE', #139, 'mechanical' ) ;
#128 = DIRECTION ( 'NONE',  ( 0.000000000000000000, -0.000000000000000000, 1.000000000000000000 ) ) ;
#129 = STYLED_ITEM ( 'NONE', ( #94 ), #111 ) ;
#130 = CIRCLE ( 'NONE', #204, 0.3750000000000000555 ) ;
#131 = DIMENSIONAL_EXPONENTS ( 1.000000000000000000, 0.000000000000000000, 0.000000000000000000, 0.000000000000000000, 0.000000000000000000, 0.000000000000000000, 0.000000000000000000 ) ;
#132 = FILL_AREA_STYLE ('',( #135 ) ) ;
#133 = AXIS2_PLACEMENT_3D ( 'NONE', #98, #285, #308 ) ;
#134 = ADVANCED_FACE ( 'NONE', ( #238 ), #42, .T. ) ;
#135 = FILL_AREA_STYLE_COLOUR ( '', #3 ) ;
#136 =( NAMED_UNIT ( * ) SI_UNIT ( $, .STERADIAN. ) SOLID_ANGLE_UNIT ( ) );
#137 = CIRCLE ( 'NONE', #207, 0.3749999999999997780 ) ;
#138 =( NAMED_UNIT ( * ) PLANE_ANGLE_UNIT ( ) SI_UNIT ( $, .RADIAN. ) );
#139 = APPLICATION_CONTEXT ( 'automotive_design' ) ;
#140 = VERTEX_POINT ( 'NONE', #262 ) ;
#141 =( CONVERSION_BASED_UNIT ( 'INCH', #95 ) LENGTH_UNIT ( ) NAMED_UNIT ( #102 ) );
#142 = SURFACE_STYLE_USAGE ( .BOTH. , #179 ) ;
#143 = SURFACE_STYLE_FILL_AREA ( #206 ) ;
#144 = DIRECTION ( 'NONE',  ( 1.031281515071456169E-16, 1.000000000000000000, -0.000000000000000000 ) ) ;
#145 =( NAMED_UNIT ( * ) PLANE_ANGLE_UNIT ( ) SI_UNIT ( $, .RADIAN. ) );
#146 =( LENGTH_UNIT ( ) NAMED_UNIT ( * ) SI_UNIT ( $, .METRE. ) );
#147 = DIMENSIONAL_EXPONENTS ( 1.000000000000000000, 0.000000000000000000, 0.000000000000000000, 0.000000000000000000, 0.000000000000000000, 0.000000000000000000, 0.000000000000000000 ) ;
#148 = CARTESIAN_POINT ( 'NONE',  ( 2.449293598294707400E-16, 4.000000000000000000, 0.000000000000000000 ) ) ;
#149 = COLOUR_RGB ( '',1.000000000000000000, 0.000000000000000000, 0.000000000000000000 ) ;
#150 = DIRECTION ( 'NONE',  ( 0.000000000000000000, 0.000000000000000000, -1.000000000000000000 ) ) ;
#151 = STYLED_ITEM ( 'NONE', ( #279 ), #272 ) ;
#152 = CARTESIAN_POINT ( 'NONE',  ( 0.000000000000000000, 0.000000000000000000, -0.3750000000000000555 ) ) ;
#153 = CARTESIAN_POINT ( 'NONE',  ( 0.3750000000000000555, 4.000000000000000000, 4.592425496802573602E-17 ) ) ;
#154 = UNCERTAINTY_MEASURE_WITH_UNIT (LENGTH_MEASURE( 1.000000000000000082E-05 ), #298, 'distance_accuracy_value', 'NONE');
#155 = ADVANCED_FACE ( 'NONE', ( #192 ), #57, .T. ) ;
#156 = DIRECTION ( 'NONE',  ( -1.000000000000000000, 1.031281515071456169E-16, 0.000000000000000000 ) ) ;
#157 = ORIENTED_EDGE ( 'NONE', *, *, #115, .T. ) ;
#158 = PRESENTATION_LAYER_ASSIGNMENT (  '', '', ( #151 ) ) ;
#159 = EDGE_LOOP ( 'NONE', ( #275, #112, #164, #90 ) ) ;
#160 = PRODUCT_DEFINITION ( 'UNKNOWN', '', #254, #28 ) ;
#161 = ORIENTED_EDGE ( 'NONE', *, *, #29, .T. ) ;
#162 = FACE_OUTER_BOUND ( 'NONE', #271, .T. ) ;
#163 = ADVANCED_FACE ( 'NONE', ( #199 ), #85, .F. ) ;
#164 = ORIENTED_EDGE ( 'NONE', *, *, #51, .T. ) ;
#165 = SURFACE_SIDE_STYLE ('',( #283 ) ) ;
#166 = DIRECTION ( 'NONE',  ( -0.000000000000000000, -1.000000000000000000, -0.000000000000000000 ) ) ;
#167 =( CONVERSION_BASED_UNIT ( 'INCH', #76 ) LENGTH_UNIT ( ) NAMED_UNIT ( #220 ) );
#168 = MECHANICAL_DESIGN_GEOMETRIC_PRESENTATION_REPRESENTATION (  '', ( #151 ), #19 ) ;
#169 = LENGTH_MEASURE_WITH_UNIT ( LENGTH_MEASURE( 0.02539999999999999897 ), #214 );
#170 = SURFACE_SIDE_STYLE ('',( #26 ) ) ;
#171 =( LENGTH_UNIT ( ) NAMED_UNIT ( * ) SI_UNIT ( $, .METRE. ) );
#172 = ADVANCED_BREP_SHAPE_REPRESENTATION ( '01662', ( #267, #272, #55 ), #293 ) ;
#173 =( NAMED_UNIT ( * ) PLANE_ANGLE_UNIT ( ) SI_UNIT ( $, .RADIAN. ) );
#174 = STYLED_ITEM ( 'NONE', ( #209 ), #134 ) ;
#175 = ORIENTED_EDGE ( 'NONE', *, *, #61, .T. ) ;
#176 = DIRECTION ( 'NONE',  ( -1.031281515071456169E-16, -1.000000000000000000, 0.000000000000000000 ) ) ;
#177 = EDGE_LOOP ( 'NONE', ( #71, #297 ) ) ;
#178 = CARTESIAN_POINT ( 'NONE',  ( 4.592425496802575451E-17, 1.625000000000000000, 0.3750000000000000555 ) ) ;
#179 = SURFACE_SIDE_STYLE ('',( #9 ) ) ;
#180 = APPLICATION_CONTEXT ( 'automotive_design' ) ;
#181 = EDGE_LOOP ( 'NONE', ( #68, #228 ) ) ;
#182 = PRESENTATION_STYLE_ASSIGNMENT (( #142 ) ) ;
#183 =( NAMED_UNIT ( * ) PLANE_ANGLE_UNIT ( ) SI_UNIT ( $, .RADIAN. ) );
#184 = SURFACE_STYLE_USAGE ( .BOTH. , #224 ) ;
#185 = CARTESIAN_POINT ( 'NONE',  ( 4.592425496802575451E-17, 0.000000000000000000, 0.3750000000000000555 ) ) ;
#186 = DIRECTION ( 'NONE',  ( 1.031281515071456046E-16, 1.000000000000000000, -0.000000000000000000 ) ) ;
#187 = MECHANICAL_DESIGN_GEOMETRIC_PRESENTATION_REPRESENTATION (  '', ( #129 ), #17 ) ;
#188 = AXIS2_PLACEMENT_3D ( 'NONE', #292, #176, #83 ) ;
#189 = DIRECTION ( 'NONE',  ( -0.000000000000000000, -1.000000000000000000, -0.000000000000000000 ) ) ;
#190 = LINE ( 'NONE', #185, #300 ) ;
#191 = UNCERTAINTY_MEASURE_WITH_UNIT (LENGTH_MEASURE( 1.000000000000000082E-05 ), #27, 'distance_accuracy_value', 'NONE');
#192 = FACE_OUTER_BOUND ( 'NONE', #181, .T. ) ;
#193 = FACE_OUTER_BOUND ( 'NONE', #210, .T. ) ;
#194 = AXIS2_PLACEMENT_3D ( 'NONE', #252, #121, #251 ) ;
#195 = CIRCLE ( 'NONE', #296, 0.3749999999999997780 ) ;
#196 = CARTESIAN_POINT ( 'NONE',  ( 0.000000000000000000, 1.625000000000000000, -0.3750000000000000555 ) ) ;
#197 =( NAMED_UNIT ( * ) SI_UNIT ( $, .STERADIAN. ) SOLID_ANGLE_UNIT ( ) );
#198 = DIMENSIONAL_EXPONENTS ( 1.000000000000000000, 0.000000000000000000, 0.000000000000000000, 0.000000000000000000, 0.000000000000000000, 0.000000000000000000, 0.000000000000000000 ) ;
#199 = FACE_OUTER_BOUND ( 'NONE', #177, .T. ) ;
#200 = COLOUR_RGB ( '',1.000000000000000000, 0.000000000000000000, 0.000000000000000000 ) ;
#201 = ORIENTED_EDGE ( 'NONE', *, *, #43, .T. ) ;
#202 = CARTESIAN_POINT ( 'NONE',  ( 1.994140431240145858E-33, 1.625000000000000000, 0.000000000000000000 ) ) ;
#203 = VERTEX_POINT ( 'NONE', #196 ) ;
#204 = AXIS2_PLACEMENT_3D ( 'NONE', #287, #81, #239 ) ;
#205 =( NAMED_UNIT ( * ) SI_UNIT ( $, .STERADIAN. ) SOLID_ANGLE_UNIT ( ) );
#206 = FILL_AREA_STYLE ('',( #233 ) ) ;
#207 = AXIS2_PLACEMENT_3D ( 'NONE', #99, #77, #255 ) ;
#208 = CIRCLE ( 'NONE', #237, 0.3750000000000000555 ) ;
#209 = PRESENTATION_STYLE_ASSIGNMENT (( #18 ) ) ;
#210 = EDGE_LOOP ( 'NONE', ( #87, #303, #66, #225 ) ) ;
#211 =( NAMED_UNIT ( * ) SI_UNIT ( $, .STERADIAN. ) SOLID_ANGLE_UNIT ( ) );
#212 = AXIS2_PLACEMENT_3D ( 'NONE', #202, #2, #156 ) ;
#213 = CARTESIAN_POINT ( 'NONE',  ( 0.000000000000000000, 0.000000000000000000, 0.000000000000000000 ) ) ;
#214 =( LENGTH_UNIT ( ) NAMED_UNIT ( * ) SI_UNIT ( $, .METRE. ) );
#215 = APPLICATION_PROTOCOL_DEFINITION ( 'draft international standard', 'automotive_design', 1998, #180 ) ;
#216 =( NAMED_UNIT ( * ) SI_UNIT ( $, .STERADIAN. ) SOLID_ANGLE_UNIT ( ) );
#217 = EDGE_CURVE ( 'NONE', #248, #203, #208, .T. ) ;
#218 = PRESENTATION_LAYER_ASSIGNMENT (  '', '', ( #45 ) ) ;
#219 =( NAMED_UNIT ( * ) PLANE_ANGLE_UNIT ( ) SI_UNIT ( $, .RADIAN. ) );
#220 = DIMENSIONAL_EXPONENTS ( 1.000000000000000000, 0.000000000000000000, 0.000000000000000000, 0.000000000000000000, 0.000000000000000000, 0.000000000000000000, 0.000000000000000000 ) ;
#221 = ADVANCED_FACE ( 'NONE', ( #288 ), #104, .F. ) ;
#222 = PRESENTATION_STYLE_ASSIGNMENT (( #60 ) ) ;
#223 = VERTEX_POINT ( 'NONE', #266 ) ;
#224 = SURFACE_SIDE_STYLE ('',( #97 ) ) ;
#225 = ORIENTED_EDGE ( 'NONE', *, *, #280, .F. ) ;
#226 =( GEOMETRIC_REPRESENTATION_CONTEXT ( 3 ) GLOBAL_UNCERTAINTY_ASSIGNED_CONTEXT ( ( #79 ) ) GLOBAL_UNIT_ASSIGNED_CONTEXT ( ( #141, #183, #205 ) ) REPRESENTATION_CONTEXT ( 'NONE', 'WORKASPACE' ) );
#227 = CYLINDRICAL_SURFACE ( 'NONE', #249, 0.3750000000000000555 ) ;
#228 = ORIENTED_EDGE ( 'NONE', *, *, #126, .T. ) ;
#229 = EDGE_LOOP ( 'NONE', ( #36, #268 ) ) ;
#230 = CARTESIAN_POINT ( 'NONE',  ( -0.3749999999999996114, 4.000000000000000000, 0.000000000000000000 ) ) ;
#231 = SURFACE_SIDE_STYLE ('',( #143 ) ) ;
#232 = CYLINDRICAL_SURFACE ( 'NONE', #70, 0.3749999999999998890 ) ;
#233 = FILL_AREA_STYLE_COLOUR ( '', #149 ) ;
#234 = CYLINDRICAL_SURFACE ( 'NONE', #113, 0.3749999999999998890 ) ;
#235 = LENGTH_MEASURE_WITH_UNIT ( LENGTH_MEASURE( 0.02539999999999999897 ), #72 );
#236 = LINE ( 'NONE', #259, #110 ) ;
#237 = AXIS2_PLACEMENT_3D ( 'NONE', #56, #35, #89 ) ;
#238 = FACE_OUTER_BOUND ( 'NONE', #229, .T. ) ;
#239 = DIRECTION ( 'NONE',  ( -1.000000000000000000, 0.000000000000000000, 0.000000000000000000 ) ) ;
#240 = EDGE_CURVE ( 'NONE', #11, #7, #130, .T. ) ;
#241 = CARTESIAN_POINT ( 'NONE',  ( 0.000000000000000000, 1.625000000000000000, 0.000000000000000000 ) ) ;
#242 = DIRECTION ( 'NONE',  ( 0.000000000000000000, -1.000000000000000000, -0.000000000000000000 ) ) ;
#243 = AXIS2_PLACEMENT_3D ( 'NONE', #49, #20, #301 ) ;
#244 = MECHANICAL_DESIGN_GEOMETRIC_PRESENTATION_REPRESENTATION (  '', ( #4 ), #109 ) ;
#245 = SURFACE_STYLE_FILL_AREA ( #41 ) ;
#246 = VERTEX_POINT ( 'NONE', #153 ) ;
#247 =( LENGTH_UNIT ( ) NAMED_UNIT ( * ) SI_UNIT ( $, .METRE. ) );
#248 = VERTEX_POINT ( 'NONE', #178 ) ;
#249 = AXIS2_PLACEMENT_3D ( 'NONE', #93, #274, #73 ) ;
#250 = SURFACE_STYLE_USAGE ( .BOTH. , #69 ) ;
#251 = DIRECTION ( 'NONE',  ( 0.000000000000000000, 0.000000000000000000, -1.000000000000000000 ) ) ;
#252 = CARTESIAN_POINT ( 'NONE',  ( 0.000000000000000000, 0.000000000000000000, 0.000000000000000000 ) ) ;
#253 = AXIS2_PLACEMENT_3D ( 'NONE', #213, #53, #150 ) ;
#254 = PRODUCT_DEFINITION_FORMATION_WITH_SPECIFIED_SOURCE ( 'ANY', '', #289, .NOT_KNOWN. ) ;
#255 = DIRECTION ( 'NONE',  ( -1.000000000000000000, 0.000000000000000000, 0.000000000000000000 ) ) ;
#256 = UNCERTAINTY_MEASURE_WITH_UNIT (LENGTH_MEASURE( 1.000000000000000082E-05 ), #167, 'distance_accuracy_value', 'NONE');
#257 = DIRECTION ( 'NONE',  ( -1.000000000000000000, 0.000000000000000000, 0.000000000000000000 ) ) ;
#258 =( NAMED_UNIT ( * ) SI_UNIT ( $, .STERADIAN. ) SOLID_ANGLE_UNIT ( ) );
#259 = CARTESIAN_POINT ( 'NONE',  ( 0.3750000000000001665, 4.000000000000000000, 4.592425496802572986E-17 ) ) ;
#260 = CLOSED_SHELL ( 'NONE', ( #111, #134, #261, #155 ) ) ;
#261 = ADVANCED_FACE ( 'NONE', ( #302 ), #227, .T. ) ;
#262 = CARTESIAN_POINT ( 'NONE',  ( 4.592425496802575451E-17, 0.000000000000000000, 0.3750000000000000555 ) ) ;
#263 = CARTESIAN_POINT ( 'NONE',  ( 2.449293598294707400E-16, 4.000000000000000000, 0.000000000000000000 ) ) ;
#264 = EDGE_CURVE ( 'NONE', #7, #223, #116, .T. ) ;
#265 = STYLED_ITEM ( 'NONE', ( #14 ), #267 ) ;
#266 = CARTESIAN_POINT ( 'NONE',  ( -0.3749999999999995004, 4.000000000000000000, 0.000000000000000000 ) ) ;
#267 = MANIFOLD_SOLID_BREP ( 'Revolve - Cutting Edge', #260 ) ;
#268 = ORIENTED_EDGE ( 'NONE', *, *, #217, .F. ) ;
#269 = AXIS2_PLACEMENT_3D ( 'NONE', #241, #30, #128 ) ;
#270 = EDGE_CURVE ( 'NONE', #7, #11, #124, .T. ) ;
#271 = EDGE_LOOP ( 'NONE', ( #201, #175, #15, #92 ) ) ;
#272 = MANIFOLD_SOLID_BREP ( 'Revolve - Tool Body (Straight Shanked)', #10 ) ;
#273 = ADVANCED_FACE ( 'NONE', ( #48 ), #232, .T. ) ;
#274 = DIRECTION ( 'NONE',  ( -0.000000000000000000, -1.000000000000000000, -0.000000000000000000 ) ) ;
#275 = ORIENTED_EDGE ( 'NONE', *, *, #61, .F. ) ;
#276 = CIRCLE ( 'NONE', #253, 0.3750000000000000555 ) ;
#277 = AXIS2_PLACEMENT_3D ( 'NONE', #291, #242, #84 ) ;
#278 = FILL_AREA_STYLE_COLOUR ( '', #200 ) ;
#279 = PRESENTATION_STYLE_ASSIGNMENT (( #184 ) ) ;
#280 = EDGE_CURVE ( 'NONE', #246, #223, #195, .T. ) ;
#281 = PRESENTATION_LAYER_ASSIGNMENT (  '', '', ( #4 ) ) ;
#282 = DIRECTION ( 'NONE',  ( -1.000000000000000000, 0.000000000000000000, 0.000000000000000000 ) ) ;
#283 = SURFACE_STYLE_FILL_AREA ( #96 ) ;
#284 = DIRECTION ( 'NONE',  ( 1.000000000000000000, 0.000000000000000000, 0.000000000000000000 ) ) ;
#285 = DIRECTION ( 'NONE',  ( -0.000000000000000000, -1.000000000000000000, -0.000000000000000000 ) ) ;
#286 = DIRECTION ( 'NONE',  ( 1.031281515071456046E-16, 1.000000000000000000, -0.000000000000000000 ) ) ;
#287 = CARTESIAN_POINT ( 'NONE',  ( -3.032960542342103792E-32, 1.625000000000000000, 0.000000000000000000 ) ) ;
#288 = FACE_OUTER_BOUND ( 'NONE', #63, .T. ) ;
#289 = PRODUCT ( '01662', '01662', '', ( #127 ) ) ;
#290 = DIRECTION ( 'NONE',  ( 1.031281515071456046E-16, 1.000000000000000000, -0.000000000000000000 ) ) ;
#291 = CARTESIAN_POINT ( 'NONE',  ( 0.000000000000000000, 0.000000000000000000, 0.000000000000000000 ) ) ;
#292 = CARTESIAN_POINT ( 'NONE',  ( 0.3750000000000000555, 4.000000000000000000, 0.000000000000000000 ) ) ;
#293 =( GEOMETRIC_REPRESENTATION_CONTEXT ( 3 ) GLOBAL_UNCERTAINTY_ASSIGNED_CONTEXT ( ( #256 ) ) GLOBAL_UNIT_ASSIGNED_CONTEXT ( ( #167, #52, #211 ) ) REPRESENTATION_CONTEXT ( 'NONE', 'WORKASPACE' ) );
#294 = ORIENTED_EDGE ( 'NONE', *, *, #264, .F. ) ;
#295 = ADVANCED_FACE ( 'NONE', ( #193 ), #234, .T. ) ;
#296 = AXIS2_PLACEMENT_3D ( 'NONE', #305, #186, #282 ) ;
#297 = ORIENTED_EDGE ( 'NONE', *, *, #240, .F. ) ;
#298 =( CONVERSION_BASED_UNIT ( 'INCH', #114 ) LENGTH_UNIT ( ) NAMED_UNIT ( #147 ) );
#299 = VERTEX_POINT ( 'NONE', #152 ) ;
#300 = VECTOR ( 'NONE', #166, 39.37007874015748143 ) ;
#301 = DIRECTION ( 'NONE',  ( 0.000000000000000000, 0.000000000000000000, -1.000000000000000000 ) ) ;
#302 = FACE_OUTER_BOUND ( 'NONE', #159, .T. ) ;
#303 = ORIENTED_EDGE ( 'NONE', *, *, #240, .T. ) ;
#304 = FILL_AREA_STYLE ('',( #120 ) ) ;
#305 = CARTESIAN_POINT ( 'NONE',  ( 2.449293598294707400E-16, 4.000000000000000000, 0.000000000000000000 ) ) ;
#306 = CARTESIAN_POINT ( 'NONE',  ( -0.3750000000000000555, 1.625000000000000000, 0.000000000000000000 ) ) ;
#307 = PRESENTATION_LAYER_ASSIGNMENT (  '', '', ( #129 ) ) ;
#308 = DIRECTION ( 'NONE',  ( 0.000000000000000000, 0.000000000000000000, -1.000000000000000000 ) ) ;
#309 = APPLICATION_PROTOCOL_DEFINITION ( 'draft international standard', 'automotive_design', 1998, #139 ) ;
ENDSEC;
END-ISO-10303-21;
