ISO-10303-21;
HEADER;
FILE_DESCRIPTION (( 'STEP AP214' ),
    '1' );
FILE_NAME ('Micro_DM-312-290.STEP',
    '2021-09-02T16:02:37',
    ( '' ),
    ( '' ),
    'SwSTEP 2.0',
    'SolidWorks 2020',
    '' );
FILE_SCHEMA (( 'AUTOMOTIVE_DESIGN' ));
ENDSEC;

DATA;
#1 = CARTESIAN_POINT ( 'NONE',  ( 0.0000000000000000000, 0.0000000000000000000, 2.500000000000000000 ) ) ;
#2 = FACE_OUTER_BOUND ( 'NONE', #196, .T. ) ;
#3 = PRODUCT_DEFINITION_CONTEXT ( 'detailed design', #259, 'design' ) ;
#4 = VERTEX_POINT ( 'NONE', #9 ) ;
#5 = CONICAL_SURFACE ( 'NONE', #268, 0.007499999999999999722, 0.7853981633974502774 ) ;
#6 = DIRECTION ( 'NONE',  ( 0.0000000000000000000, 0.0000000000000000000, -1.000000000000000000 ) ) ;
#7 = VERTEX_POINT ( 'NONE', #28 ) ;
#8 = DIRECTION ( 'NONE',  ( -0.0000000000000000000, -0.0000000000000000000, -1.000000000000000000 ) ) ;
#9 = CARTESIAN_POINT ( 'NONE',  ( 0.007499999999999999722, 0.0000000000000000000, 1.707404996040164512E-17 ) ) ;
#10 = STYLED_ITEM ( 'NONE', ( #202 ), #286 ) ;
#11 = ORIENTED_EDGE ( 'NONE', *, *, #283, .F. ) ;
#12 = DIMENSIONAL_EXPONENTS ( 1.000000000000000000, 0.0000000000000000000, 0.0000000000000000000, 0.0000000000000000000, 0.0000000000000000000, 0.0000000000000000000, 0.0000000000000000000 ) ;
#13 = DIRECTION ( 'NONE',  ( -1.000000000000000000, 0.0000000000000000000, 0.0000000000000000000 ) ) ;
#14 = ADVANCED_FACE ( 'NONE', ( #103 ), #182, .T. ) ;
#15 = CARTESIAN_POINT ( 'NONE',  ( 0.1562000000000000888, 0.0000000000000000000, 0.8129999999999999449 ) ) ;
#16 = CIRCLE ( 'NONE', #110, 0.007499999999999999722 ) ;
#17 = DIRECTION ( 'NONE',  ( -0.0000000000000000000, -0.0000000000000000000, -1.000000000000000000 ) ) ;
#18 = CONICAL_SURFACE ( 'NONE', #83, 0.1412499999999994871, 0.7853981633974391752 ) ;
#19 = DIRECTION ( 'NONE',  ( 0.0000000000000000000, 0.0000000000000000000, 1.000000000000000000 ) ) ;
#20 = DIRECTION ( 'NONE',  ( -1.000000000000000000, 0.0000000000000000000, 0.0000000000000000000 ) ) ;
#21 = DIRECTION ( 'NONE',  ( -0.0000000000000000000, -0.0000000000000000000, -1.000000000000000000 ) ) ;
#22 = EDGE_CURVE ( 'NONE', #84, #27, #311, .T. ) ;
#23 = DIRECTION ( 'NONE',  ( -1.000000000000000000, 0.0000000000000000000, 0.0000000000000000000 ) ) ;
#24 = ORIENTED_EDGE ( 'NONE', *, *, #101, .T. ) ;
#25 = CIRCLE ( 'NONE', #316, 0.1562500000000000000 ) ;
#26 =( NAMED_UNIT ( * ) PLANE_ANGLE_UNIT ( ) SI_UNIT ( $, .RADIAN. ) );
#27 = VERTEX_POINT ( 'NONE', #291 ) ;
#28 = CARTESIAN_POINT ( 'NONE',  ( -0.007499999999999999722, 1.002373405102108630E-17, 1.707404996040164512E-17 ) ) ;
#29 = DIRECTION ( 'NONE',  ( 0.0000000000000000000, 0.0000000000000000000, 1.000000000000000000 ) ) ;
#30 = ORIENTED_EDGE ( 'NONE', *, *, #211, .T. ) ;
#31 = DIRECTION ( 'NONE',  ( 1.000000000000000000, 0.0000000000000000000, 0.0000000000000000000 ) ) ;
#32 = EDGE_LOOP ( 'NONE', ( #254, #180 ) ) ;
#33 = AXIS2_PLACEMENT_3D ( 'NONE', #329, #219, #304 ) ;
#34 = CARTESIAN_POINT ( 'NONE',  ( -0.1562500000000000000, 0.0000000000000000000, 2.500000000000000000 ) ) ;
#35 = CARTESIAN_POINT ( 'NONE',  ( 0.0000000000000000000, 0.0000000000000000000, 0.8129999999999997229 ) ) ;
#36 = DIRECTION ( 'NONE',  ( -0.0000000000000000000, -0.0000000000000000000, -1.000000000000000000 ) ) ;
#37 = EDGE_CURVE ( 'NONE', #262, #45, #197, .T. ) ;
#38 = CARTESIAN_POINT ( 'NONE',  ( -0.1562000000000000888, 0.0000000000000000000, 0.8129999999999999449 ) ) ;
#39 = PLANE ( 'NONE',  #64 ) ;
#40 = SURFACE_STYLE_FILL_AREA ( #49 ) ;
#41 = DIRECTION ( 'NONE',  ( -0.0000000000000000000, -0.0000000000000000000, -1.000000000000000000 ) ) ;
#42 = AXIS2_PLACEMENT_3D ( 'NONE', #319, #36, #168 ) ;
#43 = VECTOR ( 'NONE', #75, 39.37007874015748143 ) ;
#44 = CARTESIAN_POINT ( 'NONE',  ( 0.0000000000000000000, 0.0000000000000000000, 2.484999999999999432 ) ) ;
#45 = VERTEX_POINT ( 'NONE', #313 ) ;
#46 = EDGE_CURVE ( 'NONE', #27, #84, #294, .T. ) ;
#47 = CARTESIAN_POINT ( 'NONE',  ( 0.1562000000000000888, 1.912898300268166897E-17, 0.8129999999999999449 ) ) ;
#48 = EDGE_LOOP ( 'NONE', ( #290, #155, #174, #159 ) ) ;
#49 = FILL_AREA_STYLE ('',( #248 ) ) ;
#50 = MECHANICAL_DESIGN_GEOMETRIC_PRESENTATION_REPRESENTATION (  '', ( #10 ), #216 ) ;
#51 = FILL_AREA_STYLE_COLOUR ( '', #58 ) ;
#52 = ORIENTED_EDGE ( 'NONE', *, *, #325, .T. ) ;
#53 = EDGE_LOOP ( 'NONE', ( #124, #232, #160, #129 ) ) ;
#54 = UNCERTAINTY_MEASURE_WITH_UNIT (LENGTH_MEASURE( 1.000000000000000082E-05 ), #246, 'distance_accuracy_value', 'NONE');
#55 = CARTESIAN_POINT ( 'NONE',  ( 0.0000000000000000000, 0.0000000000000000000, 2.500000000000000000 ) ) ;
#56 = EDGE_CURVE ( 'NONE', #130, #250, #312, .T. ) ;
#57 = CIRCLE ( 'NONE', #256, 0.1562000000000000055 ) ;
#58 = COLOUR_RGB ( '',0.7921568627450980005, 0.8196078431372548767, 0.9333333333333333481 ) ;
#59 = EDGE_LOOP ( 'NONE', ( #258, #236 ) ) ;
#60 = ADVANCED_FACE ( 'NONE', ( #138 ), #86, .T. ) ;
#61 = CARTESIAN_POINT ( 'NONE',  ( 0.0000000000000000000, 0.0000000000000000000, 0.0000000000000000000 ) ) ;
#62 = DIRECTION ( 'NONE',  ( -1.000000000000000000, 0.0000000000000000000, 0.0000000000000000000 ) ) ;
#63 = CARTESIAN_POINT ( 'NONE',  ( -0.1562500000000000000, 0.0000000000000000000, 2.484999999999999432 ) ) ;
#64 = AXIS2_PLACEMENT_3D ( 'NONE', #15, #296, #20 ) ;
#65 = CIRCLE ( 'NONE', #88, 0.007499999999999999722 ) ;
#66 = CARTESIAN_POINT ( 'NONE',  ( 0.1562500000000000000, 1.913510623667739463E-17, 2.500000000000000000 ) ) ;
#67 = DIRECTION ( 'NONE',  ( -1.000000000000000000, 0.0000000000000000000, 0.0000000000000000000 ) ) ;
#68 = CARTESIAN_POINT ( 'NONE',  ( 0.0000000000000000000, 0.0000000000000000000, 0.0000000000000000000 ) ) ;
#69 = EDGE_CURVE ( 'NONE', #206, #223, #293, .T. ) ;
#70 = CIRCLE ( 'NONE', #227, 0.1562500000000000000 ) ;
#71 = CARTESIAN_POINT ( 'NONE',  ( 0.0000000000000000000, 0.0000000000000000000, 0.0000000000000000000 ) ) ;
#72 = DIRECTION ( 'NONE',  ( -0.7071067811865489050, 8.659560562354950115E-17, 0.7071067811865461294 ) ) ;
#73 =( LENGTH_UNIT ( ) NAMED_UNIT ( * ) SI_UNIT ( $, .METRE. ) );
#74 = CARTESIAN_POINT ( 'NONE',  ( 0.0000000000000000000, 0.0000000000000000000, 1.707404996040164512E-17 ) ) ;
#75 = DIRECTION ( 'NONE',  ( -0.0000000000000000000, -0.0000000000000000000, -1.000000000000000000 ) ) ;
#76 = ORIENTED_EDGE ( 'NONE', *, *, #93, .F. ) ;
#77 = AXIS2_PLACEMENT_3D ( 'NONE', #317, #29, #184 ) ;
#78 =( LENGTH_UNIT ( ) NAMED_UNIT ( * ) SI_UNIT ( $, .METRE. ) );
#79 = VERTEX_POINT ( 'NONE', #38 ) ;
#80 = EDGE_LOOP ( 'NONE', ( #257, #52, #201, #134 ) ) ;
#81 = SURFACE_STYLE_USAGE ( .BOTH. , #106 ) ;
#82 = ORIENTED_EDGE ( 'NONE', *, *, #266, .T. ) ;
#83 = AXIS2_PLACEMENT_3D ( 'NONE', #1, #193, #224 ) ;
#84 = VERTEX_POINT ( 'NONE', #239 ) ;
#85 = DIRECTION ( 'NONE',  ( 0.0000000000000000000, 0.0000000000000000000, 1.000000000000000000 ) ) ;
#86 = CYLINDRICAL_SURFACE ( 'NONE', #42, 0.1562500000000000000 ) ;
#87 = VECTOR ( 'NONE', #144, 39.37007874015748143 ) ;
#88 = AXIS2_PLACEMENT_3D ( 'NONE', #74, #41, #23 ) ;
#89 = CARTESIAN_POINT ( 'NONE',  ( 0.1412499999999994871, 1.729813603795630110E-17, 2.500000000000000000 ) ) ;
#90 = DIRECTION ( 'NONE',  ( -0.0000000000000000000, -0.0000000000000000000, -1.000000000000000000 ) ) ;
#91 = CARTESIAN_POINT ( 'NONE',  ( 0.0000000000000000000, 0.0000000000000000000, 0.8129999999999999449 ) ) ;
#92 = DIRECTION ( 'NONE',  ( -1.000000000000000000, 0.0000000000000000000, 0.0000000000000000000 ) ) ;
#93 = EDGE_CURVE ( 'NONE', #250, #223, #70, .T. ) ;
#94 = DIRECTION ( 'NONE',  ( 1.000000000000000000, 0.0000000000000000000, 0.0000000000000000000 ) ) ;
#95 = CARTESIAN_POINT ( 'NONE',  ( 0.1562000000000000333, 1.912898300268165973E-17, 0.0000000000000000000 ) ) ;
#96 = CIRCLE ( 'NONE', #115, 0.1562000000000000888 ) ;
#97 = EDGE_CURVE ( 'NONE', #7, #4, #16, .T. ) ;
#98 = EDGE_LOOP ( 'NONE', ( #131, #234 ) ) ;
#99 = CARTESIAN_POINT ( 'NONE',  ( -0.007499999999999999722, 9.184850993605147975E-19, 1.707404996040164512E-17 ) ) ;
#100 = ORIENTED_EDGE ( 'NONE', *, *, #107, .F. ) ;
#101 = EDGE_CURVE ( 'NONE', #4, #45, #112, .T. ) ;
#102 =( CONVERSION_BASED_UNIT ( 'INCH', #151 ) LENGTH_UNIT ( ) NAMED_UNIT ( #12 ) );
#103 = FACE_OUTER_BOUND ( 'NONE', #181, .T. ) ;
#104 =( NAMED_UNIT ( * ) SI_UNIT ( $, .STERADIAN. ) SOLID_ANGLE_UNIT ( ) );
#105 = DIRECTION ( 'NONE',  ( -0.0000000000000000000, -0.0000000000000000000, -1.000000000000000000 ) ) ;
#106 = SURFACE_SIDE_STYLE ('',( #253 ) ) ;
#107 = EDGE_CURVE ( 'NONE', #27, #206, #245, .T. ) ;
#108 = ORIENTED_EDGE ( 'NONE', *, *, #69, .T. ) ;
#109 = ORIENTED_EDGE ( 'NONE', *, *, #22, .F. ) ;
#110 = AXIS2_PLACEMENT_3D ( 'NONE', #271, #90, #13 ) ;
#111 = CARTESIAN_POINT ( 'NONE',  ( 0.0000000000000000000, 0.0000000000000000000, 0.1486999999999994160 ) ) ;
#112 = LINE ( 'NONE', #244, #87 ) ;
#113 = SHAPE_DEFINITION_REPRESENTATION ( #143, #286 ) ;
#114 = CARTESIAN_POINT ( 'NONE',  ( 0.0000000000000000000, 0.0000000000000000000, 0.8129999999999997229 ) ) ;
#115 = AXIS2_PLACEMENT_3D ( 'NONE', #91, #326, #92 ) ;
#116 = CONICAL_SURFACE ( 'NONE', #237, 0.007499999999999999722, 0.7853981633974502774 ) ;
#117 = DIRECTION ( 'NONE',  ( -1.000000000000000000, 0.0000000000000000000, 0.0000000000000000000 ) ) ;
#118 = FACE_OUTER_BOUND ( 'NONE', #59, .T. ) ;
#119 = ADVANCED_FACE ( 'NONE', ( #265 ), #241, .T. ) ;
#120 = CARTESIAN_POINT ( 'NONE',  ( 0.1562500000000000000, 1.913510623667739463E-17, 2.484999999999999432 ) ) ;
#121 = DIRECTION ( 'NONE',  ( -1.000000000000000000, 0.0000000000000000000, 0.0000000000000000000 ) ) ;
#122 = SURFACE_SIDE_STYLE ('',( #40 ) ) ;
#123 = LENGTH_MEASURE_WITH_UNIT ( LENGTH_MEASURE( 0.02539999999999999897 ), #73 );
#124 = ORIENTED_EDGE ( 'NONE', *, *, #218, .T. ) ;
#125 = SURFACE_STYLE_USAGE ( .BOTH. , #122 ) ;
#126 = ORIENTED_EDGE ( 'NONE', *, *, #97, .F. ) ;
#127 =( GEOMETRIC_REPRESENTATION_CONTEXT ( 3 ) GLOBAL_UNCERTAINTY_ASSIGNED_CONTEXT ( ( #278 ) ) GLOBAL_UNIT_ASSIGNED_CONTEXT ( ( #102, #154, #235 ) ) REPRESENTATION_CONTEXT ( 'NONE', 'WORKASPACE' ) );
#128 = CARTESIAN_POINT ( 'NONE',  ( 0.1562500000000000000, 1.913510623667739463E-17, 0.8129999999999997229 ) ) ;
#129 = ORIENTED_EDGE ( 'NONE', *, *, #175, .F. ) ;
#130 = VERTEX_POINT ( 'NONE', #63 ) ;
#131 = ORIENTED_EDGE ( 'NONE', *, *, #297, .T. ) ;
#132 = VECTOR ( 'NONE', #299, 39.37007874015748854 ) ;
#133 = PRODUCT_CONTEXT ( 'NONE', #169, 'mechanical' ) ;
#134 = ORIENTED_EDGE ( 'NONE', *, *, #211, .F. ) ;
#135 = ORIENTED_EDGE ( 'NONE', *, *, #165, .F. ) ;
#136 = ORIENTED_EDGE ( 'NONE', *, *, #297, .F. ) ;
#137 = PRESENTATION_LAYER_ASSIGNMENT (  '', '', ( #10 ) ) ;
#138 = FACE_OUTER_BOUND ( 'NONE', #220, .T. ) ;
#139 = FACE_BOUND ( 'NONE', #314, .T. ) ;
#140 = FACE_OUTER_BOUND ( 'NONE', #148, .T. ) ;
#141 = MECHANICAL_DESIGN_GEOMETRIC_PRESENTATION_REPRESENTATION (  '', ( #242 ), #315 ) ;
#142 = DIRECTION ( 'NONE',  ( -0.0000000000000000000, -0.0000000000000000000, -1.000000000000000000 ) ) ;
#143 = PRODUCT_DEFINITION_SHAPE ( 'NONE', 'NONE',  #261 ) ;
#144 = DIRECTION ( 'NONE',  ( 0.7071067811865489050, 0.0000000000000000000, 0.7071067811865461294 ) ) ;
#145 =( NAMED_UNIT ( * ) SI_UNIT ( $, .STERADIAN. ) SOLID_ANGLE_UNIT ( ) );
#146 = VECTOR ( 'NONE', #267, 39.37007874015748143 ) ;
#147 = FACE_OUTER_BOUND ( 'NONE', #48, .T. ) ;
#148 = EDGE_LOOP ( 'NONE', ( #11, #136, #24, #30 ) ) ;
#149 = DIRECTION ( 'NONE',  ( 0.0000000000000000000, 0.0000000000000000000, -1.000000000000000000 ) ) ;
#150 = PRESENTATION_LAYER_ASSIGNMENT (  '', '', ( #242 ) ) ;
#151 = LENGTH_MEASURE_WITH_UNIT ( LENGTH_MEASURE( 0.02539999999999999897 ), #282 );
#152 = DIRECTION ( 'NONE',  ( 1.000000000000000000, 0.0000000000000000000, 0.0000000000000000000 ) ) ;
#153 = ORIENTED_EDGE ( 'NONE', *, *, #249, .T. ) ;
#154 =( NAMED_UNIT ( * ) PLANE_ANGLE_UNIT ( ) SI_UNIT ( $, .RADIAN. ) );
#155 = ORIENTED_EDGE ( 'NONE', *, *, #107, .T. ) ;
#156 = VECTOR ( 'NONE', #212, 39.37007874015748143 ) ;
#157 = ADVANCED_FACE ( 'NONE', ( #298 ), #166, .T. ) ;
#158 =( NAMED_UNIT ( * ) PLANE_ANGLE_UNIT ( ) SI_UNIT ( $, .RADIAN. ) );
#159 = ORIENTED_EDGE ( 'NONE', *, *, #288, .F. ) ;
#160 = ORIENTED_EDGE ( 'NONE', *, *, #37, .F. ) ;
#161 = ADVANCED_FACE ( 'NONE', ( #167 ), #295, .F. ) ;
#162 = DIRECTION ( 'NONE',  ( 0.0000000000000000000, 0.0000000000000000000, 1.000000000000000000 ) ) ;
#163 = CIRCLE ( 'NONE', #320, 0.1562500000000000000 ) ;
#164 = DIRECTION ( 'NONE',  ( 0.0000000000000000000, 0.0000000000000000000, 1.000000000000000000 ) ) ;
#165 = EDGE_CURVE ( 'NONE', #223, #250, #163, .T. ) ;
#166 = CYLINDRICAL_SURFACE ( 'NONE', #221, 0.1562000000000000333 ) ;
#167 = FACE_OUTER_BOUND ( 'NONE', #98, .T. ) ;
#168 = DIRECTION ( 'NONE',  ( -1.000000000000000000, 0.0000000000000000000, 0.0000000000000000000 ) ) ;
#169 = APPLICATION_CONTEXT ( 'automotive_design' ) ;
#170 = LINE ( 'NONE', #276, #229 ) ;
#171 = AXIS2_PLACEMENT_3D ( 'NONE', #68, #164, #264 ) ;
#172 = CIRCLE ( 'NONE', #305, 0.1562000000000000888 ) ;
#173 = CYLINDRICAL_SURFACE ( 'NONE', #269, 0.1562500000000000000 ) ;
#174 = ORIENTED_EDGE ( 'NONE', *, *, #249, .F. ) ;
#175 = EDGE_CURVE ( 'NONE', #79, #262, #240, .T. ) ;
#176 = DIRECTION ( 'NONE',  ( 1.000000000000000000, 0.0000000000000000000, 0.0000000000000000000 ) ) ;
#177 = FILL_AREA_STYLE ('',( #51 ) ) ;
#178 = LENGTH_MEASURE_WITH_UNIT ( LENGTH_MEASURE( 0.02539999999999999897 ), #78 );
#179 = ORIENTED_EDGE ( 'NONE', *, *, #283, .T. ) ;
#180 = ORIENTED_EDGE ( 'NONE', *, *, #46, .T. ) ;
#181 = EDGE_LOOP ( 'NONE', ( #100, #109, #226, #204 ) ) ;
#182 = CONICAL_SURFACE ( 'NONE', #215, 0.1412499999999994871, 0.7853981633974391752 ) ;
#183 = PRODUCT_RELATED_PRODUCT_CATEGORY ( 'part', '', ( #247 ) ) ;
#184 = DIRECTION ( 'NONE',  ( 1.000000000000000000, 0.0000000000000000000, 0.0000000000000000000 ) ) ;
#185 = ADVANCED_FACE ( 'NONE', ( #140 ), #5, .T. ) ;
#186 = ORIENTED_EDGE ( 'NONE', *, *, #218, .F. ) ;
#187 = DIRECTION ( 'NONE',  ( -1.000000000000000000, 0.0000000000000000000, 0.0000000000000000000 ) ) ;
#188 = DIRECTION ( 'NONE',  ( 1.000000000000000000, 0.0000000000000000000, 0.0000000000000000000 ) ) ;
#189 = DIRECTION ( 'NONE',  ( -0.0000000000000000000, -0.0000000000000000000, -1.000000000000000000 ) ) ;
#190 = CARTESIAN_POINT ( 'NONE',  ( 0.0000000000000000000, 0.0000000000000000000, 1.707404996040164512E-17 ) ) ;
#191 = CARTESIAN_POINT ( 'NONE',  ( 0.0000000000000000000, 0.0000000000000000000, 0.8129999999999999449 ) ) ;
#192 = FACE_OUTER_BOUND ( 'NONE', #80, .T. ) ;
#193 = DIRECTION ( 'NONE',  ( 0.0000000000000000000, 0.0000000000000000000, -1.000000000000000000 ) ) ;
#194 = LINE ( 'NONE', #95, #43 ) ;
#195 = CARTESIAN_POINT ( 'NONE',  ( 0.0000000000000000000, 0.0000000000000000000, 2.500000000000000000 ) ) ;
#196 = EDGE_LOOP ( 'NONE', ( #126, #179, #275, #199 ) ) ;
#197 = CIRCLE ( 'NONE', #273, 0.1562000000000000055 ) ;
#198 = APPLICATION_PROTOCOL_DEFINITION ( 'draft international standard', 'automotive_design', 1998, #169 ) ;
#199 = ORIENTED_EDGE ( 'NONE', *, *, #101, .F. ) ;
#200 = CLOSED_SHELL ( 'NONE', ( #157, #270, #308, #60, #243, #119, #14, #203, #185, #231, #161 ) ) ;
#201 = ORIENTED_EDGE ( 'NONE', *, *, #175, .T. ) ;
#202 = PRESENTATION_STYLE_ASSIGNMENT (( #81 ) ) ;
#203 = ADVANCED_FACE ( 'NONE', ( #139, #118 ), #39, .T. ) ;
#204 = ORIENTED_EDGE ( 'NONE', *, *, #266, .F. ) ;
#205 = AXIS2_PLACEMENT_3D ( 'NONE', #55, #85, #152 ) ;
#206 = VERTEX_POINT ( 'NONE', #120 ) ;
#207 = DIRECTION ( 'NONE',  ( -0.0000000000000000000, -0.0000000000000000000, -1.000000000000000000 ) ) ;
#208 = APPLICATION_PROTOCOL_DEFINITION ( 'draft international standard', 'automotive_design', 1998, #259 ) ;
#209 = CARTESIAN_POINT ( 'NONE',  ( 0.0000000000000000000, 0.0000000000000000000, 2.500000000000000000 ) ) ;
#210 = AXIS2_PLACEMENT_3D ( 'NONE', #44, #302, #94 ) ;
#211 = EDGE_CURVE ( 'NONE', #45, #262, #57, .T. ) ;
#212 = DIRECTION ( 'NONE',  ( -0.0000000000000000000, -0.0000000000000000000, -1.000000000000000000 ) ) ;
#213 = DIRECTION ( 'NONE',  ( -0.0000000000000000000, -0.0000000000000000000, -1.000000000000000000 ) ) ;
#214 = CARTESIAN_POINT ( 'NONE',  ( 0.0000000000000000000, 0.0000000000000000000, 0.1486999999999994160 ) ) ;
#215 = AXIS2_PLACEMENT_3D ( 'NONE', #230, #6, #62 ) ;
#216 =( GEOMETRIC_REPRESENTATION_CONTEXT ( 3 ) GLOBAL_UNCERTAINTY_ASSIGNED_CONTEXT ( ( #252 ) ) GLOBAL_UNIT_ASSIGNED_CONTEXT ( ( #284, #158, #104 ) ) REPRESENTATION_CONTEXT ( 'NONE', 'WORKASPACE' ) );
#217 = CARTESIAN_POINT ( 'NONE',  ( -0.1562000000000000055, 1.912898300268165665E-17, 0.1486999999999994160 ) ) ;
#218 = EDGE_CURVE ( 'NONE', #79, #255, #96, .T. ) ;
#219 = DIRECTION ( 'NONE',  ( -0.0000000000000000000, -0.0000000000000000000, -1.000000000000000000 ) ) ;
#220 = EDGE_LOOP ( 'NONE', ( #153, #108, #76, #307 ) ) ;
#221 = AXIS2_PLACEMENT_3D ( 'NONE', #71, #207, #187 ) ;
#222 = DIRECTION ( 'NONE',  ( 1.000000000000000000, 0.0000000000000000000, 0.0000000000000000000 ) ) ;
#223 = VERTEX_POINT ( 'NONE', #128 ) ;
#224 = DIRECTION ( 'NONE',  ( -1.000000000000000000, 0.0000000000000000000, 0.0000000000000000000 ) ) ;
#225 = ORIENTED_EDGE ( 'NONE', *, *, #325, .F. ) ;
#226 = ORIENTED_EDGE ( 'NONE', *, *, #288, .T. ) ;
#227 = AXIS2_PLACEMENT_3D ( 'NONE', #114, #142, #67 ) ;
#228 = MANIFOLD_SOLID_BREP ( 'Cut-Revolve4', #200 ) ;
#229 = VECTOR ( 'NONE', #272, 39.37007874015748854 ) ;
#230 = CARTESIAN_POINT ( 'NONE',  ( 0.0000000000000000000, 0.0000000000000000000, 2.500000000000000000 ) ) ;
#231 = ADVANCED_FACE ( 'NONE', ( #192 ), #328, .T. ) ;
#232 = ORIENTED_EDGE ( 'NONE', *, *, #233, .T. ) ;
#233 = EDGE_CURVE ( 'NONE', #255, #45, #194, .T. ) ;
#234 = ORIENTED_EDGE ( 'NONE', *, *, #97, .T. ) ;
#235 =( NAMED_UNIT ( * ) SI_UNIT ( $, .STERADIAN. ) SOLID_ANGLE_UNIT ( ) );
#236 = ORIENTED_EDGE ( 'NONE', *, *, #165, .T. ) ;
#237 = AXIS2_PLACEMENT_3D ( 'NONE', #327, #303, #176 ) ;
#238 = DIMENSIONAL_EXPONENTS ( 1.000000000000000000, 0.0000000000000000000, 0.0000000000000000000, 0.0000000000000000000, 0.0000000000000000000, 0.0000000000000000000, 0.0000000000000000000 ) ;
#239 = CARTESIAN_POINT ( 'NONE',  ( -0.1412499999999994871, 0.0000000000000000000, 2.500000000000000000 ) ) ;
#240 = LINE ( 'NONE', #321, #156 ) ;
#241 = PLANE ( 'NONE',  #280 ) ;
#242 = STYLED_ITEM ( 'NONE', ( #274 ), #228 ) ;
#243 = ADVANCED_FACE ( 'NONE', ( #306 ), #173, .T. ) ;
#244 = CARTESIAN_POINT ( 'NONE',  ( 0.007499999999999999722, 0.0000000000000000000, 1.707404996040164512E-17 ) ) ;
#245 = LINE ( 'NONE', #89, #132 ) ;
#246 =( CONVERSION_BASED_UNIT ( 'INCH', #123 ) LENGTH_UNIT ( ) NAMED_UNIT ( #238 ) );
#247 = PRODUCT ( 'Micro_DM-312-290', 'Micro_DM-312-290', '', ( #133 ) ) ;
#248 = FILL_AREA_STYLE_COLOUR ( '', #300 ) ;
#249 = EDGE_CURVE ( 'NONE', #130, #206, #25, .T. ) ;
#250 = VERTEX_POINT ( 'NONE', #251 ) ;
#251 = CARTESIAN_POINT ( 'NONE',  ( -0.1562500000000000000, 0.0000000000000000000, 0.8129999999999997229 ) ) ;
#252 = UNCERTAINTY_MEASURE_WITH_UNIT (LENGTH_MEASURE( 1.000000000000000082E-05 ), #284, 'distance_accuracy_value', 'NONE');
#253 = SURFACE_STYLE_FILL_AREA ( #177 ) ;
#254 = ORIENTED_EDGE ( 'NONE', *, *, #22, .T. ) ;
#255 = VERTEX_POINT ( 'NONE', #47 ) ;
#256 = AXIS2_PLACEMENT_3D ( 'NONE', #214, #213, #324 ) ;
#257 = ORIENTED_EDGE ( 'NONE', *, *, #233, .F. ) ;
#258 = ORIENTED_EDGE ( 'NONE', *, *, #93, .T. ) ;
#259 = APPLICATION_CONTEXT ( 'automotive_design' ) ;
#260 = DIRECTION ( 'NONE',  ( 0.0000000000000000000, 0.0000000000000000000, 1.000000000000000000 ) ) ;
#261 = PRODUCT_DEFINITION ( 'UNKNOWN', '', #301, #3 ) ;
#262 = VERTEX_POINT ( 'NONE', #217 ) ;
#263 = VECTOR ( 'NONE', #189, 39.37007874015748143 ) ;
#264 = DIRECTION ( 'NONE',  ( 1.000000000000000000, 0.0000000000000000000, -0.0000000000000000000 ) ) ;
#265 = FACE_OUTER_BOUND ( 'NONE', #32, .T. ) ;
#266 = EDGE_CURVE ( 'NONE', #206, #130, #322, .T. ) ;
#267 = DIRECTION ( 'NONE',  ( -0.0000000000000000000, -0.0000000000000000000, -1.000000000000000000 ) ) ;
#268 = AXIS2_PLACEMENT_3D ( 'NONE', #190, #19, #188 ) ;
#269 = AXIS2_PLACEMENT_3D ( 'NONE', #195, #21, #121 ) ;
#270 = ADVANCED_FACE ( 'NONE', ( #2 ), #116, .T. ) ;
#271 = CARTESIAN_POINT ( 'NONE',  ( 0.0000000000000000000, 0.0000000000000000000, 1.707404996040164512E-17 ) ) ;
#272 = DIRECTION ( 'NONE',  ( -0.7071067811865410224, 0.0000000000000000000, -0.7071067811865539010 ) ) ;
#273 = AXIS2_PLACEMENT_3D ( 'NONE', #111, #105, #318 ) ;
#274 = PRESENTATION_STYLE_ASSIGNMENT (( #125 ) ) ;
#275 = ORIENTED_EDGE ( 'NONE', *, *, #37, .T. ) ;
#276 = CARTESIAN_POINT ( 'NONE',  ( -0.1412499999999994871, 0.0000000000000000000, 2.500000000000000000 ) ) ;
#277 = EDGE_LOOP ( 'NONE', ( #287, #82, #285, #135 ) ) ;
#278 = UNCERTAINTY_MEASURE_WITH_UNIT (LENGTH_MEASURE( 1.000000000000000082E-05 ), #102, 'distance_accuracy_value', 'NONE');
#279 = LINE ( 'NONE', #99, #289 ) ;
#280 = AXIS2_PLACEMENT_3D ( 'NONE', #209, #162, #323 ) ;
#281 = AXIS2_PLACEMENT_3D ( 'NONE', #61, #260, #31 ) ;
#282 =( LENGTH_UNIT ( ) NAMED_UNIT ( * ) SI_UNIT ( $, .METRE. ) );
#283 = EDGE_CURVE ( 'NONE', #7, #262, #279, .T. ) ;
#284 =( CONVERSION_BASED_UNIT ( 'INCH', #178 ) LENGTH_UNIT ( ) NAMED_UNIT ( #292 ) );
#285 = ORIENTED_EDGE ( 'NONE', *, *, #56, .T. ) ;
#286 = ADVANCED_BREP_SHAPE_REPRESENTATION ( 'Micro_DM-312-290', ( #228, #281 ), #127 ) ;
#287 = ORIENTED_EDGE ( 'NONE', *, *, #69, .F. ) ;
#288 = EDGE_CURVE ( 'NONE', #84, #130, #170, .T. ) ;
#289 = VECTOR ( 'NONE', #72, 39.37007874015748143 ) ;
#290 = ORIENTED_EDGE ( 'NONE', *, *, #46, .F. ) ;
#291 = CARTESIAN_POINT ( 'NONE',  ( 0.1412499999999994871, 1.821662113731684786E-17, 2.500000000000000000 ) ) ;
#292 = DIMENSIONAL_EXPONENTS ( 1.000000000000000000, 0.0000000000000000000, 0.0000000000000000000, 0.0000000000000000000, 0.0000000000000000000, 0.0000000000000000000, 0.0000000000000000000 ) ;
#293 = LINE ( 'NONE', #66, #263 ) ;
#294 = CIRCLE ( 'NONE', #205, 0.1412499999999994871 ) ;
#295 = PLANE ( 'NONE',  #171 ) ;
#296 = DIRECTION ( 'NONE',  ( -0.0000000000000000000, 0.0000000000000000000, -1.000000000000000000 ) ) ;
#297 = EDGE_CURVE ( 'NONE', #4, #7, #65, .T. ) ;
#298 = FACE_OUTER_BOUND ( 'NONE', #53, .T. ) ;
#299 = DIRECTION ( 'NONE',  ( 0.7071067811865410224, 8.659560562354852739E-17, -0.7071067811865539010 ) ) ;
#300 = COLOUR_RGB ( '',0.7921568627450980005, 0.8196078431372548767, 0.9333333333333333481 ) ;
#301 = PRODUCT_DEFINITION_FORMATION_WITH_SPECIFIED_SOURCE ( 'ANY', '', #247, .NOT_KNOWN. ) ;
#302 = DIRECTION ( 'NONE',  ( 0.0000000000000000000, 0.0000000000000000000, -1.000000000000000000 ) ) ;
#303 = DIRECTION ( 'NONE',  ( 0.0000000000000000000, 0.0000000000000000000, 1.000000000000000000 ) ) ;
#304 = DIRECTION ( 'NONE',  ( -1.000000000000000000, 0.0000000000000000000, 0.0000000000000000000 ) ) ;
#305 = AXIS2_PLACEMENT_3D ( 'NONE', #191, #8, #310 ) ;
#306 = FACE_OUTER_BOUND ( 'NONE', #277, .T. ) ;
#307 = ORIENTED_EDGE ( 'NONE', *, *, #56, .F. ) ;
#308 = ADVANCED_FACE ( 'NONE', ( #147 ), #18, .T. ) ;
#309 = CARTESIAN_POINT ( 'NONE',  ( 0.0000000000000000000, 0.0000000000000000000, 2.484999999999999432 ) ) ;
#310 = DIRECTION ( 'NONE',  ( -1.000000000000000000, 0.0000000000000000000, 0.0000000000000000000 ) ) ;
#311 = CIRCLE ( 'NONE', #77, 0.1412499999999994871 ) ;
#312 = LINE ( 'NONE', #34, #146 ) ;
#313 = CARTESIAN_POINT ( 'NONE',  ( 0.1562000000000000055, 0.0000000000000000000, 0.1486999999999994160 ) ) ;
#314 = EDGE_LOOP ( 'NONE', ( #186, #225 ) ) ;
#315 =( GEOMETRIC_REPRESENTATION_CONTEXT ( 3 ) GLOBAL_UNCERTAINTY_ASSIGNED_CONTEXT ( ( #54 ) ) GLOBAL_UNIT_ASSIGNED_CONTEXT ( ( #246, #26, #145 ) ) REPRESENTATION_CONTEXT ( 'NONE', 'WORKASPACE' ) );
#316 = AXIS2_PLACEMENT_3D ( 'NONE', #309, #149, #222 ) ;
#317 = CARTESIAN_POINT ( 'NONE',  ( 0.0000000000000000000, 0.0000000000000000000, 2.500000000000000000 ) ) ;
#318 = DIRECTION ( 'NONE',  ( -1.000000000000000000, 0.0000000000000000000, 0.0000000000000000000 ) ) ;
#319 = CARTESIAN_POINT ( 'NONE',  ( 0.0000000000000000000, 0.0000000000000000000, 2.500000000000000000 ) ) ;
#320 = AXIS2_PLACEMENT_3D ( 'NONE', #35, #17, #117 ) ;
#321 = CARTESIAN_POINT ( 'NONE',  ( -0.1562000000000000333, 0.0000000000000000000, 0.0000000000000000000 ) ) ;
#322 = CIRCLE ( 'NONE', #210, 0.1562500000000000000 ) ;
#323 = DIRECTION ( 'NONE',  ( 1.000000000000000000, 0.0000000000000000000, -0.0000000000000000000 ) ) ;
#324 = DIRECTION ( 'NONE',  ( -1.000000000000000000, 0.0000000000000000000, 0.0000000000000000000 ) ) ;
#325 = EDGE_CURVE ( 'NONE', #255, #79, #172, .T. ) ;
#326 = DIRECTION ( 'NONE',  ( -0.0000000000000000000, -0.0000000000000000000, -1.000000000000000000 ) ) ;
#327 = CARTESIAN_POINT ( 'NONE',  ( 0.0000000000000000000, 0.0000000000000000000, 1.707404996040164512E-17 ) ) ;
#328 = CYLINDRICAL_SURFACE ( 'NONE', #33, 0.1562000000000000333 ) ;
#329 = CARTESIAN_POINT ( 'NONE',  ( 0.0000000000000000000, 0.0000000000000000000, 0.0000000000000000000 ) ) ;
ENDSEC;
END-ISO-10303-21;
