ISO-10303-21;
HEADER;
FILE_DESCRIPTION (( 'STEP AP214' ),
    '1' );
FILE_NAME ('59734.STEP',
    '2023-07-24T15:30:41',
    ( '' ),
    ( '' ),
    'SwSTEP 2.0',
    'SolidWorks 2023',
    '' );
FILE_SCHEMA (( 'AUTOMOTIVE_DESIGN' ));
ENDSEC;

DATA;
#1 = DIRECTION ( 'NONE',  ( 5.682149050294907483E-17, -1.000000000000000000, 0.000000000000000000 ) ) ;
#2 = FACE_OUTER_BOUND ( 'NONE', #208, .T. ) ;
#3 = MECHANICAL_DESIGN_GEOMETRIC_PRESENTATION_REPRESENTATION (  '', ( #185 ), #74 ) ;
#4 = PRESENTATION_STYLE_ASSIGNMENT (( #34 ) ) ;
#5 = CARTESIAN_POINT ( 'NONE',  ( 0.000000000000000000, 16.00000000000000000, 0.000000000000000000 ) ) ;
#6 = ADVANCED_FACE ( 'NONE', ( #220 ), #348, .T. ) ;
#7 = PRESENTATION_STYLE_ASSIGNMENT (( #60 ) ) ;
#8 = EDGE_LOOP ( 'NONE', ( #291, #332 ) ) ;
#9 = UNCERTAINTY_MEASURE_WITH_UNIT (LENGTH_MEASURE( 1.000000000000000082E-05 ), #284, 'distance_accuracy_value', 'NONE');
#10 = COLOUR_RGB ( '',1.000000000000000000, 0.000000000000000000, 0.000000000000000000 ) ;
#11 = AXIS2_PLACEMENT_3D ( 'NONE', #50, #82, #80 ) ;
#12 = SURFACE_STYLE_FILL_AREA ( #318 ) ;
#13 = DIRECTION ( 'NONE',  ( 1.000000000000000000, 0.000000000000000000, -1.224646799147353207E-16 ) ) ;
#14 = DIRECTION ( 'NONE',  ( -5.682149050294907483E-17, 1.000000000000000000, -0.000000000000000000 ) ) ;
#15 = ORIENTED_EDGE ( 'NONE', *, *, #139, .T. ) ;
#16 =( NAMED_UNIT ( * ) SI_UNIT ( $, .STERADIAN. ) SOLID_ANGLE_UNIT ( ) );
#17 = EDGE_CURVE ( 'NONE', #356, #325, #221, .T. ) ;
#18 = DIRECTION ( 'NONE',  ( 0.000000000000000000, -1.000000000000000000, -0.000000000000000000 ) ) ;
#19 = FACE_OUTER_BOUND ( 'NONE', #225, .T. ) ;
#20 = FILL_AREA_STYLE_COLOUR ( '', #10 ) ;
#21 = TOROIDAL_SURFACE ( 'NONE', #247, 3.500000000000000000, 0.5000000000000000000 ) ;
#22 = SURFACE_STYLE_FILL_AREA ( #279 ) ;
#23 = FILL_AREA_STYLE_COLOUR ( '', #209 ) ;
#24 = APPLICATION_PROTOCOL_DEFINITION ( 'draft international standard', 'automotive_design', 1998, #218 ) ;
#25 = DIRECTION ( 'NONE',  ( -5.682149050294907483E-17, 1.000000000000000000, -0.000000000000000000 ) ) ;
#26 = PRODUCT_DEFINITION_FORMATION_WITH_SPECIFIED_SOURCE ( 'ANY', '', #93, .NOT_KNOWN. ) ;
#27 = CARTESIAN_POINT ( 'NONE',  ( 3.184081677783117402E-15, 63.00000000000000000, 0.000000000000000000 ) ) ;
#28 = DIRECTION ( 'NONE',  ( -0.000000000000000000, -1.000000000000000000, -0.000000000000000000 ) ) ;
#29 = DIRECTION ( 'NONE',  ( 0.000000000000000000, 0.000000000000000000, -1.000000000000000000 ) ) ;
#30 = LINE ( 'NONE', #87, #202 ) ;
#31 = EDGE_CURVE ( 'NONE', #354, #223, #147, .T. ) ;
#32 = STYLED_ITEM ( 'NONE', ( #7 ), #224 ) ;
#33 = CARTESIAN_POINT ( 'NONE',  ( 0.000000000000000000, 0.000000000000000000, 0.000000000000000000 ) ) ;
#34 = SURFACE_STYLE_USAGE ( .BOTH. , #260 ) ;
#35 = CARTESIAN_POINT ( 'NONE',  ( 4.000000000000000000, 63.00000000000000000, 4.898587196589407898E-16 ) ) ;
#36 = COLOUR_RGB ( '',1.000000000000000000, 0.000000000000000000, 0.000000000000000000 ) ;
#37 = CARTESIAN_POINT ( 'NONE',  ( 0.000000000000000000, 0.000000000000000000, 0.000000000000000000 ) ) ;
#38 =( NAMED_UNIT ( * ) PLANE_ANGLE_UNIT ( ) SI_UNIT ( $, .RADIAN. ) );
#39 = CARTESIAN_POINT ( 'NONE',  ( 0.000000000000000000, 16.00000000000000000, -4.000000000000000000 ) ) ;
#40 = ORIENTED_EDGE ( 'NONE', *, *, #177, .T. ) ;
#41 = DIRECTION ( 'NONE',  ( -0.000000000000000000, -1.000000000000000000, -0.000000000000000000 ) ) ;
#42 = AXIS2_PLACEMENT_3D ( 'NONE', #195, #311, #343 ) ;
#43 = PRODUCT_DEFINITION ( 'UNKNOWN', '', #26, #88 ) ;
#44 =( NAMED_UNIT ( * ) PLANE_ANGLE_UNIT ( ) SI_UNIT ( $, .RADIAN. ) );
#45 = ORIENTED_EDGE ( 'NONE', *, *, #171, .T. ) ;
#46 = EDGE_CURVE ( 'NONE', #124, #354, #104, .T. ) ;
#47 = DIRECTION ( 'NONE',  ( -0.000000000000000000, -1.000000000000000000, -0.000000000000000000 ) ) ;
#48 = CIRCLE ( 'NONE', #160, 4.000000000000000000 ) ;
#49 = PRODUCT_CONTEXT ( 'NONE', #196, 'mechanical' ) ;
#50 = CARTESIAN_POINT ( 'NONE',  ( 3.184081677783117402E-15, 63.00000000000000000, 0.000000000000000000 ) ) ;
#51 = CARTESIAN_POINT ( 'NONE',  ( 4.000000000000000000, 63.00000000000000000, 0.000000000000000000 ) ) ;
#52 = ADVANCED_FACE ( 'NONE', ( #256 ), #370, .F. ) ;
#53 = FACE_OUTER_BOUND ( 'NONE', #241, .T. ) ;
#54 = CARTESIAN_POINT ( 'NONE',  ( 5.854691731421723944E-15, 16.00000000000000000, 0.000000000000000000 ) ) ;
#55 = AXIS2_PLACEMENT_3D ( 'NONE', #198, #137, #306 ) ;
#56 = AXIS2_PLACEMENT_3D ( 'NONE', #27, #25, #281 ) ;
#57 = AXIS2_PLACEMENT_3D ( 'NONE', #363, #312, #302 ) ;
#58 = UNCERTAINTY_MEASURE_WITH_UNIT (LENGTH_MEASURE( 1.000000000000000082E-05 ), #280, 'distance_accuracy_value', 'NONE');
#59 = SHAPE_DEFINITION_REPRESENTATION ( #268, #96 ) ;
#60 = SURFACE_STYLE_USAGE ( .BOTH. , #65 ) ;
#61 = DIRECTION ( 'NONE',  ( 0.000000000000000000, 0.000000000000000000, -1.000000000000000000 ) ) ;
#62 = CLOSED_SHELL ( 'NONE', ( #149, #334, #271, #52 ) ) ;
#63 =( GEOMETRIC_REPRESENTATION_CONTEXT ( 3 ) GLOBAL_UNCERTAINTY_ASSIGNED_CONTEXT ( ( #342 ) ) GLOBAL_UNIT_ASSIGNED_CONTEXT ( ( #315, #204, #169 ) ) REPRESENTATION_CONTEXT ( 'NONE', 'WORKASPACE' ) );
#64 = MECHANICAL_DESIGN_GEOMETRIC_PRESENTATION_REPRESENTATION (  '', ( #264 ), #194 ) ;
#65 = SURFACE_SIDE_STYLE ('',( #12 ) ) ;
#66 = ORIENTED_EDGE ( 'NONE', *, *, #246, .F. ) ;
#67 = UNCERTAINTY_MEASURE_WITH_UNIT (LENGTH_MEASURE( 1.000000000000000082E-05 ), #301, 'distance_accuracy_value', 'NONE');
#68 = FILL_AREA_STYLE_COLOUR ( '', #360 ) ;
#69 = PRESENTATION_LAYER_ASSIGNMENT (  '', '', ( #185 ) ) ;
#70 = SURFACE_SIDE_STYLE ('',( #265 ) ) ;
#71 = EDGE_LOOP ( 'NONE', ( #245, #190, #154, #362 ) ) ;
#72 = SURFACE_STYLE_FILL_AREA ( #128 ) ;
#73 = FILL_AREA_STYLE_COLOUR ( '', #138 ) ;
#74 =( GEOMETRIC_REPRESENTATION_CONTEXT ( 3 ) GLOBAL_UNCERTAINTY_ASSIGNED_CONTEXT ( ( #120 ) ) GLOBAL_UNIT_ASSIGNED_CONTEXT ( ( #144, #349, #145 ) ) REPRESENTATION_CONTEXT ( 'NONE', 'WORKASPACE' ) );
#75 =( NAMED_UNIT ( * ) SI_UNIT ( $, .STERADIAN. ) SOLID_ANGLE_UNIT ( ) );
#76 = DIRECTION ( 'NONE',  ( 0.000000000000000000, -0.000000000000000000, 1.000000000000000000 ) ) ;
#77 = ORIENTED_EDGE ( 'NONE', *, *, #91, .F. ) ;
#78 = PRESENTATION_STYLE_ASSIGNMENT (( #81 ) ) ;
#79 = EDGE_LOOP ( 'NONE', ( #100, #40, #359, #146 ) ) ;
#80 = DIRECTION ( 'NONE',  ( -1.000000000000000000, 0.000000000000000000, 0.000000000000000000 ) ) ;
#81 = SURFACE_STYLE_USAGE ( .BOTH. , #340 ) ;
#82 = DIRECTION ( 'NONE',  ( -5.682149050294907483E-17, 1.000000000000000000, -0.000000000000000000 ) ) ;
#83 =( LENGTH_UNIT ( ) NAMED_UNIT ( * ) SI_UNIT ( .MILLI., .METRE. ) );
#84 = CYLINDRICAL_SURFACE ( 'NONE', #313, 3.999999999999994671 ) ;
#85 =( GEOMETRIC_REPRESENTATION_CONTEXT ( 3 ) GLOBAL_UNCERTAINTY_ASSIGNED_CONTEXT ( ( #9 ) ) GLOBAL_UNIT_ASSIGNED_CONTEXT ( ( #284, #355, #16 ) ) REPRESENTATION_CONTEXT ( 'NONE', 'WORKASPACE' ) );
#86 = AXIS2_PLACEMENT_3D ( 'NONE', #368, #201, #305 ) ;
#87 = CARTESIAN_POINT ( 'NONE',  ( 4.898587196589412829E-16, 0.000000000000000000, 4.000000000000000000 ) ) ;
#88 = PRODUCT_DEFINITION_CONTEXT ( 'detailed design', #218, 'design' ) ;
#89 = PRESENTATION_LAYER_ASSIGNMENT (  '', '', ( #207 ) ) ;
#90 = PRESENTATION_LAYER_ASSIGNMENT (  '', '', ( #228 ) ) ;
#91 = EDGE_CURVE ( 'NONE', #223, #354, #277, .T. ) ;
#92 = ORIENTED_EDGE ( 'NONE', *, *, #111, .F. ) ;
#93 = PRODUCT ( '59734', '59734', '', ( #49 ) ) ;
#94 = PRESENTATION_LAYER_ASSIGNMENT (  '', '', ( #253 ) ) ;
#95 = VERTEX_POINT ( 'NONE', #140 ) ;
#96 = ADVANCED_BREP_SHAPE_REPRESENTATION ( '59734', ( #211, #333, #86 ), #361 ) ;
#97 = SURFACE_STYLE_USAGE ( .BOTH. , #274 ) ;
#98 = ORIENTED_EDGE ( 'NONE', *, *, #31, .F. ) ;
#99 = DIRECTION ( 'NONE',  ( -5.682149050294907483E-17, 1.000000000000000000, -0.000000000000000000 ) ) ;
#100 = ORIENTED_EDGE ( 'NONE', *, *, #206, .F. ) ;
#101 = PRESENTATION_STYLE_ASSIGNMENT (( #97 ) ) ;
#102 = VERTEX_POINT ( 'NONE', #107 ) ;
#103 = CARTESIAN_POINT ( 'NONE',  ( 0.000000000000000000, 0.5000000000000000000, 0.000000000000000000 ) ) ;
#104 = LINE ( 'NONE', #229, #222 ) ;
#105 = CARTESIAN_POINT ( 'NONE',  ( 3.999999999999998224, 63.00000000000000000, 4.898587196589406912E-16 ) ) ;
#106 = ADVANCED_FACE ( 'NONE', ( #168 ), #193, .T. ) ;
#107 = CARTESIAN_POINT ( 'NONE',  ( 4.000000000000000000, 16.00000000000000000, 4.898587196589407898E-16 ) ) ;
#108 = UNCERTAINTY_MEASURE_WITH_UNIT (LENGTH_MEASURE( 1.000000000000000082E-05 ), #83, 'distance_accuracy_value', 'NONE');
#109 =( NAMED_UNIT ( * ) SI_UNIT ( $, .STERADIAN. ) SOLID_ANGLE_UNIT ( ) );
#110 = SURFACE_STYLE_FILL_AREA ( #231 ) ;
#111 = EDGE_CURVE ( 'NONE', #102, #124, #366, .T. ) ;
#112 = CARTESIAN_POINT ( 'NONE',  ( 3.184081677783117402E-15, 63.00000000000000000, 0.000000000000000000 ) ) ;
#113 = AXIS2_PLACEMENT_3D ( 'NONE', #54, #314, #134 ) ;
#114 = DIRECTION ( 'NONE',  ( -0.000000000000000000, -1.000000000000000000, -0.000000000000000000 ) ) ;
#115 = EDGE_CURVE ( 'NONE', #249, #356, #166, .T. ) ;
#116 = ORIENTED_EDGE ( 'NONE', *, *, #191, .T. ) ;
#117 = AXIS2_PLACEMENT_3D ( 'NONE', #37, #213, #121 ) ;
#118 = AXIS2_PLACEMENT_3D ( 'NONE', #267, #151, #240 ) ;
#119 = DIRECTION ( 'NONE',  ( 0.000000000000000000, 0.000000000000000000, -1.000000000000000000 ) ) ;
#120 = UNCERTAINTY_MEASURE_WITH_UNIT (LENGTH_MEASURE( 1.000000000000000082E-05 ), #144, 'distance_accuracy_value', 'NONE');
#121 = DIRECTION ( 'NONE',  ( 0.000000000000000000, 0.000000000000000000, -1.000000000000000000 ) ) ;
#122 = FILL_AREA_STYLE ('',( #156 ) ) ;
#123 = CARTESIAN_POINT ( 'NONE',  ( 3.184081677783117402E-15, 63.00000000000000000, 0.000000000000000000 ) ) ;
#124 = VERTEX_POINT ( 'NONE', #283 ) ;
#125 =( NAMED_UNIT ( * ) SI_UNIT ( $, .STERADIAN. ) SOLID_ANGLE_UNIT ( ) );
#126 = ORIENTED_EDGE ( 'NONE', *, *, #17, .T. ) ;
#127 = DIRECTION ( 'NONE',  ( 0.000000000000000000, 0.000000000000000000, -1.000000000000000000 ) ) ;
#128 = FILL_AREA_STYLE ('',( #20 ) ) ;
#129 = PRESENTATION_STYLE_ASSIGNMENT (( #326 ) ) ;
#130 = CIRCLE ( 'NONE', #258, 4.000000000000000000 ) ;
#131 = AXIS2_PLACEMENT_3D ( 'NONE', #214, #14, #181 ) ;
#132 = ORIENTED_EDGE ( 'NONE', *, *, #266, .F. ) ;
#133 = CARTESIAN_POINT ( 'NONE',  ( 0.000000000000000000, 0.5000000000000000000, 0.000000000000000000 ) ) ;
#134 = DIRECTION ( 'NONE',  ( -1.000000000000000000, 0.000000000000000000, 0.000000000000000000 ) ) ;
#135 = DIRECTION ( 'NONE',  ( -0.000000000000000000, -1.000000000000000000, -0.000000000000000000 ) ) ;
#136 =( GEOMETRIC_REPRESENTATION_CONTEXT ( 3 ) GLOBAL_UNCERTAINTY_ASSIGNED_CONTEXT ( ( #67 ) ) GLOBAL_UNIT_ASSIGNED_CONTEXT ( ( #301, #38, #75 ) ) REPRESENTATION_CONTEXT ( 'NONE', 'WORKASPACE' ) );
#137 = DIRECTION ( 'NONE',  ( -0.000000000000000000, -1.000000000000000000, -0.000000000000000000 ) ) ;
#138 = COLOUR_RGB ( '',0.7921568627450980005, 0.8196078431372548767, 0.9333333333333333481 ) ;
#139 = EDGE_CURVE ( 'NONE', #102, #223, #364, .T. ) ;
#140 = CARTESIAN_POINT ( 'NONE',  ( 4.898587196589412829E-16, 16.00000000000000000, 4.000000000000000000 ) ) ;
#141 = DIRECTION ( 'NONE',  ( -5.682149050294907483E-17, 1.000000000000000000, -0.000000000000000000 ) ) ;
#142 = AXIS2_PLACEMENT_3D ( 'NONE', #33, #114, #119 ) ;
#143 = AXIS2_PLACEMENT_3D ( 'NONE', #153, #13, #244 ) ;
#144 =( LENGTH_UNIT ( ) NAMED_UNIT ( * ) SI_UNIT ( .MILLI., .METRE. ) );
#145 =( NAMED_UNIT ( * ) SI_UNIT ( $, .STERADIAN. ) SOLID_ANGLE_UNIT ( ) );
#146 = ORIENTED_EDGE ( 'NONE', *, *, #171, .F. ) ;
#147 = CIRCLE ( 'NONE', #56, 3.999999999999996447 ) ;
#148 = AXIS2_PLACEMENT_3D ( 'NONE', #170, #351, #259 ) ;
#149 = ADVANCED_FACE ( 'NONE', ( #2 ), #84, .T. ) ;
#150 = UNCERTAINTY_MEASURE_WITH_UNIT (LENGTH_MEASURE( 1.000000000000000082E-05 ), #275, 'distance_accuracy_value', 'NONE');
#151 = DIRECTION ( 'NONE',  ( -1.000000000000000000, 0.000000000000000000, 0.000000000000000000 ) ) ;
#152 = DIRECTION ( 'NONE',  ( -0.000000000000000000, -1.000000000000000000, -0.000000000000000000 ) ) ;
#153 = CARTESIAN_POINT ( 'NONE',  ( 4.286263797015736595E-16, 0.5000000000000000000, 3.500000000000000000 ) ) ;
#154 = ORIENTED_EDGE ( 'NONE', *, *, #17, .F. ) ;
#155 = STYLED_ITEM ( 'NONE', ( #164 ), #106 ) ;
#156 = FILL_AREA_STYLE_COLOUR ( '', #179 ) ;
#157 = ORIENTED_EDGE ( 'NONE', *, *, #266, .T. ) ;
#158 = FILL_AREA_STYLE ('',( #73 ) ) ;
#159 = ORIENTED_EDGE ( 'NONE', *, *, #46, .F. ) ;
#160 = AXIS2_PLACEMENT_3D ( 'NONE', #203, #47, #339 ) ;
#161 = CYLINDRICAL_SURFACE ( 'NONE', #142, 4.000000000000000000 ) ;
#162 = CARTESIAN_POINT ( 'NONE',  ( -3.999999999999993339, 63.00000000000000000, 0.000000000000000000 ) ) ;
#163 =( NAMED_UNIT ( * ) SI_UNIT ( $, .STERADIAN. ) SOLID_ANGLE_UNIT ( ) );
#164 = PRESENTATION_STYLE_ASSIGNMENT (( #341 ) ) ;
#165 = UNCERTAINTY_MEASURE_WITH_UNIT (LENGTH_MEASURE( 1.000000000000000082E-05 ), #230, 'distance_accuracy_value', 'NONE');
#166 = LINE ( 'NONE', #257, #317 ) ;
#167 = MECHANICAL_DESIGN_GEOMETRIC_PRESENTATION_REPRESENTATION (  '', ( #32 ), #85 ) ;
#168 = FACE_OUTER_BOUND ( 'NONE', #79, .T. ) ;
#169 =( NAMED_UNIT ( * ) SI_UNIT ( $, .STERADIAN. ) SOLID_ANGLE_UNIT ( ) );
#170 = CARTESIAN_POINT ( 'NONE',  ( 0.000000000000000000, 0.000000000000000000, 0.000000000000000000 ) ) ;
#171 = EDGE_CURVE ( 'NONE', #325, #356, #48, .T. ) ;
#172 = CIRCLE ( 'NONE', #118, 0.5000000000000000000 ) ;
#173 = FILL_AREA_STYLE ('',( #23 ) ) ;
#174 = EDGE_LOOP ( 'NONE', ( #238, #316, #182, #77 ) ) ;
#175 = ADVANCED_FACE ( 'NONE', ( #303 ), #161, .T. ) ;
#176 = FILL_AREA_STYLE ('',( #68 ) ) ;
#177 = EDGE_CURVE ( 'NONE', #95, #249, #323, .T. ) ;
#178 = SURFACE_SIDE_STYLE ('',( #235 ) ) ;
#179 = COLOUR_RGB ( '',1.000000000000000000, 0.000000000000000000, 0.000000000000000000 ) ;
#180 = PRESENTATION_LAYER_ASSIGNMENT (  '', '', ( #264 ) ) ;
#181 = DIRECTION ( 'NONE',  ( -1.000000000000000000, 0.000000000000000000, 0.000000000000000000 ) ) ;
#182 = ORIENTED_EDGE ( 'NONE', *, *, #46, .T. ) ;
#183 = PRESENTATION_STYLE_ASSIGNMENT (( #299 ) ) ;
#184 = AXIS2_PLACEMENT_3D ( 'NONE', #103, #152, #29 ) ;
#185 = STYLED_ITEM ( 'NONE', ( #4 ), #211 ) ;
#186 = AXIS2_PLACEMENT_3D ( 'NONE', #123, #99, #216 ) ;
#187 = CARTESIAN_POINT ( 'NONE',  ( 4.898587196589412829E-16, 0.5000000000000000000, 4.000000000000000000 ) ) ;
#188 = ORIENTED_EDGE ( 'NONE', *, *, #321, .F. ) ;
#189 = CYLINDRICAL_SURFACE ( 'NONE', #186, 3.999999999999994671 ) ;
#190 = ORIENTED_EDGE ( 'NONE', *, *, #206, .T. ) ;
#191 = EDGE_CURVE ( 'NONE', #293, #286, #232, .T. ) ;
#192 =( NAMED_UNIT ( * ) PLANE_ANGLE_UNIT ( ) SI_UNIT ( $, .RADIAN. ) );
#193 = CYLINDRICAL_SURFACE ( 'NONE', #42, 4.000000000000000000 ) ;
#194 =( GEOMETRIC_REPRESENTATION_CONTEXT ( 3 ) GLOBAL_UNCERTAINTY_ASSIGNED_CONTEXT ( ( #165 ) ) GLOBAL_UNIT_ASSIGNED_CONTEXT ( ( #230, #192, #255 ) ) REPRESENTATION_CONTEXT ( 'NONE', 'WORKASPACE' ) );
#195 = CARTESIAN_POINT ( 'NONE',  ( 0.000000000000000000, 0.000000000000000000, 0.000000000000000000 ) ) ;
#196 = APPLICATION_CONTEXT ( 'automotive_design' ) ;
#197 = CARTESIAN_POINT ( 'NONE',  ( 0.000000000000000000, 0.5000000000000000000, -4.000000000000000000 ) ) ;
#198 = CARTESIAN_POINT ( 'NONE',  ( 0.000000000000000000, 0.5000000000000000000, 0.000000000000000000 ) ) ;
#199 = APPLICATION_PROTOCOL_DEFINITION ( 'draft international standard', 'automotive_design', 1998, #196 ) ;
#200 = FILL_AREA_STYLE_COLOUR ( '', #344 ) ;
#201 = DIRECTION ( 'NONE',  ( 0.000000000000000000, 0.000000000000000000, 1.000000000000000000 ) ) ;
#202 = VECTOR ( 'NONE', #210, 1000.000000000000000 ) ;
#203 = CARTESIAN_POINT ( 'NONE',  ( 0.000000000000000000, 0.5000000000000000000, 0.000000000000000000 ) ) ;
#204 =( NAMED_UNIT ( * ) PLANE_ANGLE_UNIT ( ) SI_UNIT ( $, .RADIAN. ) );
#205 = FILL_AREA_STYLE_COLOUR ( '', #36 ) ;
#206 = EDGE_CURVE ( 'NONE', #95, #325, #30, .T. ) ;
#207 = STYLED_ITEM ( 'NONE', ( #183 ), #6 ) ;
#208 = EDGE_LOOP ( 'NONE', ( #287, #15, #98, #159 ) ) ;
#209 = COLOUR_RGB ( '',1.000000000000000000, 0.000000000000000000, 0.000000000000000000 ) ;
#210 = DIRECTION ( 'NONE',  ( -0.000000000000000000, -1.000000000000000000, -0.000000000000000000 ) ) ;
#211 = MANIFOLD_SOLID_BREP ( 'Revolve - Cutting Edge', #365 ) ;
#212 = EDGE_CURVE ( 'NONE', #286, #293, #282, .T. ) ;
#213 = DIRECTION ( 'NONE',  ( -0.000000000000000000, -1.000000000000000000, -0.000000000000000000 ) ) ;
#214 = CARTESIAN_POINT ( 'NONE',  ( 5.854691731421723944E-15, 16.00000000000000000, 0.000000000000000000 ) ) ;
#215 = AXIS2_PLACEMENT_3D ( 'NONE', #5, #347, #61 ) ;
#216 = DIRECTION ( 'NONE',  ( -1.000000000000000000, 0.000000000000000000, 0.000000000000000000 ) ) ;
#217 = EDGE_LOOP ( 'NONE', ( #116, #295 ) ) ;
#218 = APPLICATION_CONTEXT ( 'automotive_design' ) ;
#219 = DIRECTION ( 'NONE',  ( 0.000000000000000000, 0.000000000000000000, -1.000000000000000000 ) ) ;
#220 = FACE_OUTER_BOUND ( 'NONE', #327, .T. ) ;
#221 = CIRCLE ( 'NONE', #55, 4.000000000000000000 ) ;
#222 = VECTOR ( 'NONE', #308, 1000.000000000000000 ) ;
#223 = VERTEX_POINT ( 'NONE', #35 ) ;
#224 = ADVANCED_FACE ( 'NONE', ( #261 ), #262, .T. ) ;
#225 = EDGE_LOOP ( 'NONE', ( #243, #331 ) ) ;
#226 = EDGE_CURVE ( 'NONE', #249, #95, #130, .T. ) ;
#227 =( NAMED_UNIT ( * ) PLANE_ANGLE_UNIT ( ) SI_UNIT ( $, .RADIAN. ) );
#228 = STYLED_ITEM ( 'NONE', ( #234 ), #175 ) ;
#229 = CARTESIAN_POINT ( 'NONE',  ( -3.999999999999991562, 63.00000000000000000, 0.000000000000000000 ) ) ;
#230 =( LENGTH_UNIT ( ) NAMED_UNIT ( * ) SI_UNIT ( .MILLI., .METRE. ) );
#231 = FILL_AREA_STYLE ('',( #200 ) ) ;
#232 = CIRCLE ( 'NONE', #148, 3.500000000000000000 ) ;
#233 = DIRECTION ( 'NONE',  ( -5.682149050294907483E-17, 1.000000000000000000, -0.000000000000000000 ) ) ;
#234 = PRESENTATION_STYLE_ASSIGNMENT (( #288 ) ) ;
#235 = SURFACE_STYLE_FILL_AREA ( #173 ) ;
#236 = ADVANCED_FACE ( 'NONE', ( #19 ), #294, .T. ) ;
#237 = CIRCLE ( 'NONE', #131, 3.999999999999994227 ) ;
#238 = ORIENTED_EDGE ( 'NONE', *, *, #139, .F. ) ;
#239 = PRESENTATION_LAYER_ASSIGNMENT (  '', '', ( #353 ) ) ;
#240 = DIRECTION ( 'NONE',  ( 0.000000000000000000, 0.000000000000000000, 1.000000000000000000 ) ) ;
#241 = EDGE_LOOP ( 'NONE', ( #66, #92 ) ) ;
#242 = FACE_OUTER_BOUND ( 'NONE', #174, .T. ) ;
#243 = ORIENTED_EDGE ( 'NONE', *, *, #226, .F. ) ;
#244 = DIRECTION ( 'NONE',  ( -1.224646799147353454E-16, 0.000000000000000000, -1.000000000000000000 ) ) ;
#245 = ORIENTED_EDGE ( 'NONE', *, *, #226, .T. ) ;
#246 = EDGE_CURVE ( 'NONE', #124, #102, #237, .T. ) ;
#247 = AXIS2_PLACEMENT_3D ( 'NONE', #133, #28, #307 ) ;
#248 = FACE_OUTER_BOUND ( 'NONE', #319, .T. ) ;
#249 = VERTEX_POINT ( 'NONE', #39 ) ;
#250 = SURFACE_SIDE_STYLE ('',( #110 ) ) ;
#251 =( NAMED_UNIT ( * ) SI_UNIT ( $, .STERADIAN. ) SOLID_ANGLE_UNIT ( ) );
#252 = PRESENTATION_LAYER_ASSIGNMENT (  '', '', ( #155 ) ) ;
#253 = STYLED_ITEM ( 'NONE', ( #101 ), #333 ) ;
#254 = DIRECTION ( 'NONE',  ( 1.000000000000000000, 5.682149050294907483E-17, 0.000000000000000000 ) ) ;
#255 =( NAMED_UNIT ( * ) SI_UNIT ( $, .STERADIAN. ) SOLID_ANGLE_UNIT ( ) );
#256 = FACE_OUTER_BOUND ( 'NONE', #8, .T. ) ;
#257 = CARTESIAN_POINT ( 'NONE',  ( 0.000000000000000000, 0.000000000000000000, -4.000000000000000000 ) ) ;
#258 = AXIS2_PLACEMENT_3D ( 'NONE', #324, #41, #127 ) ;
#259 = DIRECTION ( 'NONE',  ( 0.000000000000000000, 0.000000000000000000, -1.000000000000000000 ) ) ;
#260 = SURFACE_SIDE_STYLE ('',( #320 ) ) ;
#261 = FACE_OUTER_BOUND ( 'NONE', #217, .T. ) ;
#262 = PLANE ( 'NONE',  #289 ) ;
#263 = AXIS2_PLACEMENT_3D ( 'NONE', #51, #1, #254 ) ;
#264 = STYLED_ITEM ( 'NONE', ( #78 ), #369 ) ;
#265 = SURFACE_STYLE_FILL_AREA ( #122 ) ;
#266 = EDGE_CURVE ( 'NONE', #325, #286, #367, .T. ) ;
#267 = CARTESIAN_POINT ( 'NONE',  ( 0.000000000000000000, 0.5000000000000000000, -3.500000000000000000 ) ) ;
#268 = PRODUCT_DEFINITION_SHAPE ( 'NONE', 'NONE',  #43 ) ;
#269 = ORIENTED_EDGE ( 'NONE', *, *, #212, .F. ) ;
#270 = VECTOR ( 'NONE', #141, 1000.000000000000000 ) ;
#271 = ADVANCED_FACE ( 'NONE', ( #242 ), #189, .T. ) ;
#272 = DIRECTION ( 'NONE',  ( 0.000000000000000000, 1.000000000000000000, 0.000000000000000000 ) ) ;
#273 = ORIENTED_EDGE ( 'NONE', *, *, #321, .T. ) ;
#274 = SURFACE_SIDE_STYLE ('',( #322 ) ) ;
#275 =( LENGTH_UNIT ( ) NAMED_UNIT ( * ) SI_UNIT ( .MILLI., .METRE. ) );
#276 = ORIENTED_EDGE ( 'NONE', *, *, #191, .F. ) ;
#277 = CIRCLE ( 'NONE', #11, 3.999999999999996447 ) ;
#278 = COLOUR_RGB ( '',1.000000000000000000, 0.000000000000000000, 0.000000000000000000 ) ;
#279 = FILL_AREA_STYLE ('',( #338 ) ) ;
#280 =( LENGTH_UNIT ( ) NAMED_UNIT ( * ) SI_UNIT ( .MILLI., .METRE. ) );
#281 = DIRECTION ( 'NONE',  ( -1.000000000000000000, 0.000000000000000000, 0.000000000000000000 ) ) ;
#282 = CIRCLE ( 'NONE', #117, 3.500000000000000000 ) ;
#283 = CARTESIAN_POINT ( 'NONE',  ( -3.999999999999988010, 16.00000000000000000, 0.000000000000000000 ) ) ;
#284 =( LENGTH_UNIT ( ) NAMED_UNIT ( * ) SI_UNIT ( .MILLI., .METRE. ) );
#285 =( GEOMETRIC_REPRESENTATION_CONTEXT ( 3 ) GLOBAL_UNCERTAINTY_ASSIGNED_CONTEXT ( ( #108 ) ) GLOBAL_UNIT_ASSIGNED_CONTEXT ( ( #83, #227, #163 ) ) REPRESENTATION_CONTEXT ( 'NONE', 'WORKASPACE' ) );
#286 = VERTEX_POINT ( 'NONE', #358 ) ;
#287 = ORIENTED_EDGE ( 'NONE', *, *, #246, .T. ) ;
#288 = SURFACE_STYLE_USAGE ( .BOTH. , #178 ) ;
#289 = AXIS2_PLACEMENT_3D ( 'NONE', #292, #18, #219 ) ;
#290 = MECHANICAL_DESIGN_GEOMETRIC_PRESENTATION_REPRESENTATION (  '', ( #253 ), #337 ) ;
#291 = ORIENTED_EDGE ( 'NONE', *, *, #31, .T. ) ;
#292 = CARTESIAN_POINT ( 'NONE',  ( 0.000000000000000000, 0.000000000000000000, 0.000000000000000000 ) ) ;
#293 = VERTEX_POINT ( 'NONE', #300 ) ;
#294 = PLANE ( 'NONE',  #345 ) ;
#295 = ORIENTED_EDGE ( 'NONE', *, *, #212, .T. ) ;
#296 = MECHANICAL_DESIGN_GEOMETRIC_PRESENTATION_REPRESENTATION (  '', ( #207 ), #136 ) ;
#297 = MECHANICAL_DESIGN_GEOMETRIC_PRESENTATION_REPRESENTATION (  '', ( #155 ), #285 ) ;
#298 =( GEOMETRIC_REPRESENTATION_CONTEXT ( 3 ) GLOBAL_UNCERTAINTY_ASSIGNED_CONTEXT ( ( #150 ) ) GLOBAL_UNIT_ASSIGNED_CONTEXT ( ( #275, #44, #125 ) ) REPRESENTATION_CONTEXT ( 'NONE', 'WORKASPACE' ) );
#299 = SURFACE_STYLE_USAGE ( .BOTH. , #357 ) ;
#300 = CARTESIAN_POINT ( 'NONE',  ( 0.000000000000000000, 0.000000000000000000, -3.500000000000000000 ) ) ;
#301 =( LENGTH_UNIT ( ) NAMED_UNIT ( * ) SI_UNIT ( .MILLI., .METRE. ) );
#302 = DIRECTION ( 'NONE',  ( -1.000000000000000000, -5.682149050294907483E-17, 0.000000000000000000 ) ) ;
#303 = FACE_OUTER_BOUND ( 'NONE', #71, .T. ) ;
#304 = MECHANICAL_DESIGN_GEOMETRIC_PRESENTATION_REPRESENTATION (  '', ( #228 ), #63 ) ;
#305 = DIRECTION ( 'NONE',  ( 1.000000000000000000, 0.000000000000000000, 0.000000000000000000 ) ) ;
#306 = DIRECTION ( 'NONE',  ( 0.000000000000000000, 0.000000000000000000, -1.000000000000000000 ) ) ;
#307 = DIRECTION ( 'NONE',  ( 0.000000000000000000, 0.000000000000000000, -1.000000000000000000 ) ) ;
#308 = DIRECTION ( 'NONE',  ( -5.682149050294907483E-17, 1.000000000000000000, -0.000000000000000000 ) ) ;
#309 = UNCERTAINTY_MEASURE_WITH_UNIT (LENGTH_MEASURE( 1.000000000000000082E-05 ), #352, 'distance_accuracy_value', 'NONE');
#310 =( NAMED_UNIT ( * ) PLANE_ANGLE_UNIT ( ) SI_UNIT ( $, .RADIAN. ) );
#311 = DIRECTION ( 'NONE',  ( -0.000000000000000000, -1.000000000000000000, -0.000000000000000000 ) ) ;
#312 = DIRECTION ( 'NONE',  ( -5.682149050294907483E-17, 1.000000000000000000, 0.000000000000000000 ) ) ;
#313 = AXIS2_PLACEMENT_3D ( 'NONE', #112, #233, #346 ) ;
#314 = DIRECTION ( 'NONE',  ( -5.682149050294907483E-17, 1.000000000000000000, -0.000000000000000000 ) ) ;
#315 =( LENGTH_UNIT ( ) NAMED_UNIT ( * ) SI_UNIT ( .MILLI., .METRE. ) );
#316 = ORIENTED_EDGE ( 'NONE', *, *, #111, .T. ) ;
#317 = VECTOR ( 'NONE', #135, 1000.000000000000000 ) ;
#318 = FILL_AREA_STYLE ('',( #205 ) ) ;
#319 = EDGE_LOOP ( 'NONE', ( #132, #45, #273, #269 ) ) ;
#320 = SURFACE_STYLE_FILL_AREA ( #176 ) ;
#321 = EDGE_CURVE ( 'NONE', #356, #293, #172, .T. ) ;
#322 = SURFACE_STYLE_FILL_AREA ( #158 ) ;
#323 = CIRCLE ( 'NONE', #215, 4.000000000000000000 ) ;
#324 = CARTESIAN_POINT ( 'NONE',  ( 0.000000000000000000, 16.00000000000000000, 0.000000000000000000 ) ) ;
#325 = VERTEX_POINT ( 'NONE', #187 ) ;
#326 = SURFACE_STYLE_USAGE ( .BOTH. , #70 ) ;
#327 = EDGE_LOOP ( 'NONE', ( #126, #157, #276, #188 ) ) ;
#328 = PLANE ( 'NONE',  #57 ) ;
#329 = PRESENTATION_LAYER_ASSIGNMENT (  '', '', ( #32 ) ) ;
#330 = CARTESIAN_POINT ( 'NONE',  ( 0.000000000000000000, 16.00000000000000000, 0.000000000000000000 ) ) ;
#331 = ORIENTED_EDGE ( 'NONE', *, *, #177, .F. ) ;
#332 = ORIENTED_EDGE ( 'NONE', *, *, #91, .T. ) ;
#333 = MANIFOLD_SOLID_BREP ( 'Revolve - Tool Body (Straight Shanked)', #62 ) ;
#334 = ADVANCED_FACE ( 'NONE', ( #53 ), #328, .F. ) ;
#335 =( NAMED_UNIT ( * ) PLANE_ANGLE_UNIT ( ) SI_UNIT ( $, .RADIAN. ) );
#336 = MECHANICAL_DESIGN_GEOMETRIC_PRESENTATION_REPRESENTATION (  '', ( #353 ), #298 ) ;
#337 =( GEOMETRIC_REPRESENTATION_CONTEXT ( 3 ) GLOBAL_UNCERTAINTY_ASSIGNED_CONTEXT ( ( #309 ) ) GLOBAL_UNIT_ASSIGNED_CONTEXT ( ( #352, #310, #251 ) ) REPRESENTATION_CONTEXT ( 'NONE', 'WORKASPACE' ) );
#338 = FILL_AREA_STYLE_COLOUR ( '', #278 ) ;
#339 = DIRECTION ( 'NONE',  ( 0.000000000000000000, 0.000000000000000000, -1.000000000000000000 ) ) ;
#340 = SURFACE_SIDE_STYLE ('',( #22 ) ) ;
#341 = SURFACE_STYLE_USAGE ( .BOTH. , #250 ) ;
#342 = UNCERTAINTY_MEASURE_WITH_UNIT (LENGTH_MEASURE( 1.000000000000000082E-05 ), #315, 'distance_accuracy_value', 'NONE');
#343 = DIRECTION ( 'NONE',  ( 0.000000000000000000, 0.000000000000000000, -1.000000000000000000 ) ) ;
#344 = COLOUR_RGB ( '',1.000000000000000000, 0.000000000000000000, 0.000000000000000000 ) ;
#345 = AXIS2_PLACEMENT_3D ( 'NONE', #330, #272, #76 ) ;
#346 = DIRECTION ( 'NONE',  ( -1.000000000000000000, 0.000000000000000000, 0.000000000000000000 ) ) ;
#347 = DIRECTION ( 'NONE',  ( -0.000000000000000000, -1.000000000000000000, -0.000000000000000000 ) ) ;
#348 = TOROIDAL_SURFACE ( 'NONE', #184, 3.500000000000000000, 0.5000000000000000000 ) ;
#349 =( NAMED_UNIT ( * ) PLANE_ANGLE_UNIT ( ) SI_UNIT ( $, .RADIAN. ) );
#350 = PRODUCT_RELATED_PRODUCT_CATEGORY ( 'part', '', ( #93 ) ) ;
#351 = DIRECTION ( 'NONE',  ( -0.000000000000000000, -1.000000000000000000, -0.000000000000000000 ) ) ;
#352 =( LENGTH_UNIT ( ) NAMED_UNIT ( * ) SI_UNIT ( .MILLI., .METRE. ) );
#353 = STYLED_ITEM ( 'NONE', ( #129 ), #236 ) ;
#354 = VERTEX_POINT ( 'NONE', #162 ) ;
#355 =( NAMED_UNIT ( * ) PLANE_ANGLE_UNIT ( ) SI_UNIT ( $, .RADIAN. ) );
#356 = VERTEX_POINT ( 'NONE', #197 ) ;
#357 = SURFACE_SIDE_STYLE ('',( #72 ) ) ;
#358 = CARTESIAN_POINT ( 'NONE',  ( 4.592425496802573972E-16, 0.000000000000000000, 3.500000000000000000 ) ) ;
#359 = ORIENTED_EDGE ( 'NONE', *, *, #115, .T. ) ;
#360 = COLOUR_RGB ( '',0.7921568627450980005, 0.8196078431372548767, 0.9333333333333333481 ) ;
#361 =( GEOMETRIC_REPRESENTATION_CONTEXT ( 3 ) GLOBAL_UNCERTAINTY_ASSIGNED_CONTEXT ( ( #58 ) ) GLOBAL_UNIT_ASSIGNED_CONTEXT ( ( #280, #335, #109 ) ) REPRESENTATION_CONTEXT ( 'NONE', 'WORKASPACE' ) );
#362 = ORIENTED_EDGE ( 'NONE', *, *, #115, .F. ) ;
#363 = CARTESIAN_POINT ( 'NONE',  ( 5.854691731421723944E-15, 16.00000000000000000, 0.000000000000000000 ) ) ;
#364 = LINE ( 'NONE', #105, #270 ) ;
#365 = CLOSED_SHELL ( 'NONE', ( #175, #6, #224, #369, #106, #236 ) ) ;
#366 = CIRCLE ( 'NONE', #113, 3.999999999999994227 ) ;
#367 = CIRCLE ( 'NONE', #143, 0.5000000000000000000 ) ;
#368 = CARTESIAN_POINT ( 'NONE',  ( 0.000000000000000000, 0.000000000000000000, 0.000000000000000000 ) ) ;
#369 = ADVANCED_FACE ( 'NONE', ( #248 ), #21, .T. ) ;
#370 = PLANE ( 'NONE',  #263 ) ;
ENDSEC;
END-ISO-10303-21;
