ISO-10303-21;
HEADER;
FILE_DESCRIPTION (( 'STEP AP214' ),
    '1' );
FILE_NAME ('Micro_MMBM-010-20X.STEP',
    '2021-09-03T16:26:34',
    ( '' ),
    ( '' ),
    'SwSTEP 2.0',
    'SolidWorks 2020',
    '' );
FILE_SCHEMA (( 'AUTOMOTIVE_DESIGN' ));
ENDSEC;

DATA;
#1 = ORIENTED_EDGE ( 'NONE', *, *, #277, .F. ) ;
#2 = CARTESIAN_POINT ( 'NONE',  ( -0.01870100000000000581, 0.0000000000000000000, 0.04493937739224183880 ) ) ;
#3 = CIRCLE ( 'NONE', #128, 0.1181100000000000066 ) ;
#4 = VECTOR ( 'NONE', #326, 39.37007874015748143 ) ;
#5 = CARTESIAN_POINT ( 'NONE',  ( 0.0000000000000000000, 0.0000000000000000000, 0.0000000000000000000 ) ) ;
#6 = EDGE_CURVE ( 'NONE', #368, #295, #20, .T. ) ;
#7 = DIRECTION ( 'NONE',  ( -0.0000000000000000000, -0.0000000000000000000, -1.000000000000000000 ) ) ;
#8 = EDGE_LOOP ( 'NONE', ( #132, #350, #270, #1 ) ) ;
#9 =( LENGTH_UNIT ( ) NAMED_UNIT ( * ) SI_UNIT ( $, .METRE. ) );
#10 = DIRECTION ( 'NONE',  ( 0.0000000000000000000, 0.0000000000000000000, 1.000000000000000000 ) ) ;
#11 = VERTEX_POINT ( 'NONE', #37 ) ;
#12 = DIRECTION ( 'NONE',  ( -0.0000000000000000000, -0.0000000000000000000, -1.000000000000000000 ) ) ;
#13 = APPLICATION_PROTOCOL_DEFINITION ( 'draft international standard', 'automotive_design', 1998, #373 ) ;
#14 = DIMENSIONAL_EXPONENTS ( 1.000000000000000000, 0.0000000000000000000, 0.0000000000000000000, 0.0000000000000000000, 0.0000000000000000000, 0.0000000000000000000, 0.0000000000000000000 ) ;
#15 = PRESENTATION_LAYER_ASSIGNMENT (  '', '', ( #85 ) ) ;
#16 = CARTESIAN_POINT ( 'NONE',  ( 0.0000000000000000000, 0.0000000000000000000, 2.244094000000000033 ) ) ;
#17 = EDGE_CURVE ( 'NONE', #210, #320, #363, .T. ) ;
#18 = ORIENTED_EDGE ( 'NONE', *, *, #120, .F. ) ;
#19 = DIRECTION ( 'NONE',  ( -1.000000000000000000, 0.0000000000000000000, 0.0000000000000000000 ) ) ;
#20 = CIRCLE ( 'NONE', #177, 0.1181100000000000066 ) ;
#21 = CARTESIAN_POINT ( 'NONE',  ( 0.01968303149999999294, 2.410476152399151743E-18, 0.0000000000000000000 ) ) ;
#22 = CIRCLE ( 'NONE', #284, 0.01870100000000009602 ) ;
#23 = CARTESIAN_POINT ( 'NONE',  ( 0.0000000000000000000, 0.0000000000000000000, 0.0000000000000000000 ) ) ;
#24 = DIRECTION ( 'NONE',  ( -0.0000000000000000000, -0.0000000000000000000, -1.000000000000000000 ) ) ;
#25 = CARTESIAN_POINT ( 'NONE',  ( 0.0000000000000000000, 0.0000000000000000000, 0.03937000000000000222 ) ) ;
#26 = EDGE_CURVE ( 'NONE', #174, #295, #126, .T. ) ;
#27 = VECTOR ( 'NONE', #144, 39.37007874015748854 ) ;
#28 = FACE_OUTER_BOUND ( 'NONE', #101, .T. ) ;
#29 = VERTEX_POINT ( 'NONE', #248 ) ;
#30 = LENGTH_MEASURE_WITH_UNIT ( LENGTH_MEASURE( 0.02539999999999999897 ), #58 );
#31 = AXIS2_PLACEMENT_3D ( 'NONE', #253, #189, #217 ) ;
#32 = AXIS2_PLACEMENT_3D ( 'NONE', #195, #313, #286 ) ;
#33 =( NAMED_UNIT ( * ) SI_UNIT ( $, .STERADIAN. ) SOLID_ANGLE_UNIT ( ) );
#34 = ORIENTED_EDGE ( 'NONE', *, *, #98, .T. ) ;
#35 = APPLICATION_CONTEXT ( 'automotive_design' ) ;
#36 = SURFACE_STYLE_USAGE ( .BOTH. , #212 ) ;
#37 = CARTESIAN_POINT ( 'NONE',  ( 0.01870100000000000581, 2.350344065742308730E-18, 0.04493937739224183880 ) ) ;
#38 = VECTOR ( 'NONE', #12, 39.37007874015748143 ) ;
#39 = AXIS2_PLACEMENT_3D ( 'NONE', #25, #281, #19 ) ;
#40 = CARTESIAN_POINT ( 'NONE',  ( 0.0000000000000000000, 0.0000000000000000000, 0.0000000000000000000 ) ) ;
#41 = ORIENTED_EDGE ( 'NONE', *, *, #192, .T. ) ;
#42 = PLANE ( 'NONE',  #84 ) ;
#43 = DIRECTION ( 'NONE',  ( 0.0000000000000000000, 0.0000000000000000000, 1.000000000000000000 ) ) ;
#44 = ORIENTED_EDGE ( 'NONE', *, *, #288, .F. ) ;
#45 = FACE_OUTER_BOUND ( 'NONE', #292, .T. ) ;
#46 = AXIS2_PLACEMENT_3D ( 'NONE', #139, #342, #161 ) ;
#47 = VERTEX_POINT ( 'NONE', #359 ) ;
#48 = DIRECTION ( 'NONE',  ( -0.0000000000000000000, -0.0000000000000000000, -1.000000000000000000 ) ) ;
#49 = CARTESIAN_POINT ( 'NONE',  ( 0.0000000000000000000, 0.0000000000000000000, 0.0000000000000000000 ) ) ;
#50 = DIRECTION ( 'NONE',  ( -0.0000000000000000000, -0.0000000000000000000, -1.000000000000000000 ) ) ;
#51 = AXIS2_PLACEMENT_3D ( 'NONE', #333, #94, #182 ) ;
#52 = CARTESIAN_POINT ( 'NONE',  ( 0.01870100000000005092, 2.290211979085471495E-18, 0.0000000000000000000 ) ) ;
#53 = CARTESIAN_POINT ( 'NONE',  ( 0.0000000000000000000, 0.0000000000000000000, 0.03937000000000000222 ) ) ;
#54 = EDGE_CURVE ( 'NONE', #112, #174, #3, .T. ) ;
#55 = DIRECTION ( 'NONE',  ( -1.000000000000000000, 0.0000000000000000000, 0.0000000000000000000 ) ) ;
#56 = EDGE_LOOP ( 'NONE', ( #244, #90, #65, #309 ) ) ;
#57 = VECTOR ( 'NONE', #82, 39.37007874015748143 ) ;
#58 =( LENGTH_UNIT ( ) NAMED_UNIT ( * ) SI_UNIT ( $, .METRE. ) );
#59 = DIRECTION ( 'NONE',  ( 1.000000000000000000, 0.0000000000000000000, -0.0000000000000000000 ) ) ;
#60 = CLOSED_SHELL ( 'NONE', ( #231, #341, #267, #68, #353, #107, #312, #328, #160, #197, #206, #133, #77 ) ) ;
#61 = PRESENTATION_STYLE_ASSIGNMENT (( #268 ) ) ;
#62 = AXIS2_PLACEMENT_3D ( 'NONE', #5, #7, #264 ) ;
#63 = ORIENTED_EDGE ( 'NONE', *, *, #17, .F. ) ;
#64 = EDGE_LOOP ( 'NONE', ( #325, #273 ) ) ;
#65 = ORIENTED_EDGE ( 'NONE', *, *, #321, .T. ) ;
#66 = AXIS2_PLACEMENT_3D ( 'NONE', #40, #191, #215 ) ;
#67 = ORIENTED_EDGE ( 'NONE', *, *, #175, .F. ) ;
#68 = ADVANCED_FACE ( 'NONE', ( #97 ), #347, .T. ) ;
#69 = CARTESIAN_POINT ( 'NONE',  ( -0.01968303149999999294, 0.0000000000000000000, 0.0000000000000000000 ) ) ;
#70 = ORIENTED_EDGE ( 'NONE', *, *, #277, .T. ) ;
#71 = PRESENTATION_STYLE_ASSIGNMENT (( #36 ) ) ;
#72 = ORIENTED_EDGE ( 'NONE', *, *, #26, .F. ) ;
#73 = UNCERTAINTY_MEASURE_WITH_UNIT (LENGTH_MEASURE( 1.000000000000000082E-05 ), #249, 'distance_accuracy_value', 'NONE');
#74 = AXIS2_PLACEMENT_3D ( 'NONE', #230, #258, #75 ) ;
#75 = DIRECTION ( 'NONE',  ( -1.000000000000000000, 0.0000000000000000000, 0.0000000000000000000 ) ) ;
#76 = CARTESIAN_POINT ( 'NONE',  ( -0.1181100000000000066, 0.0000000000000000000, 2.229093999999999465 ) ) ;
#77 = ADVANCED_FACE ( 'NONE', ( #131 ), #42, .F. ) ;
#78 = PRODUCT_DEFINITION_CONTEXT ( 'detailed design', #35, 'design' ) ;
#79 = DIRECTION ( 'NONE',  ( -1.000000000000000000, 0.0000000000000000000, 0.0000000000000000000 ) ) ;
#80 = DIRECTION ( 'NONE',  ( -0.0000000000000000000, -0.0000000000000000000, -1.000000000000000000 ) ) ;
#81 = EDGE_CURVE ( 'NONE', #47, #220, #22, .T. ) ;
#82 = DIRECTION ( 'NONE',  ( -0.0000000000000000000, -0.0000000000000000000, -1.000000000000000000 ) ) ;
#83 = CARTESIAN_POINT ( 'NONE',  ( 0.0000000000000000000, 0.0000000000000000000, 0.7874019999999998243 ) ) ;
#84 = AXIS2_PLACEMENT_3D ( 'NONE', #278, #127, #251 ) ;
#85 = STYLED_ITEM ( 'NONE', ( #61 ), #241 ) ;
#86 = DIRECTION ( 'NONE',  ( 1.000000000000000000, 0.0000000000000000000, 0.0000000000000000000 ) ) ;
#87 = DIRECTION ( 'NONE',  ( -0.0000000000000000000, -0.0000000000000000000, -1.000000000000000000 ) ) ;
#88 = CARTESIAN_POINT ( 'NONE',  ( 0.0000000000000000000, 0.0000000000000000000, 2.244094000000000033 ) ) ;
#89 = ORIENTED_EDGE ( 'NONE', *, *, #148, .T. ) ;
#90 = ORIENTED_EDGE ( 'NONE', *, *, #164, .T. ) ;
#91 = AXIS2_PLACEMENT_3D ( 'NONE', #108, #316, #289 ) ;
#92 = EDGE_CURVE ( 'NONE', #141, #255, #115, .T. ) ;
#93 = FILL_AREA_STYLE ('',( #364 ) ) ;
#94 = DIRECTION ( 'NONE',  ( -0.0000000000000000000, -0.0000000000000000000, -1.000000000000000000 ) ) ;
#95 = ORIENTED_EDGE ( 'NONE', *, *, #26, .T. ) ;
#96 =( NAMED_UNIT ( * ) PLANE_ANGLE_UNIT ( ) SI_UNIT ( $, .RADIAN. ) );
#97 = FACE_OUTER_BOUND ( 'NONE', #181, .T. ) ;
#98 = EDGE_CURVE ( 'NONE', #29, #185, #146, .T. ) ;
#99 = AXIS2_PLACEMENT_3D ( 'NONE', #49, #50, #104 ) ;
#100 =( GEOMETRIC_REPRESENTATION_CONTEXT ( 3 ) GLOBAL_UNCERTAINTY_ASSIGNED_CONTEXT ( ( #225 ) ) GLOBAL_UNIT_ASSIGNED_CONTEXT ( ( #123, #96, #130 ) ) REPRESENTATION_CONTEXT ( 'NONE', 'WORKASPACE' ) );
#101 = EDGE_LOOP ( 'NONE', ( #299, #118, #272, #153 ) ) ;
#102 = EDGE_LOOP ( 'NONE', ( #240, #41, #324, #238 ) ) ;
#103 = PRODUCT_RELATED_PRODUCT_CATEGORY ( 'part', '', ( #257 ) ) ;
#104 = DIRECTION ( 'NONE',  ( -1.000000000000000000, 0.0000000000000000000, 0.0000000000000000000 ) ) ;
#105 = CARTESIAN_POINT ( 'NONE',  ( -0.1031100000000002570, 0.0000000000000000000, 2.244094000000000033 ) ) ;
#106 = DIRECTION ( 'NONE',  ( -1.000000000000000000, 0.0000000000000000000, 0.0000000000000000000 ) ) ;
#107 = ADVANCED_FACE ( 'NONE', ( #287 ), #163, .T. ) ;
#108 = CARTESIAN_POINT ( 'NONE',  ( 0.0000000000000000000, 0.0000000000000000000, 2.244094000000000033 ) ) ;
#109 = AXIS2_PLACEMENT_3D ( 'NONE', #198, #80, #259 ) ;
#110 = CARTESIAN_POINT ( 'NONE',  ( -0.01968303149999999294, 0.0000000000000000000, 0.03937000000000000222 ) ) ;
#111 = UNCERTAINTY_MEASURE_WITH_UNIT (LENGTH_MEASURE( 1.000000000000000082E-05 ), #323, 'distance_accuracy_value', 'NONE');
#112 = VERTEX_POINT ( 'NONE', #224 ) ;
#113 = EDGE_CURVE ( 'NONE', #210, #112, #263, .T. ) ;
#114 = EDGE_LOOP ( 'NONE', ( #335, #357 ) ) ;
#115 = CIRCLE ( 'NONE', #330, 0.01968303149999999294 ) ;
#116 = VECTOR ( 'NONE', #345, 39.37007874015748143 ) ;
#117 = DIRECTION ( 'NONE',  ( -1.000000000000000000, 0.0000000000000000000, 0.0000000000000000000 ) ) ;
#118 = ORIENTED_EDGE ( 'NONE', *, *, #247, .T. ) ;
#119 = CARTESIAN_POINT ( 'NONE',  ( 0.0000000000000000000, 0.0000000000000000000, 2.244094000000000033 ) ) ;
#120 = EDGE_CURVE ( 'NONE', #320, #174, #283, .T. ) ;
#121 = CYLINDRICAL_SURFACE ( 'NONE', #66, 0.01870100000000005092 ) ;
#122 = ORIENTED_EDGE ( 'NONE', *, *, #113, .F. ) ;
#123 =( CONVERSION_BASED_UNIT ( 'INCH', #156 ) LENGTH_UNIT ( ) NAMED_UNIT ( #14 ) );
#124 = CARTESIAN_POINT ( 'NONE',  ( -0.1181100000000000066, 0.0000000000000000000, 2.244094000000000033 ) ) ;
#125 = EDGE_CURVE ( 'NONE', #255, #185, #339, .T. ) ;
#126 = LINE ( 'NONE', #124, #38 ) ;
#127 = DIRECTION ( 'NONE',  ( 0.0000000000000000000, 0.0000000000000000000, 1.000000000000000000 ) ) ;
#128 = AXIS2_PLACEMENT_3D ( 'NONE', #157, #250, #362 ) ;
#129 = AXIS2_PLACEMENT_3D ( 'NONE', #317, #169, #349 ) ;
#130 =( NAMED_UNIT ( * ) SI_UNIT ( $, .STERADIAN. ) SOLID_ANGLE_UNIT ( ) );
#131 = FACE_OUTER_BOUND ( 'NONE', #279, .T. ) ;
#132 = ORIENTED_EDGE ( 'NONE', *, *, #125, .F. ) ;
#133 = ADVANCED_FACE ( 'NONE', ( #167 ), #136, .T. ) ;
#134 = LINE ( 'NONE', #311, #204 ) ;
#135 = CIRCLE ( 'NONE', #366, 0.01870100000000000581 ) ;
#136 = CYLINDRICAL_SURFACE ( 'NONE', #74, 0.01968303149999999294 ) ;
#137 = PRESENTATION_LAYER_ASSIGNMENT (  '', '', ( #179 ) ) ;
#138 = CARTESIAN_POINT ( 'NONE',  ( 0.01968303149999999294, 2.410476152399151743E-18, 0.0000000000000000000 ) ) ;
#139 = CARTESIAN_POINT ( 'NONE',  ( 0.0000000000000000000, 0.0000000000000000000, 0.04493937739224183880 ) ) ;
#140 = CARTESIAN_POINT ( 'NONE',  ( 0.0000000000000000000, 0.0000000000000000000, 2.244094000000000033 ) ) ;
#141 = VERTEX_POINT ( 'NONE', #344 ) ;
#142 = CARTESIAN_POINT ( 'NONE',  ( 0.0000000000000000000, 0.0000000000000000000, 0.03937000000000000222 ) ) ;
#143 = ORIENTED_EDGE ( 'NONE', *, *, #54, .F. ) ;
#144 = DIRECTION ( 'NONE',  ( -0.1736481776669301647, 0.0000000000000000000, -0.9848077530122080203 ) ) ;
#145 = EDGE_LOOP ( 'NONE', ( #155, #352, #95, #302 ) ) ;
#146 = CIRCLE ( 'NONE', #99, 0.01968303149999999294 ) ;
#147 = LINE ( 'NONE', #271, #338 ) ;
#148 = EDGE_CURVE ( 'NONE', #112, #368, #222, .T. ) ;
#149 = EDGE_LOOP ( 'NONE', ( #327, #159 ) ) ;
#150 = FACE_OUTER_BOUND ( 'NONE', #149, .T. ) ;
#151 = ORIENTED_EDGE ( 'NONE', *, *, #227, .T. ) ;
#152 = CIRCLE ( 'NONE', #129, 0.1181100000000000066 ) ;
#153 = ORIENTED_EDGE ( 'NONE', *, *, #321, .F. ) ;
#154 = SURFACE_STYLE_FILL_AREA ( #93 ) ;
#155 = ORIENTED_EDGE ( 'NONE', *, *, #148, .F. ) ;
#156 = LENGTH_MEASURE_WITH_UNIT ( LENGTH_MEASURE( 0.02539999999999999897 ), #9 );
#157 = CARTESIAN_POINT ( 'NONE',  ( 0.0000000000000000000, 0.0000000000000000000, 2.229093999999999465 ) ) ;
#158 = MECHANICAL_DESIGN_GEOMETRIC_PRESENTATION_REPRESENTATION (  '', ( #85 ), #165 ) ;
#159 = ORIENTED_EDGE ( 'NONE', *, *, #17, .T. ) ;
#160 = ADVANCED_FACE ( 'NONE', ( #372, #256 ), #226, .T. ) ;
#161 = DIRECTION ( 'NONE',  ( -1.000000000000000000, 0.0000000000000000000, 0.0000000000000000000 ) ) ;
#162 = PRODUCT_CONTEXT ( 'NONE', #373, 'mechanical' ) ;
#163 = CYLINDRICAL_SURFACE ( 'NONE', #91, 0.1181100000000000066 ) ;
#164 = EDGE_CURVE ( 'NONE', #11, #234, #135, .T. ) ;
#165 =( GEOMETRIC_REPRESENTATION_CONTEXT ( 3 ) GLOBAL_UNCERTAINTY_ASSIGNED_CONTEXT ( ( #111 ) ) GLOBAL_UNIT_ASSIGNED_CONTEXT ( ( #323, #176, #33 ) ) REPRESENTATION_CONTEXT ( 'NONE', 'WORKASPACE' ) );
#166 = CYLINDRICAL_SURFACE ( 'NONE', #262, 0.01870100000000005092 ) ;
#167 = FACE_OUTER_BOUND ( 'NONE', #8, .T. ) ;
#168 = DIRECTION ( 'NONE',  ( -0.0000000000000000000, -0.0000000000000000000, -1.000000000000000000 ) ) ;
#169 = DIRECTION ( 'NONE',  ( 0.0000000000000000000, 0.0000000000000000000, -1.000000000000000000 ) ) ;
#170 = ORIENTED_EDGE ( 'NONE', *, *, #98, .F. ) ;
#171 = EDGE_CURVE ( 'NONE', #47, #234, #134, .T. ) ;
#172 = SURFACE_STYLE_FILL_AREA ( #298 ) ;
#173 = LINE ( 'NONE', #110, #27 ) ;
#174 = VERTEX_POINT ( 'NONE', #76 ) ;
#175 = EDGE_CURVE ( 'NONE', #234, #11, #332, .T. ) ;
#176 =( NAMED_UNIT ( * ) PLANE_ANGLE_UNIT ( ) SI_UNIT ( $, .RADIAN. ) );
#177 = AXIS2_PLACEMENT_3D ( 'NONE', #190, #308, #306 ) ;
#178 = COLOUR_RGB ( '',0.7921568627450980005, 0.8196078431372548767, 0.9333333333333333481 ) ;
#179 = STYLED_ITEM ( 'NONE', ( #71 ), #369 ) ;
#180 = DIRECTION ( 'NONE',  ( -1.000000000000000000, 0.0000000000000000000, 0.0000000000000000000 ) ) ;
#181 = EDGE_LOOP ( 'NONE', ( #63, #355, #44, #18 ) ) ;
#182 = DIRECTION ( 'NONE',  ( -1.000000000000000000, 0.0000000000000000000, 0.0000000000000000000 ) ) ;
#183 = ORIENTED_EDGE ( 'NONE', *, *, #378, .F. ) ;
#184 =( NAMED_UNIT ( * ) PLANE_ANGLE_UNIT ( ) SI_UNIT ( $, .RADIAN. ) );
#185 = VERTEX_POINT ( 'NONE', #138 ) ;
#186 = AXIS2_PLACEMENT_3D ( 'NONE', #16, #218, #331 ) ;
#187 = AXIS2_PLACEMENT_3D ( 'NONE', #119, #242, #117 ) ;
#188 = EDGE_LOOP ( 'NONE', ( #122, #208, #334, #143 ) ) ;
#189 = DIRECTION ( 'NONE',  ( -0.0000000000000000000, -0.0000000000000000000, -1.000000000000000000 ) ) ;
#190 = CARTESIAN_POINT ( 'NONE',  ( 0.0000000000000000000, 0.0000000000000000000, 0.7874019999999998243 ) ) ;
#191 = DIRECTION ( 'NONE',  ( -0.0000000000000000000, -0.0000000000000000000, -1.000000000000000000 ) ) ;
#192 = EDGE_CURVE ( 'NONE', #220, #47, #275, .T. ) ;
#193 = ORIENTED_EDGE ( 'NONE', *, *, #81, .T. ) ;
#194 = VECTOR ( 'NONE', #196, 39.37007874015748854 ) ;
#195 = CARTESIAN_POINT ( 'NONE',  ( 0.01870100000000009602, 0.0000000000000000000, 0.7874019999999999353 ) ) ;
#196 = DIRECTION ( 'NONE',  ( -0.7071067811865358044, 0.0000000000000000000, -0.7071067811865590080 ) ) ;
#197 = ADVANCED_FACE ( 'NONE', ( #260 ), #322, .T. ) ;
#198 = CARTESIAN_POINT ( 'NONE',  ( 0.0000000000000000000, 0.0000000000000000000, 0.7874019999999999353 ) ) ;
#199 = AXIS2_PLACEMENT_3D ( 'NONE', #276, #10, #216 ) ;
#200 = AXIS2_PLACEMENT_3D ( 'NONE', #142, #291, #180 ) ;
#201 = CARTESIAN_POINT ( 'NONE',  ( 0.01870100000000009602, 2.290211979085477273E-18, 0.7874019999999999353 ) ) ;
#202 = DIRECTION ( 'NONE',  ( -0.0000000000000000000, -0.0000000000000000000, -1.000000000000000000 ) ) ;
#203 = DIRECTION ( 'NONE',  ( 0.0000000000000000000, 0.0000000000000000000, 1.000000000000000000 ) ) ;
#204 = VECTOR ( 'NONE', #48, 39.37007874015748143 ) ;
#205 = DIRECTION ( 'NONE',  ( 1.000000000000000000, 0.0000000000000000000, 0.0000000000000000000 ) ) ;
#206 = ADVANCED_FACE ( 'NONE', ( #314 ), #166, .T. ) ;
#207 = DIRECTION ( 'NONE',  ( 0.0000000000000000000, 0.0000000000000000000, 1.000000000000000000 ) ) ;
#208 = ORIENTED_EDGE ( 'NONE', *, *, #237, .F. ) ;
#209 = CARTESIAN_POINT ( 'NONE',  ( -0.1181100000000000066, 0.0000000000000000000, 0.7874019999999998243 ) ) ;
#210 = VERTEX_POINT ( 'NONE', #228 ) ;
#211 = AXIS2_PLACEMENT_3D ( 'NONE', #239, #87, #297 ) ;
#212 = SURFACE_SIDE_STYLE ('',( #154 ) ) ;
#213 = ORIENTED_EDGE ( 'NONE', *, *, #171, .F. ) ;
#214 = PRODUCT_DEFINITION_SHAPE ( 'NONE', 'NONE',  #336 ) ;
#215 = DIRECTION ( 'NONE',  ( -1.000000000000000000, 0.0000000000000000000, 0.0000000000000000000 ) ) ;
#216 = DIRECTION ( 'NONE',  ( 1.000000000000000000, 0.0000000000000000000, 0.0000000000000000000 ) ) ;
#217 = DIRECTION ( 'NONE',  ( -1.000000000000000000, 0.0000000000000000000, 0.0000000000000000000 ) ) ;
#218 = DIRECTION ( 'NONE',  ( 0.0000000000000000000, 0.0000000000000000000, -1.000000000000000000 ) ) ;
#219 = CYLINDRICAL_SURFACE ( 'NONE', #31, 0.1181100000000000066 ) ;
#220 = VERTEX_POINT ( 'NONE', #201 ) ;
#221 = ORIENTED_EDGE ( 'NONE', *, *, #261, .F. ) ;
#222 = LINE ( 'NONE', #337, #57 ) ;
#223 = VECTOR ( 'NONE', #375, 39.37007874015748854 ) ;
#224 = CARTESIAN_POINT ( 'NONE',  ( 0.1181100000000000066, 1.446430334472939084E-17, 2.229093999999999465 ) ) ;
#225 = UNCERTAINTY_MEASURE_WITH_UNIT (LENGTH_MEASURE( 1.000000000000000082E-05 ), #123, 'distance_accuracy_value', 'NONE');
#226 = PLANE ( 'NONE',  #32 ) ;
#227 = EDGE_CURVE ( 'NONE', #220, #11, #315, .T. ) ;
#228 = CARTESIAN_POINT ( 'NONE',  ( 0.1031100000000002570, 1.354581824536888722E-17, 2.244094000000000033 ) ) ;
#229 = AXIS2_PLACEMENT_3D ( 'NONE', #88, #207, #205 ) ;
#230 = CARTESIAN_POINT ( 'NONE',  ( 0.0000000000000000000, 0.0000000000000000000, 0.0000000000000000000 ) ) ;
#231 = ADVANCED_FACE ( 'NONE', ( #346 ), #351, .T. ) ;
#232 = FILL_AREA_STYLE_COLOUR ( '', #310 ) ;
#233 = SURFACE_SIDE_STYLE ('',( #172 ) ) ;
#234 = VERTEX_POINT ( 'NONE', #2 ) ;
#235 = APPLICATION_PROTOCOL_DEFINITION ( 'draft international standard', 'automotive_design', 1998, #35 ) ;
#236 = CARTESIAN_POINT ( 'NONE',  ( 0.01968303149999999294, 2.410476152399151743E-18, 0.03937000000000000222 ) ) ;
#237 = EDGE_CURVE ( 'NONE', #320, #210, #290, .T. ) ;
#238 = ORIENTED_EDGE ( 'NONE', *, *, #164, .F. ) ;
#239 = CARTESIAN_POINT ( 'NONE',  ( 0.0000000000000000000, 0.0000000000000000000, 0.0000000000000000000 ) ) ;
#240 = ORIENTED_EDGE ( 'NONE', *, *, #227, .F. ) ;
#241 = MANIFOLD_SOLID_BREP ( 'Cut-Revolve1', #60 ) ;
#242 = DIRECTION ( 'NONE',  ( 0.0000000000000000000, 0.0000000000000000000, -1.000000000000000000 ) ) ;
#243 = EDGE_LOOP ( 'NONE', ( #193, #151, #67, #213 ) ) ;
#244 = ORIENTED_EDGE ( 'NONE', *, *, #247, .F. ) ;
#245 = VECTOR ( 'NONE', #168, 39.37007874015748143 ) ;
#246 = AXIS2_PLACEMENT_3D ( 'NONE', #307, #43, #86 ) ;
#247 = EDGE_CURVE ( 'NONE', #11, #255, #147, .T. ) ;
#248 = CARTESIAN_POINT ( 'NONE',  ( -0.01968303149999999294, 0.0000000000000000000, 0.0000000000000000000 ) ) ;
#249 =( CONVERSION_BASED_UNIT ( 'INCH', #358 ) LENGTH_UNIT ( ) NAMED_UNIT ( #282 ) );
#250 = DIRECTION ( 'NONE',  ( 0.0000000000000000000, 0.0000000000000000000, -1.000000000000000000 ) ) ;
#251 = DIRECTION ( 'NONE',  ( 1.000000000000000000, 0.0000000000000000000, -0.0000000000000000000 ) ) ;
#252 = CIRCLE ( 'NONE', #62, 0.01968303149999999294 ) ;
#253 = CARTESIAN_POINT ( 'NONE',  ( 0.0000000000000000000, 0.0000000000000000000, 2.244094000000000033 ) ) ;
#254 = DIRECTION ( 'NONE',  ( -0.0000000000000000000, -0.0000000000000000000, -1.000000000000000000 ) ) ;
#255 = VERTEX_POINT ( 'NONE', #236 ) ;
#256 = FACE_OUTER_BOUND ( 'NONE', #114, .T. ) ;
#257 = PRODUCT ( 'Micro_MMBM-010-20X', 'Micro_MMBM-010-20X', '', ( #162 ) ) ;
#258 = DIRECTION ( 'NONE',  ( -0.0000000000000000000, -0.0000000000000000000, -1.000000000000000000 ) ) ;
#259 = DIRECTION ( 'NONE',  ( -1.000000000000000000, 0.0000000000000000000, 0.0000000000000000000 ) ) ;
#260 = FACE_OUTER_BOUND ( 'NONE', #56, .T. ) ;
#261 = EDGE_CURVE ( 'NONE', #295, #368, #303, .T. ) ;
#262 = AXIS2_PLACEMENT_3D ( 'NONE', #23, #374, #106 ) ;
#263 = LINE ( 'NONE', #377, #223 ) ;
#264 = DIRECTION ( 'NONE',  ( -1.000000000000000000, 0.0000000000000000000, 0.0000000000000000000 ) ) ;
#265 = ORIENTED_EDGE ( 'NONE', *, *, #125, .T. ) ;
#266 = SHAPE_DEFINITION_REPRESENTATION ( #214, #369 ) ;
#267 = ADVANCED_FACE ( 'NONE', ( #28 ), #348, .T. ) ;
#268 = SURFACE_STYLE_USAGE ( .BOTH. , #233 ) ;
#269 = FACE_OUTER_BOUND ( 'NONE', #188, .T. ) ;
#270 = ORIENTED_EDGE ( 'NONE', *, *, #378, .T. ) ;
#271 = CARTESIAN_POINT ( 'NONE',  ( 0.01968303149999999294, 2.410476152399151743E-18, 0.03937000000000000222 ) ) ;
#272 = ORIENTED_EDGE ( 'NONE', *, *, #92, .F. ) ;
#273 = ORIENTED_EDGE ( 'NONE', *, *, #192, .F. ) ;
#274 = ORIENTED_EDGE ( 'NONE', *, *, #288, .T. ) ;
#275 = CIRCLE ( 'NONE', #109, 0.01870100000000009602 ) ;
#276 = CARTESIAN_POINT ( 'NONE',  ( 0.0000000000000000000, 0.0000000000000000000, 2.244094000000000033 ) ) ;
#277 = EDGE_CURVE ( 'NONE', #185, #29, #252, .T. ) ;
#278 = CARTESIAN_POINT ( 'NONE',  ( 0.0000000000000000000, 0.0000000000000000000, 0.0000000000000000000 ) ) ;
#279 = EDGE_LOOP ( 'NONE', ( #34, #70 ) ) ;
#280 = ORIENTED_EDGE ( 'NONE', *, *, #92, .T. ) ;
#281 = DIRECTION ( 'NONE',  ( -0.0000000000000000000, -0.0000000000000000000, -1.000000000000000000 ) ) ;
#282 = DIMENSIONAL_EXPONENTS ( 1.000000000000000000, 0.0000000000000000000, 0.0000000000000000000, 0.0000000000000000000, 0.0000000000000000000, 0.0000000000000000000, 0.0000000000000000000 ) ;
#283 = LINE ( 'NONE', #105, #194 ) ;
#284 = AXIS2_PLACEMENT_3D ( 'NONE', #365, #254, #367 ) ;
#285 = CIRCLE ( 'NONE', #51, 0.01968303149999999294 ) ;
#286 = DIRECTION ( 'NONE',  ( -1.000000000000000000, 0.0000000000000000000, 0.0000000000000000000 ) ) ;
#287 = FACE_OUTER_BOUND ( 'NONE', #145, .T. ) ;
#288 = EDGE_CURVE ( 'NONE', #174, #112, #152, .T. ) ;
#289 = DIRECTION ( 'NONE',  ( -1.000000000000000000, 0.0000000000000000000, 0.0000000000000000000 ) ) ;
#290 = CIRCLE ( 'NONE', #229, 0.1031100000000002570 ) ;
#291 = DIRECTION ( 'NONE',  ( -0.0000000000000000000, -0.0000000000000000000, -1.000000000000000000 ) ) ;
#292 = EDGE_LOOP ( 'NONE', ( #274, #89, #221, #72 ) ) ;
#293 = DIRECTION ( 'NONE',  ( -0.0000000000000000000, -0.0000000000000000000, -1.000000000000000000 ) ) ;
#294 = DIRECTION ( 'NONE',  ( 0.1736481776669301647, 2.126576849575769450E-17, -0.9848077530122080203 ) ) ;
#295 = VERTEX_POINT ( 'NONE', #209 ) ;
#296 =( GEOMETRIC_REPRESENTATION_CONTEXT ( 3 ) GLOBAL_UNCERTAINTY_ASSIGNED_CONTEXT ( ( #73 ) ) GLOBAL_UNIT_ASSIGNED_CONTEXT ( ( #249, #184, #305 ) ) REPRESENTATION_CONTEXT ( 'NONE', 'WORKASPACE' ) );
#297 = DIRECTION ( 'NONE',  ( -1.000000000000000000, 0.0000000000000000000, 0.0000000000000000000 ) ) ;
#298 = FILL_AREA_STYLE ('',( #232 ) ) ;
#299 = ORIENTED_EDGE ( 'NONE', *, *, #175, .T. ) ;
#300 = EDGE_LOOP ( 'NONE', ( #280, #265, #170, #183 ) ) ;
#301 = LINE ( 'NONE', #69, #4 ) ;
#302 = ORIENTED_EDGE ( 'NONE', *, *, #6, .F. ) ;
#303 = CIRCLE ( 'NONE', #376, 0.1181100000000000066 ) ;
#304 = DIMENSIONAL_EXPONENTS ( 1.000000000000000000, 0.0000000000000000000, 0.0000000000000000000, 0.0000000000000000000, 0.0000000000000000000, 0.0000000000000000000, 0.0000000000000000000 ) ;
#305 =( NAMED_UNIT ( * ) SI_UNIT ( $, .STERADIAN. ) SOLID_ANGLE_UNIT ( ) );
#306 = DIRECTION ( 'NONE',  ( -1.000000000000000000, 0.0000000000000000000, 0.0000000000000000000 ) ) ;
#307 = CARTESIAN_POINT ( 'NONE',  ( 0.0000000000000000000, 0.0000000000000000000, 0.0000000000000000000 ) ) ;
#308 = DIRECTION ( 'NONE',  ( -0.0000000000000000000, -0.0000000000000000000, -1.000000000000000000 ) ) ;
#309 = ORIENTED_EDGE ( 'NONE', *, *, #361, .F. ) ;
#310 = COLOUR_RGB ( '',0.7921568627450980005, 0.8196078431372548767, 0.9333333333333333481 ) ;
#311 = CARTESIAN_POINT ( 'NONE',  ( -0.01870100000000005092, 0.0000000000000000000, 0.0000000000000000000 ) ) ;
#312 = ADVANCED_FACE ( 'NONE', ( #150 ), #319, .T. ) ;
#313 = DIRECTION ( 'NONE',  ( -0.0000000000000000000, 0.0000000000000000000, -1.000000000000000000 ) ) ;
#314 = FACE_OUTER_BOUND ( 'NONE', #102, .T. ) ;
#315 = LINE ( 'NONE', #52, #116 ) ;
#316 = DIRECTION ( 'NONE',  ( -0.0000000000000000000, -0.0000000000000000000, -1.000000000000000000 ) ) ;
#317 = CARTESIAN_POINT ( 'NONE',  ( 0.0000000000000000000, 0.0000000000000000000, 2.229093999999999465 ) ) ;
#318 = CONICAL_SURFACE ( 'NONE', #187, 0.1031100000000002570, 0.7853981633974318477 ) ;
#319 = PLANE ( 'NONE',  #371 ) ;
#320 = VERTEX_POINT ( 'NONE', #379 ) ;
#321 = EDGE_CURVE ( 'NONE', #234, #141, #173, .T. ) ;
#322 = CONICAL_SURFACE ( 'NONE', #39, 0.01968303149999999294, 0.1745329251994327535 ) ;
#323 =( CONVERSION_BASED_UNIT ( 'INCH', #30 ) LENGTH_UNIT ( ) NAMED_UNIT ( #304 ) );
#324 = ORIENTED_EDGE ( 'NONE', *, *, #171, .T. ) ;
#325 = ORIENTED_EDGE ( 'NONE', *, *, #81, .F. ) ;
#326 = DIRECTION ( 'NONE',  ( -0.0000000000000000000, -0.0000000000000000000, -1.000000000000000000 ) ) ;
#327 = ORIENTED_EDGE ( 'NONE', *, *, #237, .T. ) ;
#328 = ADVANCED_FACE ( 'NONE', ( #269 ), #318, .T. ) ;
#329 =( LENGTH_UNIT ( ) NAMED_UNIT ( * ) SI_UNIT ( $, .METRE. ) );
#330 = AXIS2_PLACEMENT_3D ( 'NONE', #53, #202, #370 ) ;
#331 = DIRECTION ( 'NONE',  ( -1.000000000000000000, 0.0000000000000000000, 0.0000000000000000000 ) ) ;
#332 = CIRCLE ( 'NONE', #46, 0.01870100000000000581 ) ;
#333 = CARTESIAN_POINT ( 'NONE',  ( 0.0000000000000000000, 0.0000000000000000000, 0.03937000000000000222 ) ) ;
#334 = ORIENTED_EDGE ( 'NONE', *, *, #120, .T. ) ;
#335 = ORIENTED_EDGE ( 'NONE', *, *, #261, .T. ) ;
#336 = PRODUCT_DEFINITION ( 'UNKNOWN', '', #356, #78 ) ;
#337 = CARTESIAN_POINT ( 'NONE',  ( 0.1181100000000000066, 1.446430334472939084E-17, 2.244094000000000033 ) ) ;
#338 = VECTOR ( 'NONE', #294, 39.37007874015748854 ) ;
#339 = LINE ( 'NONE', #21, #245 ) ;
#340 = CARTESIAN_POINT ( 'NONE',  ( 0.0000000000000000000, 0.0000000000000000000, 0.04493937739224183880 ) ) ;
#341 = ADVANCED_FACE ( 'NONE', ( #354 ), #121, .T. ) ;
#342 = DIRECTION ( 'NONE',  ( -0.0000000000000000000, -0.0000000000000000000, -1.000000000000000000 ) ) ;
#343 = MECHANICAL_DESIGN_GEOMETRIC_PRESENTATION_REPRESENTATION (  '', ( #179 ), #100 ) ;
#344 = CARTESIAN_POINT ( 'NONE',  ( -0.01968303149999999294, 0.0000000000000000000, 0.03937000000000000222 ) ) ;
#345 = DIRECTION ( 'NONE',  ( -0.0000000000000000000, -0.0000000000000000000, -1.000000000000000000 ) ) ;
#346 = FACE_OUTER_BOUND ( 'NONE', #300, .T. ) ;
#347 = CONICAL_SURFACE ( 'NONE', #186, 0.1031100000000002570, 0.7853981633974318477 ) ;
#348 = CONICAL_SURFACE ( 'NONE', #200, 0.01968303149999999294, 0.1745329251994327535 ) ;
#349 = DIRECTION ( 'NONE',  ( 1.000000000000000000, 0.0000000000000000000, 0.0000000000000000000 ) ) ;
#350 = ORIENTED_EDGE ( 'NONE', *, *, #361, .T. ) ;
#351 = CYLINDRICAL_SURFACE ( 'NONE', #211, 0.01968303149999999294 ) ;
#352 = ORIENTED_EDGE ( 'NONE', *, *, #54, .T. ) ;
#353 = ADVANCED_FACE ( 'NONE', ( #45 ), #219, .T. ) ;
#354 = FACE_OUTER_BOUND ( 'NONE', #243, .T. ) ;
#355 = ORIENTED_EDGE ( 'NONE', *, *, #113, .T. ) ;
#356 = PRODUCT_DEFINITION_FORMATION_WITH_SPECIFIED_SOURCE ( 'ANY', '', #257, .NOT_KNOWN. ) ;
#357 = ORIENTED_EDGE ( 'NONE', *, *, #6, .T. ) ;
#358 = LENGTH_MEASURE_WITH_UNIT ( LENGTH_MEASURE( 0.02539999999999999897 ), #329 );
#359 = CARTESIAN_POINT ( 'NONE',  ( -0.01870100000000009602, 0.0000000000000000000, 0.7874019999999999353 ) ) ;
#360 = CARTESIAN_POINT ( 'NONE',  ( 0.1181100000000000066, 1.446430334472939084E-17, 0.7874019999999998243 ) ) ;
#361 = EDGE_CURVE ( 'NONE', #255, #141, #285, .T. ) ;
#362 = DIRECTION ( 'NONE',  ( 1.000000000000000000, 0.0000000000000000000, 0.0000000000000000000 ) ) ;
#363 = CIRCLE ( 'NONE', #199, 0.1031100000000002570 ) ;
#364 = FILL_AREA_STYLE_COLOUR ( '', #178 ) ;
#365 = CARTESIAN_POINT ( 'NONE',  ( 0.0000000000000000000, 0.0000000000000000000, 0.7874019999999999353 ) ) ;
#366 = AXIS2_PLACEMENT_3D ( 'NONE', #340, #24, #79 ) ;
#367 = DIRECTION ( 'NONE',  ( -1.000000000000000000, 0.0000000000000000000, 0.0000000000000000000 ) ) ;
#368 = VERTEX_POINT ( 'NONE', #360 ) ;
#369 = ADVANCED_BREP_SHAPE_REPRESENTATION ( 'Micro_MMBM-010-20X', ( #241, #246 ), #296 ) ;
#370 = DIRECTION ( 'NONE',  ( -1.000000000000000000, 0.0000000000000000000, 0.0000000000000000000 ) ) ;
#371 = AXIS2_PLACEMENT_3D ( 'NONE', #140, #203, #59 ) ;
#372 = FACE_BOUND ( 'NONE', #64, .T. ) ;
#373 = APPLICATION_CONTEXT ( 'automotive_design' ) ;
#374 = DIRECTION ( 'NONE',  ( -0.0000000000000000000, -0.0000000000000000000, -1.000000000000000000 ) ) ;
#375 = DIRECTION ( 'NONE',  ( 0.7071067811865358044, 8.659560562354788645E-17, -0.7071067811865590080 ) ) ;
#376 = AXIS2_PLACEMENT_3D ( 'NONE', #83, #293, #55 ) ;
#377 = CARTESIAN_POINT ( 'NONE',  ( 0.1031100000000002570, 1.262733314600838667E-17, 2.244094000000000033 ) ) ;
#378 = EDGE_CURVE ( 'NONE', #141, #29, #301, .T. ) ;
#379 = CARTESIAN_POINT ( 'NONE',  ( -0.1031100000000002570, 0.0000000000000000000, 2.244094000000000033 ) ) ;
ENDSEC;
END-ISO-10303-21;
