ISO-10303-21;
HEADER;
FILE_DESCRIPTION (( 'STEP AP214' ),
    '1' );
FILE_NAME ('59526.STEP',
    '2023-07-24T15:09:08',
    ( '' ),
    ( '' ),
    'SwSTEP 2.0',
    'SolidWorks 2023',
    '' );
FILE_SCHEMA (( 'AUTOMOTIVE_DESIGN' ));
ENDSEC;

DATA;
#1 = ORIENTED_EDGE ( 'NONE', *, *, #169, .T. ) ;
#2 = FILL_AREA_STYLE ('',( #256 ) ) ;
#3 = VECTOR ( 'NONE', #178, 1000.000000000000000 ) ;
#4 = AXIS2_PLACEMENT_3D ( 'NONE', #300, #41, #128 ) ;
#5 = DIRECTION ( 'NONE',  ( -1.208874916035850209E-16, 1.000000000000000000, -0.000000000000000000 ) ) ;
#6 = CIRCLE ( 'NONE', #114, 6.000000000000000000 ) ;
#7 = DIRECTION ( 'NONE',  ( 0.000000000000000000, 0.000000000000000000, -1.000000000000000000 ) ) ;
#8 =( NAMED_UNIT ( * ) SI_UNIT ( $, .STERADIAN. ) SOLID_ANGLE_UNIT ( ) );
#9 =( NAMED_UNIT ( * ) PLANE_ANGLE_UNIT ( ) SI_UNIT ( $, .RADIAN. ) );
#10 = EDGE_CURVE ( 'NONE', #189, #49, #369, .T. ) ;
#11 = FACE_OUTER_BOUND ( 'NONE', #107, .T. ) ;
#12 = COLOUR_RGB ( '',1.000000000000000000, 0.000000000000000000, 0.000000000000000000 ) ;
#13 = CARTESIAN_POINT ( 'NONE',  ( 5.421010862427522170E-15, 18.00000000000000355, 0.000000000000000000 ) ) ;
#14 = EDGE_CURVE ( 'NONE', #154, #316, #191, .T. ) ;
#15 = SURFACE_STYLE_USAGE ( .BOTH. , #40 ) ;
#16 = DIRECTION ( 'NONE',  ( 1.000000000000000000, 0.000000000000000000, 0.000000000000000000 ) ) ;
#17 = DIRECTION ( 'NONE',  ( -0.000000000000000000, -1.000000000000000000, -0.000000000000000000 ) ) ;
#18 = FILL_AREA_STYLE_COLOUR ( '', #238 ) ;
#19 = DIRECTION ( 'NONE',  ( 0.000000000000000000, 0.000000000000000000, -1.000000000000000000 ) ) ;
#20 = FACE_OUTER_BOUND ( 'NONE', #252, .T. ) ;
#21 = CIRCLE ( 'NONE', #281, 5.500000000000000000 ) ;
#22 = SURFACE_STYLE_FILL_AREA ( #310 ) ;
#23 = STYLED_ITEM ( 'NONE', ( #119 ), #318 ) ;
#24 = DIRECTION ( 'NONE',  ( -0.000000000000000000, -1.000000000000000000, -0.000000000000000000 ) ) ;
#25 = CIRCLE ( 'NONE', #67, 6.000000000000001776 ) ;
#26 = CARTESIAN_POINT ( 'NONE',  ( -1.469576158976823750E-15, 75.00000000000000000, 0.000000000000000000 ) ) ;
#27 = EDGE_CURVE ( 'NONE', #312, #132, #273, .T. ) ;
#28 = FACE_OUTER_BOUND ( 'NONE', #254, .T. ) ;
#29 = ORIENTED_EDGE ( 'NONE', *, *, #248, .F. ) ;
#30 = CARTESIAN_POINT ( 'NONE',  ( 7.347880794884119736E-16, 0.000000000000000000, 6.000000000000000000 ) ) ;
#31 = FILL_AREA_STYLE ('',( #185 ) ) ;
#32 = EDGE_CURVE ( 'NONE', #284, #96, #171, .T. ) ;
#33 = CYLINDRICAL_SURFACE ( 'NONE', #277, 6.000000000000000000 ) ;
#34 = UNCERTAINTY_MEASURE_WITH_UNIT (LENGTH_MEASURE( 1.000000000000000082E-05 ), #305, 'distance_accuracy_value', 'NONE');
#35 = PLANE ( 'NONE',  #90 ) ;
#36 = AXIS2_PLACEMENT_3D ( 'NONE', #345, #323, #348 ) ;
#37 = APPLICATION_PROTOCOL_DEFINITION ( 'draft international standard', 'automotive_design', 1998, #177 ) ;
#38 = ADVANCED_FACE ( 'NONE', ( #28 ), #138, .T. ) ;
#39 = CARTESIAN_POINT ( 'NONE',  ( 5.421010862427522170E-15, 18.00000000000000000, 0.000000000000000000 ) ) ;
#40 = SURFACE_SIDE_STYLE ('',( #91 ) ) ;
#41 = DIRECTION ( 'NONE',  ( -1.208874916035850209E-16, 1.000000000000000000, -0.000000000000000000 ) ) ;
#42 = DIRECTION ( 'NONE',  ( -0.000000000000000000, -1.000000000000000000, -0.000000000000000000 ) ) ;
#43 = FILL_AREA_STYLE ('',( #18 ) ) ;
#44 =( NAMED_UNIT ( * ) SI_UNIT ( $, .STERADIAN. ) SOLID_ANGLE_UNIT ( ) );
#45 = EDGE_CURVE ( 'NONE', #132, #172, #146, .T. ) ;
#46 = CARTESIAN_POINT ( 'NONE',  ( -6.000000000000003553, 75.00000000000000000, 0.000000000000000000 ) ) ;
#47 = AXIS2_PLACEMENT_3D ( 'NONE', #341, #104, #85 ) ;
#48 = SURFACE_SIDE_STYLE ('',( #22 ) ) ;
#49 = VERTEX_POINT ( 'NONE', #201 ) ;
#50 = ORIENTED_EDGE ( 'NONE', *, *, #363, .F. ) ;
#51 =( NAMED_UNIT ( * ) PLANE_ANGLE_UNIT ( ) SI_UNIT ( $, .RADIAN. ) );
#52 = ORIENTED_EDGE ( 'NONE', *, *, #248, .T. ) ;
#53 = AXIS2_PLACEMENT_3D ( 'NONE', #367, #55, #288 ) ;
#54 = EDGE_LOOP ( 'NONE', ( #165, #274 ) ) ;
#55 = DIRECTION ( 'NONE',  ( -0.000000000000000000, -1.000000000000000000, -0.000000000000000000 ) ) ;
#56 = CARTESIAN_POINT ( 'NONE',  ( -6.000000000000000000, 75.00000000000000000, 0.000000000000000000 ) ) ;
#57 = FILL_AREA_STYLE ('',( #88 ) ) ;
#58 = CIRCLE ( 'NONE', #253, 6.000000000000000000 ) ;
#59 = CARTESIAN_POINT ( 'NONE',  ( 0.000000000000000000, 0.000000000000000000, 0.000000000000000000 ) ) ;
#60 = LINE ( 'NONE', #298, #109 ) ;
#61 =( GEOMETRIC_REPRESENTATION_CONTEXT ( 3 ) GLOBAL_UNCERTAINTY_ASSIGNED_CONTEXT ( ( #225 ) ) GLOBAL_UNIT_ASSIGNED_CONTEXT ( ( #66, #9, #87 ) ) REPRESENTATION_CONTEXT ( 'NONE', 'WORKASPACE' ) );
#62 = CARTESIAN_POINT ( 'NONE',  ( 0.000000000000000000, 0.5000000000000000000, -6.000000000000000000 ) ) ;
#63 = CARTESIAN_POINT ( 'NONE',  ( -1.469576158976823750E-15, 75.00000000000000000, 0.000000000000000000 ) ) ;
#64 = DIRECTION ( 'NONE',  ( 1.000000000000000000, 1.208874916035850209E-16, 0.000000000000000000 ) ) ;
#65 = SURFACE_STYLE_FILL_AREA ( #57 ) ;
#66 =( LENGTH_UNIT ( ) NAMED_UNIT ( * ) SI_UNIT ( .MILLI., .METRE. ) );
#67 = AXIS2_PLACEMENT_3D ( 'NONE', #63, #174, #181 ) ;
#68 =( GEOMETRIC_REPRESENTATION_CONTEXT ( 3 ) GLOBAL_UNCERTAINTY_ASSIGNED_CONTEXT ( ( #264 ) ) GLOBAL_UNIT_ASSIGNED_CONTEXT ( ( #71, #302, #156 ) ) REPRESENTATION_CONTEXT ( 'NONE', 'WORKASPACE' ) );
#69 = DIRECTION ( 'NONE',  ( 0.000000000000000000, -0.000000000000000000, 1.000000000000000000 ) ) ;
#70 = CIRCLE ( 'NONE', #314, 6.000000000000000000 ) ;
#71 =( LENGTH_UNIT ( ) NAMED_UNIT ( * ) SI_UNIT ( .MILLI., .METRE. ) );
#72 = STYLED_ITEM ( 'NONE', ( #291 ), #129 ) ;
#73 = CARTESIAN_POINT ( 'NONE',  ( 5.999999999999996447, 75.00000000000000000, 7.347880794884117764E-16 ) ) ;
#74 = EDGE_CURVE ( 'NONE', #319, #154, #130, .T. ) ;
#75 = COLOUR_RGB ( '',0.7921568627450980005, 0.8196078431372548767, 0.9333333333333333481 ) ;
#76 = FILL_AREA_STYLE_COLOUR ( '', #203 ) ;
#77 = SURFACE_SIDE_STYLE ('',( #158 ) ) ;
#78 = FACE_OUTER_BOUND ( 'NONE', #54, .T. ) ;
#79 = SURFACE_SIDE_STYLE ('',( #335 ) ) ;
#80 = AXIS2_PLACEMENT_3D ( 'NONE', #278, #103, #69 ) ;
#81 = EDGE_LOOP ( 'NONE', ( #211, #173, #282, #29 ) ) ;
#82 = ORIENTED_EDGE ( 'NONE', *, *, #14, .T. ) ;
#83 =( NAMED_UNIT ( * ) SI_UNIT ( $, .STERADIAN. ) SOLID_ANGLE_UNIT ( ) );
#84 = ORIENTED_EDGE ( 'NONE', *, *, #32, .F. ) ;
#85 = DIRECTION ( 'NONE',  ( -1.000000000000000000, 0.000000000000000000, 0.000000000000000000 ) ) ;
#86 = STYLED_ITEM ( 'NONE', ( #269 ), #332 ) ;
#87 =( NAMED_UNIT ( * ) SI_UNIT ( $, .STERADIAN. ) SOLID_ANGLE_UNIT ( ) );
#88 = FILL_AREA_STYLE_COLOUR ( '', #12 ) ;
#89 = CARTESIAN_POINT ( 'NONE',  ( 0.000000000000000000, 0.5000000000000000000, 0.000000000000000000 ) ) ;
#90 = AXIS2_PLACEMENT_3D ( 'NONE', #39, #267, #236 ) ;
#91 = SURFACE_STYLE_FILL_AREA ( #31 ) ;
#92 =( LENGTH_UNIT ( ) NAMED_UNIT ( * ) SI_UNIT ( .MILLI., .METRE. ) );
#93 = MECHANICAL_DESIGN_GEOMETRIC_PRESENTATION_REPRESENTATION (  '', ( #213 ), #159 ) ;
#94 = DIRECTION ( 'NONE',  ( 0.000000000000000000, 0.000000000000000000, -1.000000000000000000 ) ) ;
#95 = PRESENTATION_STYLE_ASSIGNMENT (( #331 ) ) ;
#96 = VERTEX_POINT ( 'NONE', #139 ) ;
#97 = CARTESIAN_POINT ( 'NONE',  ( 6.735557395310442023E-16, 0.5000000000000000000, 5.500000000000000000 ) ) ;
#98 = TOROIDAL_SURFACE ( 'NONE', #299, 5.500000000000000000, 0.5000000000000002220 ) ;
#99 = EDGE_CURVE ( 'NONE', #49, #189, #25, .T. ) ;
#100 = DIRECTION ( 'NONE',  ( -1.224646799147353454E-16, 0.000000000000000000, -1.000000000000000000 ) ) ;
#101 =( NAMED_UNIT ( * ) PLANE_ANGLE_UNIT ( ) SI_UNIT ( $, .RADIAN. ) );
#102 = AXIS2_PLACEMENT_3D ( 'NONE', #322, #115, #325 ) ;
#103 = DIRECTION ( 'NONE',  ( 0.000000000000000000, 1.000000000000000000, 0.000000000000000000 ) ) ;
#104 = DIRECTION ( 'NONE',  ( -1.208874916035850209E-16, 1.000000000000000000, -0.000000000000000000 ) ) ;
#105 = ORIENTED_EDGE ( 'NONE', *, *, #113, .T. ) ;
#106 = ORIENTED_EDGE ( 'NONE', *, *, #144, .F. ) ;
#107 = EDGE_LOOP ( 'NONE', ( #251, #303, #223, #255 ) ) ;
#108 = ADVANCED_FACE ( 'NONE', ( #294 ), #35, .F. ) ;
#109 = VECTOR ( 'NONE', #17, 1000.000000000000000 ) ;
#110 = PRESENTATION_LAYER_ASSIGNMENT (  '', '', ( #233 ) ) ;
#111 = CARTESIAN_POINT ( 'NONE',  ( 0.000000000000000000, 0.000000000000000000, 0.000000000000000000 ) ) ;
#112 = EDGE_LOOP ( 'NONE', ( #285, #1, #328, #106 ) ) ;
#113 = EDGE_CURVE ( 'NONE', #96, #284, #162, .T. ) ;
#114 = AXIS2_PLACEMENT_3D ( 'NONE', #230, #42, #355 ) ;
#115 = DIRECTION ( 'NONE',  ( -1.000000000000000000, 0.000000000000000000, 0.000000000000000000 ) ) ;
#116 = FACE_OUTER_BOUND ( 'NONE', #195, .T. ) ;
#117 =( GEOMETRIC_REPRESENTATION_CONTEXT ( 3 ) GLOBAL_UNCERTAINTY_ASSIGNED_CONTEXT ( ( #118 ) ) GLOBAL_UNIT_ASSIGNED_CONTEXT ( ( #209, #237, #8 ) ) REPRESENTATION_CONTEXT ( 'NONE', 'WORKASPACE' ) );
#118 = UNCERTAINTY_MEASURE_WITH_UNIT (LENGTH_MEASURE( 1.000000000000000082E-05 ), #209, 'distance_accuracy_value', 'NONE');
#119 = PRESENTATION_STYLE_ASSIGNMENT (( #15 ) ) ;
#120 = FILL_AREA_STYLE_COLOUR ( '', #75 ) ;
#121 = PLANE ( 'NONE',  #80 ) ;
#122 = ORIENTED_EDGE ( 'NONE', *, *, #99, .F. ) ;
#123 = SHAPE_DEFINITION_REPRESENTATION ( #286, #228 ) ;
#124 = PRODUCT_DEFINITION ( 'UNKNOWN', '', #206, #193 ) ;
#125 = CLOSED_SHELL ( 'NONE', ( #204, #108, #221, #258 ) ) ;
#126 = SURFACE_STYLE_USAGE ( .BOTH. , #192 ) ;
#127 = DIRECTION ( 'NONE',  ( -1.000000000000000000, 0.000000000000000000, 0.000000000000000000 ) ) ;
#128 = DIRECTION ( 'NONE',  ( -1.000000000000000000, 0.000000000000000000, 0.000000000000000000 ) ) ;
#129 = ADVANCED_FACE ( 'NONE', ( #11 ), #153, .T. ) ;
#130 = CIRCLE ( 'NONE', #102, 0.5000000000000004441 ) ;
#131 = AXIS2_PLACEMENT_3D ( 'NONE', #293, #205, #64 ) ;
#132 = VERTEX_POINT ( 'NONE', #347 ) ;
#133 = EDGE_LOOP ( 'NONE', ( #337, #338, #315, #222 ) ) ;
#134 = EDGE_CURVE ( 'NONE', #312, #319, #60, .T. ) ;
#135 = DIRECTION ( 'NONE',  ( 0.000000000000000000, 0.000000000000000000, -1.000000000000000000 ) ) ;
#136 =( LENGTH_UNIT ( ) NAMED_UNIT ( * ) SI_UNIT ( .MILLI., .METRE. ) );
#137 = ORIENTED_EDGE ( 'NONE', *, *, #144, .T. ) ;
#138 = PLANE ( 'NONE',  #36 ) ;
#139 = CARTESIAN_POINT ( 'NONE',  ( 6.000000000000000000, 18.00000000000000355, 7.347880794884119736E-16 ) ) ;
#140 =( NAMED_UNIT ( * ) PLANE_ANGLE_UNIT ( ) SI_UNIT ( $, .RADIAN. ) );
#141 = COLOUR_RGB ( '',1.000000000000000000, 0.000000000000000000, 0.000000000000000000 ) ;
#142 = DIRECTION ( 'NONE',  ( 0.000000000000000000, 0.000000000000000000, -1.000000000000000000 ) ) ;
#143 = FILL_AREA_STYLE_COLOUR ( '', #141 ) ;
#144 = EDGE_CURVE ( 'NONE', #284, #189, #234, .T. ) ;
#145 = DIRECTION ( 'NONE',  ( 0.000000000000000000, 0.000000000000000000, -1.000000000000000000 ) ) ;
#146 = LINE ( 'NONE', #30, #330 ) ;
#147 = PRESENTATION_LAYER_ASSIGNMENT (  '', '', ( #358 ) ) ;
#148 = CARTESIAN_POINT ( 'NONE',  ( 0.000000000000000000, 0.5000000000000000000, 0.000000000000000000 ) ) ;
#149 = MECHANICAL_DESIGN_GEOMETRIC_PRESENTATION_REPRESENTATION (  '', ( #86 ), #283 ) ;
#150 = SURFACE_SIDE_STYLE ('',( #188 ) ) ;
#151 = PRESENTATION_STYLE_ASSIGNMENT (( #155 ) ) ;
#152 = DIRECTION ( 'NONE',  ( -0.000000000000000000, -1.000000000000000000, -0.000000000000000000 ) ) ;
#153 = TOROIDAL_SURFACE ( 'NONE', #317, 5.500000000000000000, 0.5000000000000002220 ) ;
#154 = VERTEX_POINT ( 'NONE', #263 ) ;
#155 = SURFACE_STYLE_USAGE ( .BOTH. , #301 ) ;
#156 =( NAMED_UNIT ( * ) SI_UNIT ( $, .STERADIAN. ) SOLID_ANGLE_UNIT ( ) );
#157 = UNCERTAINTY_MEASURE_WITH_UNIT (LENGTH_MEASURE( 1.000000000000000082E-05 ), #306, 'distance_accuracy_value', 'NONE');
#158 = SURFACE_STYLE_FILL_AREA ( #216 ) ;
#159 =( GEOMETRIC_REPRESENTATION_CONTEXT ( 3 ) GLOBAL_UNCERTAINTY_ASSIGNED_CONTEXT ( ( #360 ) ) GLOBAL_UNIT_ASSIGNED_CONTEXT ( ( #275, #353, #361 ) ) REPRESENTATION_CONTEXT ( 'NONE', 'WORKASPACE' ) );
#160 = CARTESIAN_POINT ( 'NONE',  ( 7.347880794884119736E-16, 0.5000000000000000000, 6.000000000000000000 ) ) ;
#161 = CARTESIAN_POINT ( 'NONE',  ( 0.000000000000000000, 18.00000000000000000, 0.000000000000000000 ) ) ;
#162 = CIRCLE ( 'NONE', #175, 5.999999999999994671 ) ;
#163 = STYLED_ITEM ( 'NONE', ( #194 ), #250 ) ;
#164 = SURFACE_STYLE_USAGE ( .BOTH. , #48 ) ;
#165 = ORIENTED_EDGE ( 'NONE', *, *, #10, .T. ) ;
#166 = PRESENTATION_LAYER_ASSIGNMENT (  '', '', ( #86 ) ) ;
#167 = ADVANCED_FACE ( 'NONE', ( #116 ), #121, .T. ) ;
#168 = PRESENTATION_STYLE_ASSIGNMENT (( #196 ) ) ;
#169 = EDGE_CURVE ( 'NONE', #96, #49, #309, .T. ) ;
#170 = DIRECTION ( 'NONE',  ( -1.000000000000000000, 0.000000000000000000, 0.000000000000000000 ) ) ;
#171 = CIRCLE ( 'NONE', #47, 5.999999999999994671 ) ;
#172 = VERTEX_POINT ( 'NONE', #160 ) ;
#173 = ORIENTED_EDGE ( 'NONE', *, *, #363, .T. ) ;
#174 = DIRECTION ( 'NONE',  ( -1.208874916035850209E-16, 1.000000000000000000, -0.000000000000000000 ) ) ;
#175 = AXIS2_PLACEMENT_3D ( 'NONE', #13, #5, #199 ) ;
#176 = SURFACE_STYLE_USAGE ( .BOTH. , #321 ) ;
#177 = APPLICATION_CONTEXT ( 'automotive_design' ) ;
#178 = DIRECTION ( 'NONE',  ( -1.208874916035850209E-16, 1.000000000000000000, -0.000000000000000000 ) ) ;
#179 = FACE_OUTER_BOUND ( 'NONE', #133, .T. ) ;
#180 = UNCERTAINTY_MEASURE_WITH_UNIT (LENGTH_MEASURE( 1.000000000000000082E-05 ), #92, 'distance_accuracy_value', 'NONE');
#181 = DIRECTION ( 'NONE',  ( -1.000000000000000000, 0.000000000000000000, 0.000000000000000000 ) ) ;
#182 = CARTESIAN_POINT ( 'NONE',  ( -5.999999999999989342, 18.00000000000000355, 0.000000000000000000 ) ) ;
#183 = EDGE_CURVE ( 'NONE', #132, #312, #58, .T. ) ;
#184 =( NAMED_UNIT ( * ) SI_UNIT ( $, .STERADIAN. ) SOLID_ANGLE_UNIT ( ) );
#185 = FILL_AREA_STYLE_COLOUR ( '', #352 ) ;
#186 = EDGE_CURVE ( 'NONE', #172, #316, #290, .T. ) ;
#187 = DIRECTION ( 'NONE',  ( 1.000000000000000000, 0.000000000000000000, -1.224646799147353207E-16 ) ) ;
#188 = SURFACE_STYLE_FILL_AREA ( #362 ) ;
#189 = VERTEX_POINT ( 'NONE', #46 ) ;
#190 = CYLINDRICAL_SURFACE ( 'NONE', #349, 5.999999999999998224 ) ;
#191 = CIRCLE ( 'NONE', #53, 5.500000000000000000 ) ;
#192 = SURFACE_SIDE_STYLE ('',( #218 ) ) ;
#193 = PRODUCT_DEFINITION_CONTEXT ( 'detailed design', #177, 'design' ) ;
#194 = PRESENTATION_STYLE_ASSIGNMENT (( #164 ) ) ;
#195 = EDGE_LOOP ( 'NONE', ( #231, #357 ) ) ;
#196 = SURFACE_STYLE_USAGE ( .BOTH. , #79 ) ;
#197 = ORIENTED_EDGE ( 'NONE', *, *, #134, .T. ) ;
#198 = DIRECTION ( 'NONE',  ( -1.208874916035850209E-16, 1.000000000000000000, -0.000000000000000000 ) ) ;
#199 = DIRECTION ( 'NONE',  ( -1.000000000000000000, 0.000000000000000000, 0.000000000000000000 ) ) ;
#200 = CYLINDRICAL_SURFACE ( 'NONE', #307, 6.000000000000000000 ) ;
#201 = CARTESIAN_POINT ( 'NONE',  ( 6.000000000000000000, 75.00000000000000000, 7.347880794884119736E-16 ) ) ;
#202 = DIRECTION ( 'NONE',  ( -0.000000000000000000, -1.000000000000000000, -0.000000000000000000 ) ) ;
#203 = COLOUR_RGB ( '',1.000000000000000000, 0.000000000000000000, 0.000000000000000000 ) ;
#204 = ADVANCED_FACE ( 'NONE', ( #215 ), #190, .T. ) ;
#205 = DIRECTION ( 'NONE',  ( 1.208874916035850209E-16, -1.000000000000000000, 0.000000000000000000 ) ) ;
#206 = PRODUCT_DEFINITION_FORMATION_WITH_SPECIFIED_SOURCE ( 'ANY', '', #266, .NOT_KNOWN. ) ;
#207 =( NAMED_UNIT ( * ) SI_UNIT ( $, .STERADIAN. ) SOLID_ANGLE_UNIT ( ) );
#208 = PRODUCT_CONTEXT ( 'NONE', #344, 'mechanical' ) ;
#209 =( LENGTH_UNIT ( ) NAMED_UNIT ( * ) SI_UNIT ( .MILLI., .METRE. ) );
#210 = DIRECTION ( 'NONE',  ( 0.000000000000000000, 0.000000000000000000, -1.000000000000000000 ) ) ;
#211 = ORIENTED_EDGE ( 'NONE', *, *, #186, .F. ) ;
#212 = CARTESIAN_POINT ( 'NONE',  ( 0.000000000000000000, 0.000000000000000000, 0.000000000000000000 ) ) ;
#213 = STYLED_ITEM ( 'NONE', ( #151 ), #368 ) ;
#214 = DIRECTION ( 'NONE',  ( -1.208874916035850209E-16, 1.000000000000000000, -0.000000000000000000 ) ) ;
#215 = FACE_OUTER_BOUND ( 'NONE', #112, .T. ) ;
#216 = FILL_AREA_STYLE ('',( #143 ) ) ;
#217 = AXIS2_PLACEMENT_3D ( 'NONE', #26, #198, #170 ) ;
#218 = SURFACE_STYLE_FILL_AREA ( #43 ) ;
#219 = PRESENTATION_LAYER_ASSIGNMENT (  '', '', ( #213 ) ) ;
#220 = FACE_OUTER_BOUND ( 'NONE', #81, .T. ) ;
#221 = ADVANCED_FACE ( 'NONE', ( #20 ), #245, .T. ) ;
#222 = ORIENTED_EDGE ( 'NONE', *, *, #134, .F. ) ;
#223 = ORIENTED_EDGE ( 'NONE', *, *, #14, .F. ) ;
#224 = STYLED_ITEM ( 'NONE', ( #168 ), #38 ) ;
#225 = UNCERTAINTY_MEASURE_WITH_UNIT (LENGTH_MEASURE( 1.000000000000000082E-05 ), #66, 'distance_accuracy_value', 'NONE');
#226 = EDGE_LOOP ( 'NONE', ( #240, #289, #197, #50 ) ) ;
#227 =( GEOMETRIC_REPRESENTATION_CONTEXT ( 3 ) GLOBAL_UNCERTAINTY_ASSIGNED_CONTEXT ( ( #351 ) ) GLOBAL_UNIT_ASSIGNED_CONTEXT ( ( #366, #140, #207 ) ) REPRESENTATION_CONTEXT ( 'NONE', 'WORKASPACE' ) );
#228 = ADVANCED_BREP_SHAPE_REPRESENTATION ( '59526', ( #368, #242, #339 ), #261 ) ;
#229 = ORIENTED_EDGE ( 'NONE', *, *, #113, .F. ) ;
#230 = CARTESIAN_POINT ( 'NONE',  ( 0.000000000000000000, 0.5000000000000000000, 0.000000000000000000 ) ) ;
#231 = ORIENTED_EDGE ( 'NONE', *, *, #27, .F. ) ;
#232 = MECHANICAL_DESIGN_GEOMETRIC_PRESENTATION_REPRESENTATION (  '', ( #224 ), #336 ) ;
#233 = STYLED_ITEM ( 'NONE', ( #329 ), #242 ) ;
#234 = LINE ( 'NONE', #56, #3 ) ;
#235 = PRESENTATION_LAYER_ASSIGNMENT (  '', '', ( #23 ) ) ;
#236 = DIRECTION ( 'NONE',  ( -1.000000000000000000, -1.208874916035850209E-16, 0.000000000000000000 ) ) ;
#237 =( NAMED_UNIT ( * ) PLANE_ANGLE_UNIT ( ) SI_UNIT ( $, .RADIAN. ) );
#238 = COLOUR_RGB ( '',0.7921568627450980005, 0.8196078431372548767, 0.9333333333333333481 ) ;
#239 = DIRECTION ( 'NONE',  ( -0.000000000000000000, -1.000000000000000000, -0.000000000000000000 ) ) ;
#240 = ORIENTED_EDGE ( 'NONE', *, *, #45, .F. ) ;
#241 = DIRECTION ( 'NONE',  ( 0.000000000000000000, 0.000000000000000000, -1.000000000000000000 ) ) ;
#242 = MANIFOLD_SOLID_BREP ( 'Revolve - Tool Body (Straight Shanked)', #125 ) ;
#243 =( GEOMETRIC_REPRESENTATION_CONTEXT ( 3 ) GLOBAL_UNCERTAINTY_ASSIGNED_CONTEXT ( ( #34 ) ) GLOBAL_UNIT_ASSIGNED_CONTEXT ( ( #305, #101, #44 ) ) REPRESENTATION_CONTEXT ( 'NONE', 'WORKASPACE' ) );
#244 =( NAMED_UNIT ( * ) PLANE_ANGLE_UNIT ( ) SI_UNIT ( $, .RADIAN. ) );
#245 = CYLINDRICAL_SURFACE ( 'NONE', #4, 5.999999999999998224 ) ;
#246 = UNCERTAINTY_MEASURE_WITH_UNIT (LENGTH_MEASURE( 1.000000000000000082E-05 ), #136, 'distance_accuracy_value', 'NONE');
#247 = PRESENTATION_LAYER_ASSIGNMENT (  '', '', ( #163 ) ) ;
#248 = EDGE_CURVE ( 'NONE', #316, #154, #21, .T. ) ;
#249 = VECTOR ( 'NONE', #280, 1000.000000000000000 ) ;
#250 = ADVANCED_FACE ( 'NONE', ( #220 ), #98, .T. ) ;
#251 = ORIENTED_EDGE ( 'NONE', *, *, #308, .T. ) ;
#252 = EDGE_LOOP ( 'NONE', ( #313, #105, #137, #122 ) ) ;
#253 = AXIS2_PLACEMENT_3D ( 'NONE', #161, #152, #241 ) ;
#254 = EDGE_LOOP ( 'NONE', ( #82, #52 ) ) ;
#255 = ORIENTED_EDGE ( 'NONE', *, *, #74, .F. ) ;
#256 = FILL_AREA_STYLE_COLOUR ( '', #265 ) ;
#257 = MECHANICAL_DESIGN_GEOMETRIC_PRESENTATION_REPRESENTATION (  '', ( #233 ), #68 ) ;
#258 = ADVANCED_FACE ( 'NONE', ( #78 ), #326, .F. ) ;
#259 = DIRECTION ( 'NONE',  ( -0.000000000000000000, -1.000000000000000000, -0.000000000000000000 ) ) ;
#260 = CARTESIAN_POINT ( 'NONE',  ( 7.041719095097280880E-16, 0.000000000000000000, 5.500000000000000000 ) ) ;
#261 =( GEOMETRIC_REPRESENTATION_CONTEXT ( 3 ) GLOBAL_UNCERTAINTY_ASSIGNED_CONTEXT ( ( #157 ) ) GLOBAL_UNIT_ASSIGNED_CONTEXT ( ( #306, #244, #184 ) ) REPRESENTATION_CONTEXT ( 'NONE', 'WORKASPACE' ) );
#262 = CARTESIAN_POINT ( 'NONE',  ( 0.000000000000000000, 18.00000000000000000, -6.000000000000000000 ) ) ;
#263 = CARTESIAN_POINT ( 'NONE',  ( 0.000000000000000000, 0.000000000000000000, -5.500000000000000000 ) ) ;
#264 = UNCERTAINTY_MEASURE_WITH_UNIT (LENGTH_MEASURE( 1.000000000000000082E-05 ), #71, 'distance_accuracy_value', 'NONE');
#265 = COLOUR_RGB ( '',1.000000000000000000, 0.000000000000000000, 0.000000000000000000 ) ;
#266 = PRODUCT ( '59526', '59526', '', ( #208 ) ) ;
#267 = DIRECTION ( 'NONE',  ( -1.208874916035850209E-16, 1.000000000000000000, 0.000000000000000000 ) ) ;
#268 = FACE_OUTER_BOUND ( 'NONE', #226, .T. ) ;
#269 = PRESENTATION_STYLE_ASSIGNMENT (( #333 ) ) ;
#270 = FILL_AREA_STYLE ('',( #120 ) ) ;
#271 = MECHANICAL_DESIGN_GEOMETRIC_PRESENTATION_REPRESENTATION (  '', ( #163 ), #227 ) ;
#272 = SURFACE_STYLE_FILL_AREA ( #270 ) ;
#273 = CIRCLE ( 'NONE', #343, 6.000000000000000000 ) ;
#274 = ORIENTED_EDGE ( 'NONE', *, *, #99, .T. ) ;
#275 =( LENGTH_UNIT ( ) NAMED_UNIT ( * ) SI_UNIT ( .MILLI., .METRE. ) );
#276 = CARTESIAN_POINT ( 'NONE',  ( 0.000000000000000000, 0.000000000000000000, 0.000000000000000000 ) ) ;
#277 = AXIS2_PLACEMENT_3D ( 'NONE', #111, #320, #145 ) ;
#278 = CARTESIAN_POINT ( 'NONE',  ( 0.000000000000000000, 18.00000000000000000, 0.000000000000000000 ) ) ;
#279 = PRODUCT_RELATED_PRODUCT_CATEGORY ( 'part', '', ( #266 ) ) ;
#280 = DIRECTION ( 'NONE',  ( -1.208874916035850209E-16, 1.000000000000000000, -0.000000000000000000 ) ) ;
#281 = AXIS2_PLACEMENT_3D ( 'NONE', #276, #365, #19 ) ;
#282 = ORIENTED_EDGE ( 'NONE', *, *, #74, .T. ) ;
#283 =( GEOMETRIC_REPRESENTATION_CONTEXT ( 3 ) GLOBAL_UNCERTAINTY_ASSIGNED_CONTEXT ( ( #246 ) ) GLOBAL_UNIT_ASSIGNED_CONTEXT ( ( #136, #51, #83 ) ) REPRESENTATION_CONTEXT ( 'NONE', 'WORKASPACE' ) );
#284 = VERTEX_POINT ( 'NONE', #182 ) ;
#285 = ORIENTED_EDGE ( 'NONE', *, *, #32, .T. ) ;
#286 = PRODUCT_DEFINITION_SHAPE ( 'NONE', 'NONE',  #124 ) ;
#287 = CLOSED_SHELL ( 'NONE', ( #332, #129, #38, #250, #318, #167 ) ) ;
#288 = DIRECTION ( 'NONE',  ( 0.000000000000000000, 0.000000000000000000, -1.000000000000000000 ) ) ;
#289 = ORIENTED_EDGE ( 'NONE', *, *, #183, .T. ) ;
#290 = CIRCLE ( 'NONE', #304, 0.5000000000000004441 ) ;
#291 = PRESENTATION_STYLE_ASSIGNMENT (( #176 ) ) ;
#292 = DIRECTION ( 'NONE',  ( -0.000000000000000000, -1.000000000000000000, -0.000000000000000000 ) ) ;
#293 = CARTESIAN_POINT ( 'NONE',  ( 6.000000000000000000, 75.00000000000000000, 0.000000000000000000 ) ) ;
#294 = FACE_OUTER_BOUND ( 'NONE', #370, .T. ) ;
#295 = CARTESIAN_POINT ( 'NONE',  ( 0.000000000000000000, 0.5000000000000000000, 0.000000000000000000 ) ) ;
#296 = DIRECTION ( 'NONE',  ( 0.000000000000000000, 0.000000000000000000, 1.000000000000000000 ) ) ;
#297 = PRESENTATION_LAYER_ASSIGNMENT (  '', '', ( #72 ) ) ;
#298 = CARTESIAN_POINT ( 'NONE',  ( 0.000000000000000000, 0.000000000000000000, -6.000000000000000000 ) ) ;
#299 = AXIS2_PLACEMENT_3D ( 'NONE', #295, #239, #94 ) ;
#300 = CARTESIAN_POINT ( 'NONE',  ( -1.469576158976823750E-15, 75.00000000000000000, 0.000000000000000000 ) ) ;
#301 = SURFACE_SIDE_STYLE ('',( #272 ) ) ;
#302 =( NAMED_UNIT ( * ) PLANE_ANGLE_UNIT ( ) SI_UNIT ( $, .RADIAN. ) );
#303 = ORIENTED_EDGE ( 'NONE', *, *, #186, .T. ) ;
#304 = AXIS2_PLACEMENT_3D ( 'NONE', #97, #187, #100 ) ;
#305 =( LENGTH_UNIT ( ) NAMED_UNIT ( * ) SI_UNIT ( .MILLI., .METRE. ) );
#306 =( LENGTH_UNIT ( ) NAMED_UNIT ( * ) SI_UNIT ( .MILLI., .METRE. ) );
#307 = AXIS2_PLACEMENT_3D ( 'NONE', #59, #324, #7 ) ;
#308 = EDGE_CURVE ( 'NONE', #319, #172, #70, .T. ) ;
#309 = LINE ( 'NONE', #73, #249 ) ;
#310 = FILL_AREA_STYLE ('',( #334 ) ) ;
#311 = PRESENTATION_LAYER_ASSIGNMENT (  '', '', ( #224 ) ) ;
#312 = VERTEX_POINT ( 'NONE', #262 ) ;
#313 = ORIENTED_EDGE ( 'NONE', *, *, #169, .F. ) ;
#314 = AXIS2_PLACEMENT_3D ( 'NONE', #148, #202, #210 ) ;
#315 = ORIENTED_EDGE ( 'NONE', *, *, #308, .F. ) ;
#316 = VERTEX_POINT ( 'NONE', #260 ) ;
#317 = AXIS2_PLACEMENT_3D ( 'NONE', #89, #292, #142 ) ;
#318 = ADVANCED_FACE ( 'NONE', ( #268 ), #200, .T. ) ;
#319 = VERTEX_POINT ( 'NONE', #62 ) ;
#320 = DIRECTION ( 'NONE',  ( -0.000000000000000000, -1.000000000000000000, -0.000000000000000000 ) ) ;
#321 = SURFACE_SIDE_STYLE ('',( #65 ) ) ;
#322 = CARTESIAN_POINT ( 'NONE',  ( 0.000000000000000000, 0.5000000000000000000, -5.500000000000000000 ) ) ;
#323 = DIRECTION ( 'NONE',  ( 0.000000000000000000, -1.000000000000000000, -0.000000000000000000 ) ) ;
#324 = DIRECTION ( 'NONE',  ( -0.000000000000000000, -1.000000000000000000, -0.000000000000000000 ) ) ;
#325 = DIRECTION ( 'NONE',  ( 0.000000000000000000, 0.000000000000000000, 1.000000000000000000 ) ) ;
#326 = PLANE ( 'NONE',  #131 ) ;
#327 = COLOUR_RGB ( '',1.000000000000000000, 0.000000000000000000, 0.000000000000000000 ) ;
#328 = ORIENTED_EDGE ( 'NONE', *, *, #10, .F. ) ;
#329 = PRESENTATION_STYLE_ASSIGNMENT (( #126 ) ) ;
#330 = VECTOR ( 'NONE', #259, 1000.000000000000000 ) ;
#331 = SURFACE_STYLE_USAGE ( .BOTH. , #150 ) ;
#332 = ADVANCED_FACE ( 'NONE', ( #179 ), #33, .T. ) ;
#333 = SURFACE_STYLE_USAGE ( .BOTH. , #77 ) ;
#334 = FILL_AREA_STYLE_COLOUR ( '', #327 ) ;
#335 = SURFACE_STYLE_FILL_AREA ( #2 ) ;
#336 =( GEOMETRIC_REPRESENTATION_CONTEXT ( 3 ) GLOBAL_UNCERTAINTY_ASSIGNED_CONTEXT ( ( #180 ) ) GLOBAL_UNIT_ASSIGNED_CONTEXT ( ( #92, #350, #354 ) ) REPRESENTATION_CONTEXT ( 'NONE', 'WORKASPACE' ) );
#337 = ORIENTED_EDGE ( 'NONE', *, *, #27, .T. ) ;
#338 = ORIENTED_EDGE ( 'NONE', *, *, #45, .T. ) ;
#339 = AXIS2_PLACEMENT_3D ( 'NONE', #212, #296, #16 ) ;
#340 = CARTESIAN_POINT ( 'NONE',  ( 0.000000000000000000, 18.00000000000000000, 0.000000000000000000 ) ) ;
#341 = CARTESIAN_POINT ( 'NONE',  ( 5.421010862427522170E-15, 18.00000000000000355, 0.000000000000000000 ) ) ;
#342 = MECHANICAL_DESIGN_GEOMETRIC_PRESENTATION_REPRESENTATION (  '', ( #72 ), #117 ) ;
#343 = AXIS2_PLACEMENT_3D ( 'NONE', #340, #24, #135 ) ;
#344 = APPLICATION_CONTEXT ( 'automotive_design' ) ;
#345 = CARTESIAN_POINT ( 'NONE',  ( 0.000000000000000000, 0.000000000000000000, 0.000000000000000000 ) ) ;
#346 = MECHANICAL_DESIGN_GEOMETRIC_PRESENTATION_REPRESENTATION (  '', ( #23 ), #61 ) ;
#347 = CARTESIAN_POINT ( 'NONE',  ( 7.347880794884119736E-16, 18.00000000000000000, 6.000000000000000000 ) ) ;
#348 = DIRECTION ( 'NONE',  ( 0.000000000000000000, 0.000000000000000000, -1.000000000000000000 ) ) ;
#349 = AXIS2_PLACEMENT_3D ( 'NONE', #356, #214, #127 ) ;
#350 =( NAMED_UNIT ( * ) PLANE_ANGLE_UNIT ( ) SI_UNIT ( $, .RADIAN. ) );
#351 = UNCERTAINTY_MEASURE_WITH_UNIT (LENGTH_MEASURE( 1.000000000000000082E-05 ), #366, 'distance_accuracy_value', 'NONE');
#352 = COLOUR_RGB ( '',1.000000000000000000, 0.000000000000000000, 0.000000000000000000 ) ;
#353 =( NAMED_UNIT ( * ) PLANE_ANGLE_UNIT ( ) SI_UNIT ( $, .RADIAN. ) );
#354 =( NAMED_UNIT ( * ) SI_UNIT ( $, .STERADIAN. ) SOLID_ANGLE_UNIT ( ) );
#355 = DIRECTION ( 'NONE',  ( 0.000000000000000000, 0.000000000000000000, -1.000000000000000000 ) ) ;
#356 = CARTESIAN_POINT ( 'NONE',  ( -1.469576158976823750E-15, 75.00000000000000000, 0.000000000000000000 ) ) ;
#357 = ORIENTED_EDGE ( 'NONE', *, *, #183, .F. ) ;
#358 = STYLED_ITEM ( 'NONE', ( #95 ), #167 ) ;
#359 = APPLICATION_PROTOCOL_DEFINITION ( 'draft international standard', 'automotive_design', 1998, #344 ) ;
#360 = UNCERTAINTY_MEASURE_WITH_UNIT (LENGTH_MEASURE( 1.000000000000000082E-05 ), #275, 'distance_accuracy_value', 'NONE');
#361 =( NAMED_UNIT ( * ) SI_UNIT ( $, .STERADIAN. ) SOLID_ANGLE_UNIT ( ) );
#362 = FILL_AREA_STYLE ('',( #76 ) ) ;
#363 = EDGE_CURVE ( 'NONE', #172, #319, #6, .T. ) ;
#364 = MECHANICAL_DESIGN_GEOMETRIC_PRESENTATION_REPRESENTATION (  '', ( #358 ), #243 ) ;
#365 = DIRECTION ( 'NONE',  ( -0.000000000000000000, -1.000000000000000000, -0.000000000000000000 ) ) ;
#366 =( LENGTH_UNIT ( ) NAMED_UNIT ( * ) SI_UNIT ( .MILLI., .METRE. ) );
#367 = CARTESIAN_POINT ( 'NONE',  ( 0.000000000000000000, 0.000000000000000000, 0.000000000000000000 ) ) ;
#368 = MANIFOLD_SOLID_BREP ( 'Revolve - Cutting Edge', #287 ) ;
#369 = CIRCLE ( 'NONE', #217, 6.000000000000001776 ) ;
#370 = EDGE_LOOP ( 'NONE', ( #84, #229 ) ) ;
ENDSEC;
END-ISO-10303-21;
