ISO-10303-21;
HEADER;
FILE_DESCRIPTION (( 'STEP AP214' ),
    '1' );
FILE_NAME ('Micro_RTCM-030-1X.STEP',
    '2021-09-03T18:18:38',
    ( '' ),
    ( '' ),
    'SwSTEP 2.0',
    'SolidWorks 2020',
    '' );
FILE_SCHEMA (( 'AUTOMOTIVE_DESIGN' ));
ENDSEC;

DATA;
#1 = EDGE_CURVE ( 'NONE', #86, #105, #4, .T. ) ;
#2 = CARTESIAN_POINT ( 'NONE',  ( 0.0000000000000000000, 0.0000000000000000000, 0.0000000000000000000 ) ) ;
#3 = ORIENTED_EDGE ( 'NONE', *, *, #231, .F. ) ;
#4 = CIRCLE ( 'NONE', #152, 0.05905500000000001720 ) ;
#5 = CIRCLE ( 'NONE', #85, 0.04405499999999974020 ) ;
#6 = LENGTH_MEASURE_WITH_UNIT ( LENGTH_MEASURE( 0.02539999999999999897 ), #60 );
#7 = ORIENTED_EDGE ( 'NONE', *, *, #63, .T. ) ;
#8 = CIRCLE ( 'NONE', #161, 0.05905500000000001720 ) ;
#9 = EDGE_CURVE ( 'NONE', #163, #105, #144, .T. ) ;
#10 = ORIENTED_EDGE ( 'NONE', *, *, #38, .T. ) ;
#11 = DIRECTION ( 'NONE',  ( 0.0000000000000000000, 0.0000000000000000000, -1.000000000000000000 ) ) ;
#12 = DIRECTION ( 'NONE',  ( -1.000000000000000000, 0.0000000000000000000, 0.0000000000000000000 ) ) ;
#13 = CARTESIAN_POINT ( 'NONE',  ( 0.05905500000000001720, 7.232151672364695422E-18, 0.2057031764115806738 ) ) ;
#14 = CARTESIAN_POINT ( 'NONE',  ( 0.0000000000000000000, 0.0000000000000000000, 1.496062999999999921 ) ) ;
#15 = PRODUCT_DEFINITION_CONTEXT ( 'detailed design', #136, 'design' ) ;
#16 = PRESENTATION_STYLE_ASSIGNMENT (( #190 ) ) ;
#17 = DIRECTION ( 'NONE',  ( 0.0000000000000000000, 0.0000000000000000000, 1.000000000000000000 ) ) ;
#18 = DIRECTION ( 'NONE',  ( -1.000000000000000000, 0.0000000000000000000, 0.0000000000000000000 ) ) ;
#19 = PRESENTATION_LAYER_ASSIGNMENT (  '', '', ( #184 ) ) ;
#20 =( NAMED_UNIT ( * ) PLANE_ANGLE_UNIT ( ) SI_UNIT ( $, .RADIAN. ) );
#21 = ORIENTED_EDGE ( 'NONE', *, *, #82, .T. ) ;
#22 = AXIS2_PLACEMENT_3D ( 'NONE', #219, #88, #170 ) ;
#23 = APPLICATION_PROTOCOL_DEFINITION ( 'draft international standard', 'automotive_design', 1998, #136 ) ;
#24 = ORIENTED_EDGE ( 'NONE', *, *, #42, .T. ) ;
#25 = PRODUCT ( 'Micro_RTCM-030-1X', 'Micro_RTCM-030-1X', '', ( #122 ) ) ;
#26 = ORIENTED_EDGE ( 'NONE', *, *, #231, .T. ) ;
#27 = DIRECTION ( 'NONE',  ( -1.000000000000000000, 0.0000000000000000000, 0.0000000000000000000 ) ) ;
#28 = ORIENTED_EDGE ( 'NONE', *, *, #9, .T. ) ;
#29 = CARTESIAN_POINT ( 'NONE',  ( -0.05905500000000001720, 0.0000000000000000000, 1.481062999999999574 ) ) ;
#30 = DIRECTION ( 'NONE',  ( 1.000000000000000000, 0.0000000000000000000, 0.0000000000000000000 ) ) ;
#31 = FILL_AREA_STYLE_COLOUR ( '', #108 ) ;
#32 = DIRECTION ( 'NONE',  ( 0.0000000000000000000, 0.0000000000000000000, 1.000000000000000000 ) ) ;
#33 = DIRECTION ( 'NONE',  ( 0.0000000000000000000, 0.0000000000000000000, 1.000000000000000000 ) ) ;
#34 = PRESENTATION_LAYER_ASSIGNMENT (  '', '', ( #148 ) ) ;
#35 = FILL_AREA_STYLE ('',( #102 ) ) ;
#36 = CYLINDRICAL_SURFACE ( 'NONE', #211, 0.05905500000000001720 ) ;
#37 = EDGE_LOOP ( 'NONE', ( #179, #50, #80, #241 ) ) ;
#38 = EDGE_CURVE ( 'NONE', #186, #168, #206, .T. ) ;
#39 = LINE ( 'NONE', #193, #180 ) ;
#40 = DIRECTION ( 'NONE',  ( 1.000000000000000000, 0.0000000000000000000, 0.0000000000000000000 ) ) ;
#41 = EDGE_LOOP ( 'NONE', ( #10, #243 ) ) ;
#42 = EDGE_CURVE ( 'NONE', #168, #139, #183, .T. ) ;
#43 = ADVANCED_FACE ( 'NONE', ( #49 ), #201, .T. ) ;
#44 = CARTESIAN_POINT ( 'NONE',  ( 0.05905500000000001720, 7.232151672364695422E-18, 1.481062999999999574 ) ) ;
#45 = DIRECTION ( 'NONE',  ( 0.0000000000000000000, 0.0000000000000000000, 1.000000000000000000 ) ) ;
#46 = CONICAL_SURFACE ( 'NONE', #22, 0.04405499999999974020, 0.7853981633974491672 ) ;
#47 = VERTEX_POINT ( 'NONE', #89 ) ;
#48 = ADVANCED_BREP_SHAPE_REPRESENTATION ( 'Micro_RTCM-030-1X', ( #169, #62 ), #103 ) ;
#49 = FACE_OUTER_BOUND ( 'NONE', #200, .T. ) ;
#50 = ORIENTED_EDGE ( 'NONE', *, *, #38, .F. ) ;
#51 = LENGTH_MEASURE_WITH_UNIT ( LENGTH_MEASURE( 0.02539999999999999897 ), #228 );
#52 = UNCERTAINTY_MEASURE_WITH_UNIT (LENGTH_MEASURE( 1.000000000000000082E-05 ), #94, 'distance_accuracy_value', 'NONE');
#53 = DIRECTION ( 'NONE',  ( -1.000000000000000000, 0.0000000000000000000, 0.0000000000000000000 ) ) ;
#54 = AXIS2_PLACEMENT_3D ( 'NONE', #87, #11, #202 ) ;
#55 = CARTESIAN_POINT ( 'NONE',  ( 0.0000000000000000000, 0.0000000000000000000, 1.496062999999999921 ) ) ;
#56 = CARTESIAN_POINT ( 'NONE',  ( 0.0000000000000000000, 0.0000000000000000000, 0.0000000000000000000 ) ) ;
#57 = VECTOR ( 'NONE', #131, 39.37007874015748143 ) ;
#58 = ORIENTED_EDGE ( 'NONE', *, *, #9, .F. ) ;
#59 = ORIENTED_EDGE ( 'NONE', *, *, #162, .F. ) ;
#60 =( LENGTH_UNIT ( ) NAMED_UNIT ( * ) SI_UNIT ( $, .METRE. ) );
#61 = CIRCLE ( 'NONE', #54, 0.05905500000000001720 ) ;
#62 = AXIS2_PLACEMENT_3D ( 'NONE', #2, #216, #40 ) ;
#63 = EDGE_CURVE ( 'NONE', #139, #84, #61, .T. ) ;
#64 = DIRECTION ( 'NONE',  ( -0.0000000000000000000, -0.0000000000000000000, -1.000000000000000000 ) ) ;
#65 = CARTESIAN_POINT ( 'NONE',  ( 0.0000000000000000000, 0.0000000000000000000, 0.0000000000000000000 ) ) ;
#66 = COLOUR_RGB ( '',0.7921568627450980005, 0.8196078431372548767, 0.9333333333333333481 ) ;
#67 = ORIENTED_EDGE ( 'NONE', *, *, #240, .T. ) ;
#68 = CARTESIAN_POINT ( 'NONE',  ( 0.04405499999999974020, 5.395181473643631161E-18, 1.496062999999999921 ) ) ;
#69 = DIRECTION ( 'NONE',  ( 1.000000000000000000, 0.0000000000000000000, 0.0000000000000000000 ) ) ;
#70 = EDGE_CURVE ( 'NONE', #105, #86, #8, .T. ) ;
#71 = AXIS2_PLACEMENT_3D ( 'NONE', #227, #151, #53 ) ;
#72 = DIRECTION ( 'NONE',  ( -0.0000000000000000000, -0.0000000000000000000, -1.000000000000000000 ) ) ;
#73 = DIMENSIONAL_EXPONENTS ( 1.000000000000000000, 0.0000000000000000000, 0.0000000000000000000, 0.0000000000000000000, 0.0000000000000000000, 0.0000000000000000000, 0.0000000000000000000 ) ;
#74 = LINE ( 'NONE', #129, #57 ) ;
#75 = UNCERTAINTY_MEASURE_WITH_UNIT (LENGTH_MEASURE( 1.000000000000000082E-05 ), #78, 'distance_accuracy_value', 'NONE');
#76 = SURFACE_STYLE_FILL_AREA ( #189 ) ;
#77 = FACE_OUTER_BOUND ( 'NONE', #107, .T. ) ;
#78 =( CONVERSION_BASED_UNIT ( 'INCH', #160 ) LENGTH_UNIT ( ) NAMED_UNIT ( #73 ) );
#79 = APPLICATION_PROTOCOL_DEFINITION ( 'draft international standard', 'automotive_design', 1998, #236 ) ;
#80 = ORIENTED_EDGE ( 'NONE', *, *, #171, .T. ) ;
#81 = CIRCLE ( 'NONE', #166, 0.05905500000000001720 ) ;
#82 = EDGE_CURVE ( 'NONE', #84, #105, #237, .T. ) ;
#83 =( CONVERSION_BASED_UNIT ( 'INCH', #6 ) LENGTH_UNIT ( ) NAMED_UNIT ( #242 ) );
#84 = VERTEX_POINT ( 'NONE', #29 ) ;
#85 = AXIS2_PLACEMENT_3D ( 'NONE', #14, #33, #69 ) ;
#86 = VERTEX_POINT ( 'NONE', #13 ) ;
#87 = CARTESIAN_POINT ( 'NONE',  ( 0.0000000000000000000, 0.0000000000000000000, 1.481062999999999574 ) ) ;
#88 = DIRECTION ( 'NONE',  ( 0.0000000000000000000, 0.0000000000000000000, -1.000000000000000000 ) ) ;
#89 = CARTESIAN_POINT ( 'NONE',  ( 0.003936999999999995191, 0.0000000000000000000, 0.0000000000000000000 ) ) ;
#90 = EDGE_LOOP ( 'NONE', ( #127, #7, #21, #119 ) ) ;
#91 = CARTESIAN_POINT ( 'NONE',  ( -0.05905500000000001720, 0.0000000000000000000, 0.2057031764115806738 ) ) ;
#92 = FACE_OUTER_BOUND ( 'NONE', #41, .T. ) ;
#93 = CIRCLE ( 'NONE', #249, 0.003936999999999995191 ) ;
#94 =( CONVERSION_BASED_UNIT ( 'INCH', #51 ) LENGTH_UNIT ( ) NAMED_UNIT ( #221 ) );
#95 = FACE_OUTER_BOUND ( 'NONE', #217, .T. ) ;
#96 = CYLINDRICAL_SURFACE ( 'NONE', #71, 0.05905500000000001720 ) ;
#97 = CONICAL_SURFACE ( 'NONE', #229, 0.04405499999999974020, 0.7853981633974491672 ) ;
#98 = CARTESIAN_POINT ( 'NONE',  ( 0.0000000000000000000, 0.0000000000000000000, 0.0000000000000000000 ) ) ;
#99 = PRODUCT_DEFINITION_SHAPE ( 'NONE', 'NONE',  #178 ) ;
#100 = PRODUCT_DEFINITION_FORMATION_WITH_SPECIFIED_SOURCE ( 'ANY', '', #25, .NOT_KNOWN. ) ;
#101 = DIRECTION ( 'NONE',  ( -0.0000000000000000000, -0.0000000000000000000, -1.000000000000000000 ) ) ;
#102 = FILL_AREA_STYLE_COLOUR ( '', #66 ) ;
#103 =( GEOMETRIC_REPRESENTATION_CONTEXT ( 3 ) GLOBAL_UNCERTAINTY_ASSIGNED_CONTEXT ( ( #75 ) ) GLOBAL_UNIT_ASSIGNED_CONTEXT ( ( #78, #232, #234 ) ) REPRESENTATION_CONTEXT ( 'NONE', 'WORKASPACE' ) );
#104 = DIRECTION ( 'NONE',  ( -0.0000000000000000000, -0.0000000000000000000, -1.000000000000000000 ) ) ;
#105 = VERTEX_POINT ( 'NONE', #91 ) ;
#106 = DIRECTION ( 'NONE',  ( -0.2588190451025216832, 3.169619151431776035E-17, 0.9659258262890679791 ) ) ;
#107 = EDGE_LOOP ( 'NONE', ( #59, #24, #212, #177 ) ) ;
#108 = COLOUR_RGB ( '',0.7921568627450980005, 0.8196078431372548767, 0.9333333333333333481 ) ;
#109 = ORIENTED_EDGE ( 'NONE', *, *, #82, .F. ) ;
#110 = DIRECTION ( 'NONE',  ( 0.0000000000000000000, 0.0000000000000000000, -1.000000000000000000 ) ) ;
#111 = DIRECTION ( 'NONE',  ( 0.0000000000000000000, 0.0000000000000000000, 1.000000000000000000 ) ) ;
#112 = CIRCLE ( 'NONE', #215, 0.003936999999999995191 ) ;
#113 = UNCERTAINTY_MEASURE_WITH_UNIT (LENGTH_MEASURE( 1.000000000000000082E-05 ), #83, 'distance_accuracy_value', 'NONE');
#114 = DIRECTION ( 'NONE',  ( 0.0000000000000000000, 0.0000000000000000000, -1.000000000000000000 ) ) ;
#115 = ADVANCED_FACE ( 'NONE', ( #142 ), #46, .T. ) ;
#116 =( GEOMETRIC_REPRESENTATION_CONTEXT ( 3 ) GLOBAL_UNCERTAINTY_ASSIGNED_CONTEXT ( ( #52 ) ) GLOBAL_UNIT_ASSIGNED_CONTEXT ( ( #94, #191, #154 ) ) REPRESENTATION_CONTEXT ( 'NONE', 'WORKASPACE' ) );
#117 = SURFACE_STYLE_FILL_AREA ( #35 ) ;
#118 =( NAMED_UNIT ( * ) SI_UNIT ( $, .STERADIAN. ) SOLID_ANGLE_UNIT ( ) );
#119 = ORIENTED_EDGE ( 'NONE', *, *, #1, .F. ) ;
#120 = VECTOR ( 'NONE', #248, 39.37007874015748143 ) ;
#121 = CARTESIAN_POINT ( 'NONE',  ( 0.0000000000000000000, 0.0000000000000000000, 1.496062999999999921 ) ) ;
#122 = PRODUCT_CONTEXT ( 'NONE', #236, 'mechanical' ) ;
#123 = ORIENTED_EDGE ( 'NONE', *, *, #155, .F. ) ;
#124 = EDGE_LOOP ( 'NONE', ( #26, #181 ) ) ;
#125 = DIRECTION ( 'NONE',  ( 0.7071067811865482389, 8.659560562354941486E-17, -0.7071067811865469066 ) ) ;
#126 = ORIENTED_EDGE ( 'NONE', *, *, #203, .T. ) ;
#127 = ORIENTED_EDGE ( 'NONE', *, *, #240, .F. ) ;
#128 = AXIS2_PLACEMENT_3D ( 'NONE', #210, #111, #175 ) ;
#129 = CARTESIAN_POINT ( 'NONE',  ( -0.04405499999999974020, 0.0000000000000000000, 1.496062999999999921 ) ) ;
#130 = PLANE ( 'NONE',  #138 ) ;
#131 = DIRECTION ( 'NONE',  ( -0.7071067811865482389, 0.0000000000000000000, -0.7071067811865469066 ) ) ;
#132 = CONICAL_SURFACE ( 'NONE', #128, 0.003936999999999995191, 0.2617993877991502960 ) ;
#133 = CARTESIAN_POINT ( 'NONE',  ( 0.0000000000000000000, 0.0000000000000000000, 1.496062999999999921 ) ) ;
#134 =( GEOMETRIC_REPRESENTATION_CONTEXT ( 3 ) GLOBAL_UNCERTAINTY_ASSIGNED_CONTEXT ( ( #113 ) ) GLOBAL_UNIT_ASSIGNED_CONTEXT ( ( #83, #20, #118 ) ) REPRESENTATION_CONTEXT ( 'NONE', 'WORKASPACE' ) );
#135 = PRESENTATION_STYLE_ASSIGNMENT (( #194 ) ) ;
#136 = APPLICATION_CONTEXT ( 'automotive_design' ) ;
#137 = VECTOR ( 'NONE', #125, 39.37007874015748143 ) ;
#138 = AXIS2_PLACEMENT_3D ( 'NONE', #55, #17, #209 ) ;
#139 = VERTEX_POINT ( 'NONE', #44 ) ;
#140 = PRODUCT_RELATED_PRODUCT_CATEGORY ( 'part', '', ( #25 ) ) ;
#141 = ADVANCED_FACE ( 'NONE', ( #165 ), #238, .F. ) ;
#142 = FACE_OUTER_BOUND ( 'NONE', #37, .T. ) ;
#143 = VECTOR ( 'NONE', #106, 39.37007874015748143 ) ;
#144 = LINE ( 'NONE', #196, #143 ) ;
#145 = CARTESIAN_POINT ( 'NONE',  ( 0.0000000000000000000, 0.0000000000000000000, 1.496062999999999921 ) ) ;
#146 = DIRECTION ( 'NONE',  ( -0.0000000000000000000, -0.0000000000000000000, -1.000000000000000000 ) ) ;
#147 = AXIS2_PLACEMENT_3D ( 'NONE', #65, #32, #230 ) ;
#148 = STYLED_ITEM ( 'NONE', ( #16 ), #169 ) ;
#149 = DIRECTION ( 'NONE',  ( -1.000000000000000000, 0.0000000000000000000, 0.0000000000000000000 ) ) ;
#150 = CARTESIAN_POINT ( 'NONE',  ( -0.04405499999999974020, 0.0000000000000000000, 1.496062999999999921 ) ) ;
#151 = DIRECTION ( 'NONE',  ( -0.0000000000000000000, -0.0000000000000000000, -1.000000000000000000 ) ) ;
#152 = AXIS2_PLACEMENT_3D ( 'NONE', #223, #104, #27 ) ;
#153 = VECTOR ( 'NONE', #64, 39.37007874015748143 ) ;
#154 =( NAMED_UNIT ( * ) SI_UNIT ( $, .STERADIAN. ) SOLID_ANGLE_UNIT ( ) );
#155 = EDGE_CURVE ( 'NONE', #163, #47, #112, .T. ) ;
#156 = SURFACE_SIDE_STYLE ('',( #117 ) ) ;
#157 = MECHANICAL_DESIGN_GEOMETRIC_PRESENTATION_REPRESENTATION (  '', ( #148 ), #116 ) ;
#158 = SHAPE_DEFINITION_REPRESENTATION ( #99, #48 ) ;
#159 = ADVANCED_FACE ( 'NONE', ( #95 ), #132, .T. ) ;
#160 = LENGTH_MEASURE_WITH_UNIT ( LENGTH_MEASURE( 0.02539999999999999897 ), #195 );
#161 = AXIS2_PLACEMENT_3D ( 'NONE', #164, #146, #12 ) ;
#162 = EDGE_CURVE ( 'NONE', #168, #186, #5, .T. ) ;
#163 = VERTEX_POINT ( 'NONE', #226 ) ;
#164 = CARTESIAN_POINT ( 'NONE',  ( 0.0000000000000000000, 0.0000000000000000000, 0.2057031764115806738 ) ) ;
#165 = FACE_OUTER_BOUND ( 'NONE', #124, .T. ) ;
#166 = AXIS2_PLACEMENT_3D ( 'NONE', #192, #110, #30 ) ;
#167 = CARTESIAN_POINT ( 'NONE',  ( 0.0000000000000000000, 0.0000000000000000000, 0.0000000000000000000 ) ) ;
#168 = VERTEX_POINT ( 'NONE', #204 ) ;
#169 = MANIFOLD_SOLID_BREP ( 'Cut-Revolve1', #244 ) ;
#170 = DIRECTION ( 'NONE',  ( -1.000000000000000000, 0.0000000000000000000, 0.0000000000000000000 ) ) ;
#171 = EDGE_CURVE ( 'NONE', #186, #84, #74, .T. ) ;
#172 = CARTESIAN_POINT ( 'NONE',  ( 0.003936999999999995191, 0.0000000000000000000, 0.0000000000000000000 ) ) ;
#173 = FACE_OUTER_BOUND ( 'NONE', #90, .T. ) ;
#174 = LINE ( 'NONE', #172, #120 ) ;
#175 = DIRECTION ( 'NONE',  ( 1.000000000000000000, 0.0000000000000000000, 0.0000000000000000000 ) ) ;
#176 = ORIENTED_EDGE ( 'NONE', *, *, #70, .F. ) ;
#177 = ORIENTED_EDGE ( 'NONE', *, *, #171, .F. ) ;
#178 = PRODUCT_DEFINITION ( 'UNKNOWN', '', #100, #15 ) ;
#179 = ORIENTED_EDGE ( 'NONE', *, *, #42, .F. ) ;
#180 = VECTOR ( 'NONE', #101, 39.37007874015748143 ) ;
#181 = ORIENTED_EDGE ( 'NONE', *, *, #155, .T. ) ;
#182 = ORIENTED_EDGE ( 'NONE', *, *, #187, .T. ) ;
#183 = LINE ( 'NONE', #68, #137 ) ;
#184 = STYLED_ITEM ( 'NONE', ( #135 ), #48 ) ;
#185 = CARTESIAN_POINT ( 'NONE',  ( -0.05905500000000001720, 0.0000000000000000000, 1.496062999999999921 ) ) ;
#186 = VERTEX_POINT ( 'NONE', #150 ) ;
#187 = EDGE_CURVE ( 'NONE', #84, #139, #81, .T. ) ;
#188 = ADVANCED_FACE ( 'NONE', ( #173 ), #96, .T. ) ;
#189 = FILL_AREA_STYLE ('',( #31 ) ) ;
#190 = SURFACE_STYLE_USAGE ( .BOTH. , #207 ) ;
#191 =( NAMED_UNIT ( * ) PLANE_ANGLE_UNIT ( ) SI_UNIT ( $, .RADIAN. ) );
#192 = CARTESIAN_POINT ( 'NONE',  ( 0.0000000000000000000, 0.0000000000000000000, 1.481062999999999574 ) ) ;
#193 = CARTESIAN_POINT ( 'NONE',  ( 0.05905500000000001720, 7.232151672364695422E-18, 1.496062999999999921 ) ) ;
#194 = SURFACE_STYLE_USAGE ( .BOTH. , #156 ) ;
#195 =( LENGTH_UNIT ( ) NAMED_UNIT ( * ) SI_UNIT ( $, .METRE. ) );
#196 = CARTESIAN_POINT ( 'NONE',  ( -0.003936999999999995191, 4.821434448243123477E-19, 0.0000000000000000000 ) ) ;
#197 = DIRECTION ( 'NONE',  ( 1.000000000000000000, 0.0000000000000000000, 0.0000000000000000000 ) ) ;
#198 = ADVANCED_FACE ( 'NONE', ( #92 ), #130, .T. ) ;
#199 = ORIENTED_EDGE ( 'NONE', *, *, #70, .T. ) ;
#200 = EDGE_LOOP ( 'NONE', ( #123, #28, #199, #224 ) ) ;
#201 = CONICAL_SURFACE ( 'NONE', #220, 0.003936999999999995191, 0.2617993877991502960 ) ;
#202 = DIRECTION ( 'NONE',  ( 1.000000000000000000, 0.0000000000000000000, 0.0000000000000000000 ) ) ;
#203 = EDGE_CURVE ( 'NONE', #47, #86, #174, .T. ) ;
#204 = CARTESIAN_POINT ( 'NONE',  ( 0.04405499999999974020, 6.313666573004163292E-18, 1.496062999999999921 ) ) ;
#205 = DIRECTION ( 'NONE',  ( -0.0000000000000000000, -0.0000000000000000000, -1.000000000000000000 ) ) ;
#206 = CIRCLE ( 'NONE', #247, 0.04405499999999974020 ) ;
#207 = SURFACE_SIDE_STYLE ('',( #76 ) ) ;
#208 = MECHANICAL_DESIGN_GEOMETRIC_PRESENTATION_REPRESENTATION (  '', ( #184 ), #134 ) ;
#209 = DIRECTION ( 'NONE',  ( 1.000000000000000000, 0.0000000000000000000, -0.0000000000000000000 ) ) ;
#210 = CARTESIAN_POINT ( 'NONE',  ( 0.0000000000000000000, 0.0000000000000000000, 0.0000000000000000000 ) ) ;
#211 = AXIS2_PLACEMENT_3D ( 'NONE', #121, #214, #235 ) ;
#212 = ORIENTED_EDGE ( 'NONE', *, *, #187, .F. ) ;
#213 = FACE_OUTER_BOUND ( 'NONE', #222, .T. ) ;
#214 = DIRECTION ( 'NONE',  ( -0.0000000000000000000, -0.0000000000000000000, -1.000000000000000000 ) ) ;
#215 = AXIS2_PLACEMENT_3D ( 'NONE', #56, #205, #246 ) ;
#216 = DIRECTION ( 'NONE',  ( 0.0000000000000000000, 0.0000000000000000000, 1.000000000000000000 ) ) ;
#217 = EDGE_LOOP ( 'NONE', ( #58, #3, #126, #233 ) ) ;
#218 = DIRECTION ( 'NONE',  ( 0.0000000000000000000, 0.0000000000000000000, 1.000000000000000000 ) ) ;
#219 = CARTESIAN_POINT ( 'NONE',  ( 0.0000000000000000000, 0.0000000000000000000, 1.496062999999999921 ) ) ;
#220 = AXIS2_PLACEMENT_3D ( 'NONE', #167, #45, #197 ) ;
#221 = DIMENSIONAL_EXPONENTS ( 1.000000000000000000, 0.0000000000000000000, 0.0000000000000000000, 0.0000000000000000000, 0.0000000000000000000, 0.0000000000000000000, 0.0000000000000000000 ) ;
#222 = EDGE_LOOP ( 'NONE', ( #182, #67, #176, #109 ) ) ;
#223 = CARTESIAN_POINT ( 'NONE',  ( 0.0000000000000000000, 0.0000000000000000000, 0.2057031764115806738 ) ) ;
#224 = ORIENTED_EDGE ( 'NONE', *, *, #203, .F. ) ;
#225 = ADVANCED_FACE ( 'NONE', ( #77 ), #97, .T. ) ;
#226 = CARTESIAN_POINT ( 'NONE',  ( -0.003936999999999995191, 3.857147558594504174E-18, 0.0000000000000000000 ) ) ;
#227 = CARTESIAN_POINT ( 'NONE',  ( 0.0000000000000000000, 0.0000000000000000000, 1.496062999999999921 ) ) ;
#228 =( LENGTH_UNIT ( ) NAMED_UNIT ( * ) SI_UNIT ( $, .METRE. ) );
#229 = AXIS2_PLACEMENT_3D ( 'NONE', #133, #114, #18 ) ;
#230 = DIRECTION ( 'NONE',  ( 1.000000000000000000, 0.0000000000000000000, -0.0000000000000000000 ) ) ;
#231 = EDGE_CURVE ( 'NONE', #47, #163, #93, .T. ) ;
#232 =( NAMED_UNIT ( * ) PLANE_ANGLE_UNIT ( ) SI_UNIT ( $, .RADIAN. ) );
#233 = ORIENTED_EDGE ( 'NONE', *, *, #1, .T. ) ;
#234 =( NAMED_UNIT ( * ) SI_UNIT ( $, .STERADIAN. ) SOLID_ANGLE_UNIT ( ) );
#235 = DIRECTION ( 'NONE',  ( -1.000000000000000000, 0.0000000000000000000, 0.0000000000000000000 ) ) ;
#236 = APPLICATION_CONTEXT ( 'automotive_design' ) ;
#237 = LINE ( 'NONE', #185, #153 ) ;
#238 = PLANE ( 'NONE',  #147 ) ;
#239 = DIRECTION ( 'NONE',  ( 1.000000000000000000, 0.0000000000000000000, 0.0000000000000000000 ) ) ;
#240 = EDGE_CURVE ( 'NONE', #139, #86, #39, .T. ) ;
#241 = ORIENTED_EDGE ( 'NONE', *, *, #63, .F. ) ;
#242 = DIMENSIONAL_EXPONENTS ( 1.000000000000000000, 0.0000000000000000000, 0.0000000000000000000, 0.0000000000000000000, 0.0000000000000000000, 0.0000000000000000000, 0.0000000000000000000 ) ;
#243 = ORIENTED_EDGE ( 'NONE', *, *, #162, .T. ) ;
#244 = CLOSED_SHELL ( 'NONE', ( #43, #225, #245, #188, #198, #115, #159, #141 ) ) ;
#245 = ADVANCED_FACE ( 'NONE', ( #213 ), #36, .T. ) ;
#246 = DIRECTION ( 'NONE',  ( -1.000000000000000000, 0.0000000000000000000, 0.0000000000000000000 ) ) ;
#247 = AXIS2_PLACEMENT_3D ( 'NONE', #145, #218, #239 ) ;
#248 = DIRECTION ( 'NONE',  ( 0.2588190451025216832, 0.0000000000000000000, 0.9659258262890679791 ) ) ;
#249 = AXIS2_PLACEMENT_3D ( 'NONE', #98, #72, #149 ) ;
ENDSEC;
END-ISO-10303-21;
