ISO-10303-21;
HEADER;
FILE_DESCRIPTION (( 'STEP AP214' ),
    '1' );
FILE_NAME ('Micro_GEC-500-4-010X.STEP',
    '2021-09-03T17:24:53',
    ( '' ),
    ( '' ),
    'SwSTEP 2.0',
    'SolidWorks 2020',
    '' );
FILE_SCHEMA (( 'AUTOMOTIVE_DESIGN' ));
ENDSEC;

DATA;
#1 = EDGE_CURVE ( 'NONE', #235, #173, #162, .T. ) ;
#2 = VECTOR ( 'NONE', #212, 39.37007874015748854 ) ;
#3 = DIRECTION ( 'NONE',  ( 0.0000000000000000000, 0.0000000000000000000, -1.000000000000000000 ) ) ;
#4 = CARTESIAN_POINT ( 'NONE',  ( -0.2497499999999999998, 0.0000000000000000000, 3.058555380870515566E-17 ) ) ;
#5 = DIRECTION ( 'NONE',  ( 0.0000000000000000000, 0.0000000000000000000, 1.000000000000000000 ) ) ;
#6 = CYLINDRICAL_SURFACE ( 'NONE', #72, 0.2500000000000000000 ) ;
#7 = DIRECTION ( 'NONE',  ( 1.224646799147353207E-16, 1.000000000000000000, -0.0000000000000000000 ) ) ;
#8 = ORIENTED_EDGE ( 'NONE', *, *, #24, .T. ) ;
#9 = ORIENTED_EDGE ( 'NONE', *, *, #78, .F. ) ;
#10 = VERTEX_POINT ( 'NONE', #149 ) ;
#11 = DIRECTION ( 'NONE',  ( -1.224646799147353454E-16, -0.0000000000000000000, -1.000000000000000000 ) ) ;
#12 = ORIENTED_EDGE ( 'NONE', *, *, #328, .F. ) ;
#13 = CARTESIAN_POINT ( 'NONE',  ( 1.224646799147353770E-18, 0.0000000000000000000, 0.01000000000000000194 ) ) ;
#14 = ORIENTED_EDGE ( 'NONE', *, *, #313, .F. ) ;
#15 = AXIS2_PLACEMENT_3D ( 'NONE', #287, #308, #261 ) ;
#16 = AXIS2_PLACEMENT_3D ( 'NONE', #221, #84, #141 ) ;
#17 = ADVANCED_FACE ( 'NONE', ( #332 ), #245, .T. ) ;
#18 = EDGE_CURVE ( 'NONE', #69, #40, #282, .T. ) ;
#19 =( CONVERSION_BASED_UNIT ( 'INCH', #157 ) LENGTH_UNIT ( ) NAMED_UNIT ( #271 ) );
#20 = CIRCLE ( 'NONE', #249, 0.2500000000000000000 ) ;
#21 = DIRECTION ( 'NONE',  ( 0.1736481776669313304, 0.0000000000000000000, 0.9848077530122077983 ) ) ;
#22 = FILL_AREA_STYLE_COLOUR ( '', #246 ) ;
#23 = APPLICATION_CONTEXT ( 'automotive_design' ) ;
#24 = EDGE_CURVE ( 'NONE', #40, #288, #103, .T. ) ;
#25 = SURFACE_STYLE_USAGE ( .BOTH. , #294 ) ;
#26 = CARTESIAN_POINT ( 'NONE',  ( 0.0000000000000000000, 0.0000000000000000000, 3.000000000000000444 ) ) ;
#27 = AXIS2_PLACEMENT_3D ( 'NONE', #242, #156, #51 ) ;
#28 =( GEOMETRIC_REPRESENTATION_CONTEXT ( 3 ) GLOBAL_UNCERTAINTY_ASSIGNED_CONTEXT ( ( #250 ) ) GLOBAL_UNIT_ASSIGNED_CONTEXT ( ( #130, #345, #48 ) ) REPRESENTATION_CONTEXT ( 'NONE', 'WORKASPACE' ) );
#29 = ADVANCED_FACE ( 'NONE', ( #312 ), #56, .T. ) ;
#30 = DIRECTION ( 'NONE',  ( -0.0000000000000000000, -0.0000000000000000000, -1.000000000000000000 ) ) ;
#31 = AXIS2_PLACEMENT_3D ( 'NONE', #100, #210, #265 ) ;
#32 = CONICAL_SURFACE ( 'NONE', #301, 0.2350000000000011524, 0.7853981633974380649 ) ;
#33 = DIRECTION ( 'NONE',  ( -1.000000000000000000, 0.0000000000000000000, 0.0000000000000000000 ) ) ;
#34 = ORIENTED_EDGE ( 'NONE', *, *, #111, .F. ) ;
#35 = DIRECTION ( 'NONE',  ( -1.224646799147353454E-16, -0.0000000000000000000, -1.000000000000000000 ) ) ;
#36 = CARTESIAN_POINT ( 'NONE',  ( 1.226383128429217700E-16, 0.0000000000000000000, 1.001417820454904462 ) ) ;
#37 = ORIENTED_EDGE ( 'NONE', *, *, #78, .T. ) ;
#38 = DIRECTION ( 'NONE',  ( -0.0000000000000000000, -0.0000000000000000000, -1.000000000000000000 ) ) ;
#39 = VERTEX_POINT ( 'NONE', #224 ) ;
#40 = VERTEX_POINT ( 'NONE', #116 ) ;
#41 = AXIS2_PLACEMENT_3D ( 'NONE', #223, #3, #106 ) ;
#42 = CARTESIAN_POINT ( 'NONE',  ( 0.2350000000000011524, 2.877919977996294002E-17, 3.000000000000000444 ) ) ;
#43 = EDGE_LOOP ( 'NONE', ( #258, #62, #92, #181 ) ) ;
#44 = DIRECTION ( 'NONE',  ( -1.000000000000000000, 0.0000000000000000000, 1.224646799147353700E-16 ) ) ;
#45 =( NAMED_UNIT ( * ) SI_UNIT ( $, .STERADIAN. ) SOLID_ANGLE_UNIT ( ) );
#46 = CARTESIAN_POINT ( 'NONE',  ( -0.2500000000000000000, 0.0000000000000000000, 2.985000000000001208 ) ) ;
#47 = SURFACE_STYLE_FILL_AREA ( #185 ) ;
#48 =( NAMED_UNIT ( * ) SI_UNIT ( $, .STERADIAN. ) SOLID_ANGLE_UNIT ( ) );
#49 = AXIS2_PLACEMENT_3D ( 'NONE', #117, #252, #222 ) ;
#50 = PRODUCT_DEFINITION_CONTEXT ( 'detailed design', #54, 'design' ) ;
#51 = DIRECTION ( 'NONE',  ( 1.000000000000000000, 0.0000000000000000000, -0.0000000000000000000 ) ) ;
#52 = DIRECTION ( 'NONE',  ( -1.000000000000000000, 0.0000000000000000000, 1.224646799147353700E-16 ) ) ;
#53 = VECTOR ( 'NONE', #38, 39.37007874015748143 ) ;
#54 = APPLICATION_CONTEXT ( 'automotive_design' ) ;
#55 = CARTESIAN_POINT ( 'NONE',  ( -0.2350000000000011524, 0.0000000000000000000, 3.000000000000000444 ) ) ;
#56 = CYLINDRICAL_SURFACE ( 'NONE', #107, 0.2497499999999999998 ) ;
#57 = AXIS2_PLACEMENT_3D ( 'NONE', #165, #326, #327 ) ;
#58 = CARTESIAN_POINT ( 'NONE',  ( -0.2497499999999998888, 3.058555380870514950E-17, 1.000000000000000000 ) ) ;
#59 = CARTESIAN_POINT ( 'NONE',  ( -0.2497499999999998888, 3.060086189369449292E-17, 1.000000000000000000 ) ) ;
#60 = LINE ( 'NONE', #58, #270 ) ;
#61 = CARTESIAN_POINT ( 'NONE',  ( 0.0000000000000000000, 0.0000000000000000000, 3.000000000000000444 ) ) ;
#62 = ORIENTED_EDGE ( 'NONE', *, *, #18, .T. ) ;
#63 = CARTESIAN_POINT ( 'NONE',  ( 0.0000000000000000000, 0.0000000000000000000, 0.0000000000000000000 ) ) ;
#64 = STYLED_ITEM ( 'NONE', ( #318 ), #220 ) ;
#65 = CARTESIAN_POINT ( 'NONE',  ( 1.224646799147353454E-16, 0.0000000000000000000, 1.000000000000000000 ) ) ;
#66 = ORIENTED_EDGE ( 'NONE', *, *, #133, .F. ) ;
#67 = CARTESIAN_POINT ( 'NONE',  ( 0.2497499999999999998, 3.058555380870514950E-17, -3.058555380870515566E-17 ) ) ;
#68 = EDGE_CURVE ( 'NONE', #173, #10, #230, .T. ) ;
#69 = VERTEX_POINT ( 'NONE', #146 ) ;
#70 = FACE_OUTER_BOUND ( 'NONE', #150, .T. ) ;
#71 = VERTEX_POINT ( 'NONE', #59 ) ;
#72 = AXIS2_PLACEMENT_3D ( 'NONE', #26, #30, #33 ) ;
#73 = EDGE_CURVE ( 'NONE', #200, #39, #135, .T. ) ;
#74 =( LENGTH_UNIT ( ) NAMED_UNIT ( * ) SI_UNIT ( $, .METRE. ) );
#75 = PRODUCT_DEFINITION_SHAPE ( 'NONE', 'NONE',  #351 ) ;
#76 = DIRECTION ( 'NONE',  ( 0.0000000000000000000, 0.0000000000000000000, 1.000000000000000000 ) ) ;
#77 = CYLINDRICAL_SURFACE ( 'NONE', #31, 0.2500000000000000000 ) ;
#78 = EDGE_CURVE ( 'NONE', #195, #10, #330, .T. ) ;
#79 = SURFACE_STYLE_FILL_AREA ( #127 ) ;
#80 = CIRCLE ( 'NONE', #57, 0.2497499999999999998 ) ;
#81 = CARTESIAN_POINT ( 'NONE',  ( 0.0000000000000000000, 0.0000000000000000000, 0.0000000000000000000 ) ) ;
#82 = VECTOR ( 'NONE', #291, 39.37007874015748143 ) ;
#83 = DIRECTION ( 'NONE',  ( 1.000000000000000000, 0.0000000000000000000, 0.0000000000000000000 ) ) ;
#84 = DIRECTION ( 'NONE',  ( 0.0000000000000000000, 0.0000000000000000000, 1.000000000000000000 ) ) ;
#85 = ORIENTED_EDGE ( 'NONE', *, *, #1, .F. ) ;
#86 = CARTESIAN_POINT ( 'NONE',  ( 0.2397500000000000187, 0.0000000000000000000, 0.01000000000000000021 ) ) ;
#87 = DIRECTION ( 'NONE',  ( 1.000000000000000000, 0.0000000000000000000, 0.0000000000000000000 ) ) ;
#88 = AXIS2_PLACEMENT_3D ( 'NONE', #334, #7, #171 ) ;
#89 = AXIS2_PLACEMENT_3D ( 'NONE', #86, #134, #324 ) ;
#90 = DIRECTION ( 'NONE',  ( 0.0000000000000000000, 0.0000000000000000000, 1.000000000000000000 ) ) ;
#91 = ORIENTED_EDGE ( 'NONE', *, *, #73, .F. ) ;
#92 = ORIENTED_EDGE ( 'NONE', *, *, #289, .F. ) ;
#93 = EDGE_LOOP ( 'NONE', ( #333, #338, #231, #180 ) ) ;
#94 = ORIENTED_EDGE ( 'NONE', *, *, #247, .F. ) ;
#95 = CLOSED_SHELL ( 'NONE', ( #302, #29, #337, #155, #169, #241, #123, #336, #17, #262, #194, #178 ) ) ;
#96 = EDGE_LOOP ( 'NONE', ( #209, #184, #147, #182 ) ) ;
#97 = PRODUCT_RELATED_PRODUCT_CATEGORY ( 'part', '', ( #154 ) ) ;
#98 = FACE_OUTER_BOUND ( 'NONE', #285, .T. ) ;
#99 = EDGE_LOOP ( 'NONE', ( #37, #205, #14, #335 ) ) ;
#100 = CARTESIAN_POINT ( 'NONE',  ( 0.0000000000000000000, 0.0000000000000000000, 3.000000000000000444 ) ) ;
#101 = ORIENTED_EDGE ( 'NONE', *, *, #328, .T. ) ;
#102 = CARTESIAN_POINT ( 'NONE',  ( 0.2500000000000000000, 3.061616997868382402E-17, 3.000000000000000444 ) ) ;
#103 = CIRCLE ( 'NONE', #188, 0.2497499999999999998 ) ;
#104 = DIRECTION ( 'NONE',  ( 0.0000000000000000000, 0.0000000000000000000, -1.000000000000000000 ) ) ;
#105 = LINE ( 'NONE', #215, #256 ) ;
#106 = DIRECTION ( 'NONE',  ( 1.000000000000000000, 0.0000000000000000000, 0.0000000000000000000 ) ) ;
#107 = AXIS2_PLACEMENT_3D ( 'NONE', #63, #314, #44 ) ;
#108 =( GEOMETRIC_REPRESENTATION_CONTEXT ( 3 ) GLOBAL_UNCERTAINTY_ASSIGNED_CONTEXT ( ( #192 ) ) GLOBAL_UNIT_ASSIGNED_CONTEXT ( ( #232, #255, #177 ) ) REPRESENTATION_CONTEXT ( 'NONE', 'WORKASPACE' ) );
#109 = CIRCLE ( 'NONE', #41, 0.2500000000000000000 ) ;
#110 = DIRECTION ( 'NONE',  ( 1.000000000000000000, 0.0000000000000000000, 0.0000000000000000000 ) ) ;
#111 = EDGE_CURVE ( 'NONE', #71, #259, #129, .T. ) ;
#112 = FACE_OUTER_BOUND ( 'NONE', #43, .T. ) ;
#113 = ORIENTED_EDGE ( 'NONE', *, *, #160, .T. ) ;
#114 = CARTESIAN_POINT ( 'NONE',  ( 1.226383128429217700E-16, 0.0000000000000000000, 1.001417820454904462 ) ) ;
#115 = AXIS2_PLACEMENT_3D ( 'NONE', #276, #35, #52 ) ;
#116 = CARTESIAN_POINT ( 'NONE',  ( -0.2497499999999999998, 0.0000000000000000000, 0.01000000000000000194 ) ) ;
#117 = CARTESIAN_POINT ( 'NONE',  ( 0.0000000000000000000, 0.0000000000000000000, 2.985000000000001208 ) ) ;
#118 = ORIENTED_EDGE ( 'NONE', *, *, #73, .T. ) ;
#119 = EDGE_CURVE ( 'NONE', #148, #69, #248, .T. ) ;
#120 = CARTESIAN_POINT ( 'NONE',  ( 1.224646799147353454E-16, 0.0000000000000000000, 1.000000000000000000 ) ) ;
#121 = VECTOR ( 'NONE', #168, 39.37007874015748854 ) ;
#122 = STYLED_ITEM ( 'NONE', ( #237 ), #216 ) ;
#123 = ADVANCED_FACE ( 'NONE', ( #277 ), #143, .T. ) ;
#124 = LENGTH_MEASURE_WITH_UNIT ( LENGTH_MEASURE( 0.02539999999999999897 ), #132 );
#125 = ORIENTED_EDGE ( 'NONE', *, *, #247, .T. ) ;
#126 = CARTESIAN_POINT ( 'NONE',  ( 1.224646799147353577E-18, 0.0000000000000000000, 0.01000000000000000021 ) ) ;
#127 = FILL_AREA_STYLE ('',( #22 ) ) ;
#128 =( NAMED_UNIT ( * ) PLANE_ANGLE_UNIT ( ) SI_UNIT ( $, .RADIAN. ) );
#129 = CIRCLE ( 'NONE', #145, 0.2497499999999999998 ) ;
#130 =( CONVERSION_BASED_UNIT ( 'INCH', #124 ) LENGTH_UNIT ( ) NAMED_UNIT ( #172 ) );
#131 = DIRECTION ( 'NONE',  ( -0.0000000000000000000, -0.0000000000000000000, -1.000000000000000000 ) ) ;
#132 =( LENGTH_UNIT ( ) NAMED_UNIT ( * ) SI_UNIT ( $, .METRE. ) );
#133 = EDGE_CURVE ( 'NONE', #259, #288, #238, .T. ) ;
#134 = DIRECTION ( 'NONE',  ( 0.0000000000000000000, -1.000000000000000000, 0.0000000000000000000 ) ) ;
#135 = CIRCLE ( 'NONE', #298, 0.2500000000000000000 ) ;
#136 = EDGE_CURVE ( 'NONE', #259, #200, #105, .T. ) ;
#137 = LENGTH_MEASURE_WITH_UNIT ( LENGTH_MEASURE( 0.02539999999999999897 ), #161 );
#138 = AXIS2_PLACEMENT_3D ( 'NONE', #329, #311, #197 ) ;
#139 = DIRECTION ( 'NONE',  ( -0.1736481776669311639, 2.126576849575782392E-17, 0.9848077530122080203 ) ) ;
#140 = DIRECTION ( 'NONE',  ( 1.000000000000000000, 0.0000000000000000000, 0.0000000000000000000 ) ) ;
#141 = DIRECTION ( 'NONE',  ( 1.000000000000000000, 0.0000000000000000000, 0.0000000000000000000 ) ) ;
#142 = DIMENSIONAL_EXPONENTS ( 1.000000000000000000, 0.0000000000000000000, 0.0000000000000000000, 0.0000000000000000000, 0.0000000000000000000, 0.0000000000000000000, 0.0000000000000000000 ) ;
#143 = PLANE ( 'NONE',  #340 ) ;
#144 = EDGE_LOOP ( 'NONE', ( #66, #125, #176, #8 ) ) ;
#145 = AXIS2_PLACEMENT_3D ( 'NONE', #65, #280, #226 ) ;
#146 = CARTESIAN_POINT ( 'NONE',  ( -0.2397500000000000187, 2.997323040913146809E-17, 0.0000000000000000000 ) ) ;
#147 = ORIENTED_EDGE ( 'NONE', *, *, #309, .T. ) ;
#148 = VERTEX_POINT ( 'NONE', #236 ) ;
#149 = CARTESIAN_POINT ( 'NONE',  ( 0.2500000000000000000, 3.061616997868382402E-17, 2.985000000000001208 ) ) ;
#150 = EDGE_LOOP ( 'NONE', ( #225, #316, #9, #179 ) ) ;
#151 = CARTESIAN_POINT ( 'NONE',  ( -0.2350000000000011524, 0.0000000000000000000, 3.000000000000000444 ) ) ;
#152 = CARTESIAN_POINT ( 'NONE',  ( -0.2500000000000000000, 0.0000000000000000000, 3.000000000000000444 ) ) ;
#153 = APPLICATION_PROTOCOL_DEFINITION ( 'draft international standard', 'automotive_design', 1998, #23 ) ;
#154 = PRODUCT ( 'Micro_GEC-500-4-010X', 'Micro_GEC-500-4-010X', '', ( #239 ) ) ;
#155 = ADVANCED_FACE ( 'NONE', ( #70 ), #183, .T. ) ;
#156 = DIRECTION ( 'NONE',  ( 0.0000000000000000000, 0.0000000000000000000, 1.000000000000000000 ) ) ;
#157 = LENGTH_MEASURE_WITH_UNIT ( LENGTH_MEASURE( 0.02539999999999999897 ), #74 );
#158 = AXIS2_PLACEMENT_3D ( 'NONE', #126, #76, #344 ) ;
#159 = LINE ( 'NONE', #102, #82 ) ;
#160 = EDGE_CURVE ( 'NONE', #69, #148, #163, .T. ) ;
#161 =( LENGTH_UNIT ( ) NAMED_UNIT ( * ) SI_UNIT ( $, .METRE. ) );
#162 = CIRCLE ( 'NONE', #15, 0.2350000000000011524 ) ;
#163 = CIRCLE ( 'NONE', #219, 0.2397500000000000187 ) ;
#164 = AXIS2_PLACEMENT_3D ( 'NONE', #81, #349, #189 ) ;
#165 = CARTESIAN_POINT ( 'NONE',  ( 1.224646799147353454E-16, 0.0000000000000000000, 1.000000000000000000 ) ) ;
#166 = CARTESIAN_POINT ( 'NONE',  ( 0.2497499999999999998, 3.058555380870514950E-17, 0.01000000000000000194 ) ) ;
#167 = AXIS2_PLACEMENT_3D ( 'NONE', #272, #274, #83 ) ;
#168 = DIRECTION ( 'NONE',  ( 0.7071067811865402453, 8.659560562354845344E-17, -0.7071067811865546782 ) ) ;
#169 = ADVANCED_FACE ( 'NONE', ( #320 ), #77, .T. ) ;
#170 = CYLINDRICAL_SURFACE ( 'NONE', #115, 0.2497499999999999998 ) ;
#171 = DIRECTION ( 'NONE',  ( -1.000000000000000000, 1.224646799147354933E-16, 0.0000000000000000000 ) ) ;
#172 = DIMENSIONAL_EXPONENTS ( 1.000000000000000000, 0.0000000000000000000, 0.0000000000000000000, 0.0000000000000000000, 0.0000000000000000000, 0.0000000000000000000, 0.0000000000000000000 ) ;
#173 = VERTEX_POINT ( 'NONE', #187 ) ;
#174 = DIRECTION ( 'NONE',  ( 1.224646799147353454E-16, 0.0000000000000000000, 1.000000000000000000 ) ) ;
#175 = DIRECTION ( 'NONE',  ( 0.0000000000000000000, 0.0000000000000000000, 1.000000000000000000 ) ) ;
#176 = ORIENTED_EDGE ( 'NONE', *, *, #267, .T. ) ;
#177 =( NAMED_UNIT ( * ) SI_UNIT ( $, .STERADIAN. ) SOLID_ANGLE_UNIT ( ) );
#178 = ADVANCED_FACE ( 'NONE', ( #341 ), #346, .T. ) ;
#179 = ORIENTED_EDGE ( 'NONE', *, *, #203, .F. ) ;
#180 = ORIENTED_EDGE ( 'NONE', *, *, #267, .F. ) ;
#181 = ORIENTED_EDGE ( 'NONE', *, *, #309, .F. ) ;
#182 = ORIENTED_EDGE ( 'NONE', *, *, #24, .F. ) ;
#183 = CONICAL_SURFACE ( 'NONE', #323, 0.2350000000000011524, 0.7853981633974380649 ) ;
#184 = ORIENTED_EDGE ( 'NONE', *, *, #119, .F. ) ;
#185 = FILL_AREA_STYLE ('',( #266 ) ) ;
#186 = DIRECTION ( 'NONE',  ( 1.000000000000000000, 0.0000000000000000000, -0.0000000000000000000 ) ) ;
#187 = CARTESIAN_POINT ( 'NONE',  ( 0.2350000000000011524, 2.969768487932338510E-17, 3.000000000000000444 ) ) ;
#188 = AXIS2_PLACEMENT_3D ( 'NONE', #13, #5, #202 ) ;
#189 = DIRECTION ( 'NONE',  ( 1.000000000000000000, 0.0000000000000000000, 0.0000000000000000000 ) ) ;
#190 = EDGE_CURVE ( 'NONE', #10, #200, #159, .T. ) ;
#191 = MECHANICAL_DESIGN_GEOMETRIC_PRESENTATION_REPRESENTATION (  '', ( #64 ), #204 ) ;
#192 = UNCERTAINTY_MEASURE_WITH_UNIT (LENGTH_MEASURE( 1.000000000000000082E-05 ), #232, 'distance_accuracy_value', 'NONE');
#193 = CARTESIAN_POINT ( 'NONE',  ( 1.224646799147353454E-16, 0.0000000000000000000, 1.000000000000000000 ) ) ;
#194 = ADVANCED_FACE ( 'NONE', ( #98 ), #296, .F. ) ;
#195 = VERTEX_POINT ( 'NONE', #46 ) ;
#196 = FACE_OUTER_BOUND ( 'NONE', #144, .T. ) ;
#197 = DIRECTION ( 'NONE',  ( 1.000000000000000000, 0.0000000000000000000, 0.0000000000000000000 ) ) ;
#198 = ORIENTED_EDGE ( 'NONE', *, *, #136, .T. ) ;
#199 = DIRECTION ( 'NONE',  ( -1.000000000000000000, 0.0000000000000000000, 0.0000000000000000000 ) ) ;
#200 = VERTEX_POINT ( 'NONE', #268 ) ;
#201 = ORIENTED_EDGE ( 'NONE', *, *, #243, .F. ) ;
#202 = DIRECTION ( 'NONE',  ( 1.000000000000000000, 0.0000000000000000000, 0.0000000000000000000 ) ) ;
#203 = EDGE_CURVE ( 'NONE', #235, #195, #208, .T. ) ;
#204 =( GEOMETRIC_REPRESENTATION_CONTEXT ( 3 ) GLOBAL_UNCERTAINTY_ASSIGNED_CONTEXT ( ( #304 ) ) GLOBAL_UNIT_ASSIGNED_CONTEXT ( ( #19, #128, #45 ) ) REPRESENTATION_CONTEXT ( 'NONE', 'WORKASPACE' ) );
#205 = ORIENTED_EDGE ( 'NONE', *, *, #190, .T. ) ;
#206 = CONICAL_SURFACE ( 'NONE', #240, 0.2497499999999999998, 0.1745329251994338360 ) ;
#207 = ORIENTED_EDGE ( 'NONE', *, *, #233, .T. ) ;
#208 = LINE ( 'NONE', #151, #2 ) ;
#209 = ORIENTED_EDGE ( 'NONE', *, *, #18, .F. ) ;
#210 = DIRECTION ( 'NONE',  ( -0.0000000000000000000, -0.0000000000000000000, -1.000000000000000000 ) ) ;
#211 = EDGE_LOOP ( 'NONE', ( #34, #339, #260, #286 ) ) ;
#212 = DIRECTION ( 'NONE',  ( -0.7071067811865402453, 0.0000000000000000000, -0.7071067811865546782 ) ) ;
#213 = TOROIDAL_SURFACE ( 'NONE', #16, 0.2397500000000000187, 0.01000000000000000021 ) ;
#214 = CARTESIAN_POINT ( 'NONE',  ( 1.224646799147353577E-18, 0.0000000000000000000, 0.0000000000000000000 ) ) ;
#215 = CARTESIAN_POINT ( 'NONE',  ( 0.2497500000000001386, 0.0000000000000000000, 1.000000000000000000 ) ) ;
#216 = ADVANCED_BREP_SHAPE_REPRESENTATION ( 'Micro_GEC-500-4-010X', ( #220, #164 ), #108 ) ;
#217 = DIRECTION ( 'NONE',  ( 0.0000000000000000000, 0.0000000000000000000, -1.000000000000000000 ) ) ;
#218 = DIRECTION ( 'NONE',  ( -1.224646799147353454E-16, -0.0000000000000000000, -1.000000000000000000 ) ) ;
#219 = AXIS2_PLACEMENT_3D ( 'NONE', #214, #131, #295 ) ;
#220 = MANIFOLD_SOLID_BREP ( 'Fillet1', #95 ) ;
#221 = CARTESIAN_POINT ( 'NONE',  ( 1.224646799147353577E-18, 0.0000000000000000000, 0.01000000000000000021 ) ) ;
#222 = DIRECTION ( 'NONE',  ( 1.000000000000000000, 0.0000000000000000000, 0.0000000000000000000 ) ) ;
#223 = CARTESIAN_POINT ( 'NONE',  ( 0.0000000000000000000, 0.0000000000000000000, 2.985000000000001208 ) ) ;
#224 = CARTESIAN_POINT ( 'NONE',  ( -0.2499999999999998612, 0.0000000000000000000, 1.001417820454904462 ) ) ;
#225 = ORIENTED_EDGE ( 'NONE', *, *, #293, .F. ) ;
#226 = DIRECTION ( 'NONE',  ( -1.000000000000000000, 0.0000000000000000000, 0.0000000000000000000 ) ) ;
#227 = EDGE_LOOP ( 'NONE', ( #201, #94, #198, #118 ) ) ;
#228 = DIRECTION ( 'NONE',  ( 1.224646799147353454E-16, 0.0000000000000000000, 1.000000000000000000 ) ) ;
#229 = VECTOR ( 'NONE', #218, 39.37007874015748143 ) ;
#230 = LINE ( 'NONE', #42, #121 ) ;
#231 = ORIENTED_EDGE ( 'NONE', *, *, #289, .T. ) ;
#232 =( CONVERSION_BASED_UNIT ( 'INCH', #137 ) LENGTH_UNIT ( ) NAMED_UNIT ( #142 ) );
#233 = EDGE_CURVE ( 'NONE', #195, #39, #342, .T. ) ;
#234 = SURFACE_SIDE_STYLE ('',( #79 ) ) ;
#235 = VERTEX_POINT ( 'NONE', #55 ) ;
#236 = CARTESIAN_POINT ( 'NONE',  ( 0.2397500000000000187, 0.0000000000000000000, 0.0000000000000000000 ) ) ;
#237 = PRESENTATION_STYLE_ASSIGNMENT (( #322 ) ) ;
#238 = LINE ( 'NONE', #67, #307 ) ;
#239 = PRODUCT_CONTEXT ( 'NONE', #23, 'mechanical' ) ;
#240 = AXIS2_PLACEMENT_3D ( 'NONE', #193, #174, #279 ) ;
#241 = ADVANCED_FACE ( 'NONE', ( #253 ), #6, .T. ) ;
#242 = CARTESIAN_POINT ( 'NONE',  ( 0.0000000000000000000, 0.0000000000000000000, 0.0000000000000000000 ) ) ;
#243 = EDGE_CURVE ( 'NONE', #71, #39, #60, .T. ) ;
#244 = DIRECTION ( 'NONE',  ( -1.224646799147353454E-16, -0.0000000000000000000, -1.000000000000000000 ) ) ;
#245 = CONICAL_SURFACE ( 'NONE', #290, 0.2497499999999999998, 0.1745329251994338360 ) ;
#246 = COLOUR_RGB ( '',0.7921568627450980005, 0.8196078431372548767, 0.9333333333333333481 ) ;
#247 = EDGE_CURVE ( 'NONE', #259, #71, #80, .T. ) ;
#248 = CIRCLE ( 'NONE', #138, 0.2397500000000000187 ) ;
#249 = AXIS2_PLACEMENT_3D ( 'NONE', #114, #244, #303 ) ;
#250 = UNCERTAINTY_MEASURE_WITH_UNIT (LENGTH_MEASURE( 1.000000000000000082E-05 ), #130, 'distance_accuracy_value', 'NONE');
#251 = CARTESIAN_POINT ( 'NONE',  ( 0.0000000000000000000, 0.0000000000000000000, 3.000000000000000444 ) ) ;
#252 = DIRECTION ( 'NONE',  ( 0.0000000000000000000, 0.0000000000000000000, -1.000000000000000000 ) ) ;
#253 = FACE_OUTER_BOUND ( 'NONE', #292, .T. ) ;
#254 = EDGE_LOOP ( 'NONE', ( #315, #85, #257, #12 ) ) ;
#255 =( NAMED_UNIT ( * ) PLANE_ANGLE_UNIT ( ) SI_UNIT ( $, .RADIAN. ) );
#256 = VECTOR ( 'NONE', #21, 39.37007874015748143 ) ;
#257 = ORIENTED_EDGE ( 'NONE', *, *, #203, .T. ) ;
#258 = ORIENTED_EDGE ( 'NONE', *, *, #160, .F. ) ;
#259 = VERTEX_POINT ( 'NONE', #299 ) ;
#260 = ORIENTED_EDGE ( 'NONE', *, *, #313, .T. ) ;
#261 = DIRECTION ( 'NONE',  ( 1.000000000000000000, 0.0000000000000000000, 0.0000000000000000000 ) ) ;
#262 = ADVANCED_FACE ( 'NONE', ( #196 ), #170, .T. ) ;
#263 = CARTESIAN_POINT ( 'NONE',  ( 0.0000000000000000000, 0.0000000000000000000, 3.000000000000000444 ) ) ;
#264 = PRODUCT_DEFINITION_FORMATION_WITH_SPECIFIED_SOURCE ( 'ANY', '', #154, .NOT_KNOWN. ) ;
#265 = DIRECTION ( 'NONE',  ( -1.000000000000000000, 0.0000000000000000000, 0.0000000000000000000 ) ) ;
#266 = FILL_AREA_STYLE_COLOUR ( '', #325 ) ;
#267 = EDGE_CURVE ( 'NONE', #71, #40, #305, .T. ) ;
#268 = CARTESIAN_POINT ( 'NONE',  ( 0.2500000000000001110, 3.061616997868383634E-17, 1.001417820454904462 ) ) ;
#269 = FACE_OUTER_BOUND ( 'NONE', #254, .T. ) ;
#270 = VECTOR ( 'NONE', #139, 39.37007874015747433 ) ;
#271 = DIMENSIONAL_EXPONENTS ( 1.000000000000000000, 0.0000000000000000000, 0.0000000000000000000, 0.0000000000000000000, 0.0000000000000000000, 0.0000000000000000000, 0.0000000000000000000 ) ;
#272 = CARTESIAN_POINT ( 'NONE',  ( 1.224646799147353770E-18, 0.0000000000000000000, 0.01000000000000000194 ) ) ;
#273 = CIRCLE ( 'NONE', #167, 0.2497499999999999998 ) ;
#274 = DIRECTION ( 'NONE',  ( 0.0000000000000000000, 0.0000000000000000000, 1.000000000000000000 ) ) ;
#275 = ORIENTED_EDGE ( 'NONE', *, *, #119, .T. ) ;
#276 = CARTESIAN_POINT ( 'NONE',  ( 0.0000000000000000000, 0.0000000000000000000, 0.0000000000000000000 ) ) ;
#277 = FACE_OUTER_BOUND ( 'NONE', #281, .T. ) ;
#278 = ORIENTED_EDGE ( 'NONE', *, *, #190, .F. ) ;
#279 = DIRECTION ( 'NONE',  ( 1.000000000000000000, 0.0000000000000000000, 0.0000000000000000000 ) ) ;
#280 = DIRECTION ( 'NONE',  ( -1.224646799147353454E-16, -0.0000000000000000000, -1.000000000000000000 ) ) ;
#281 = EDGE_LOOP ( 'NONE', ( #306, #343 ) ) ;
#282 = CIRCLE ( 'NONE', #88, 0.009999999999999995004 ) ;
#283 = PRESENTATION_LAYER_ASSIGNMENT (  '', '', ( #64 ) ) ;
#284 = MECHANICAL_DESIGN_GEOMETRIC_PRESENTATION_REPRESENTATION (  '', ( #122 ), #28 ) ;
#285 = EDGE_LOOP ( 'NONE', ( #275, #113 ) ) ;
#286 = ORIENTED_EDGE ( 'NONE', *, *, #136, .F. ) ;
#287 = CARTESIAN_POINT ( 'NONE',  ( 0.0000000000000000000, 0.0000000000000000000, 3.000000000000000444 ) ) ;
#288 = VERTEX_POINT ( 'NONE', #166 ) ;
#289 = EDGE_CURVE ( 'NONE', #288, #40, #273, .T. ) ;
#290 = AXIS2_PLACEMENT_3D ( 'NONE', #120, #228, #87 ) ;
#291 = DIRECTION ( 'NONE',  ( -0.0000000000000000000, -0.0000000000000000000, -1.000000000000000000 ) ) ;
#292 = EDGE_LOOP ( 'NONE', ( #278, #101, #207, #91 ) ) ;
#293 = EDGE_CURVE ( 'NONE', #173, #235, #350, .T. ) ;
#294 = SURFACE_SIDE_STYLE ('',( #47 ) ) ;
#295 = DIRECTION ( 'NONE',  ( 1.000000000000000000, 0.0000000000000000000, 0.0000000000000000000 ) ) ;
#296 = PLANE ( 'NONE',  #27 ) ;
#297 = APPLICATION_PROTOCOL_DEFINITION ( 'draft international standard', 'automotive_design', 1998, #54 ) ;
#298 = AXIS2_PLACEMENT_3D ( 'NONE', #36, #11, #140 ) ;
#299 = CARTESIAN_POINT ( 'NONE',  ( 0.2497500000000001386, 0.0000000000000000000, 1.000000000000000000 ) ) ;
#300 = CIRCLE ( 'NONE', #89, 0.01000000000000000021 ) ;
#301 = AXIS2_PLACEMENT_3D ( 'NONE', #331, #217, #199 ) ;
#302 = ADVANCED_FACE ( 'NONE', ( #112 ), #213, .T. ) ;
#303 = DIRECTION ( 'NONE',  ( 1.000000000000000000, 0.0000000000000000000, 0.0000000000000000000 ) ) ;
#304 = UNCERTAINTY_MEASURE_WITH_UNIT (LENGTH_MEASURE( 1.000000000000000082E-05 ), #19, 'distance_accuracy_value', 'NONE');
#305 = LINE ( 'NONE', #4, #229 ) ;
#306 = ORIENTED_EDGE ( 'NONE', *, *, #1, .T. ) ;
#307 = VECTOR ( 'NONE', #348, 39.37007874015748143 ) ;
#308 = DIRECTION ( 'NONE',  ( 0.0000000000000000000, 0.0000000000000000000, 1.000000000000000000 ) ) ;
#309 = EDGE_CURVE ( 'NONE', #148, #288, #300, .T. ) ;
#310 = FACE_OUTER_BOUND ( 'NONE', #211, .T. ) ;
#311 = DIRECTION ( 'NONE',  ( -0.0000000000000000000, -0.0000000000000000000, -1.000000000000000000 ) ) ;
#312 = FACE_OUTER_BOUND ( 'NONE', #93, .T. ) ;
#313 = EDGE_CURVE ( 'NONE', #39, #200, #20, .T. ) ;
#314 = DIRECTION ( 'NONE',  ( -1.224646799147353454E-16, -0.0000000000000000000, -1.000000000000000000 ) ) ;
#315 = ORIENTED_EDGE ( 'NONE', *, *, #68, .F. ) ;
#316 = ORIENTED_EDGE ( 'NONE', *, *, #68, .T. ) ;
#317 = AXIS2_PLACEMENT_3D ( 'NONE', #251, #90, #110 ) ;
#318 = PRESENTATION_STYLE_ASSIGNMENT (( #25 ) ) ;
#319 = SHAPE_DEFINITION_REPRESENTATION ( #75, #216 ) ;
#320 = FACE_OUTER_BOUND ( 'NONE', #99, .T. ) ;
#321 = DIRECTION ( 'NONE',  ( -1.000000000000000000, 0.0000000000000000000, 0.0000000000000000000 ) ) ;
#322 = SURFACE_STYLE_USAGE ( .BOTH. , #234 ) ;
#323 = AXIS2_PLACEMENT_3D ( 'NONE', #263, #104, #321 ) ;
#324 = DIRECTION ( 'NONE',  ( 0.0000000000000000000, 0.0000000000000000000, -1.000000000000000000 ) ) ;
#325 = COLOUR_RGB ( '',0.7921568627450980005, 0.8196078431372548767, 0.9333333333333333481 ) ;
#326 = DIRECTION ( 'NONE',  ( -1.224646799147353454E-16, -0.0000000000000000000, -1.000000000000000000 ) ) ;
#327 = DIRECTION ( 'NONE',  ( -1.000000000000000000, 0.0000000000000000000, 0.0000000000000000000 ) ) ;
#328 = EDGE_CURVE ( 'NONE', #10, #195, #109, .T. ) ;
#329 = CARTESIAN_POINT ( 'NONE',  ( 1.224646799147353577E-18, 0.0000000000000000000, 0.0000000000000000000 ) ) ;
#330 = CIRCLE ( 'NONE', #49, 0.2500000000000000000 ) ;
#331 = CARTESIAN_POINT ( 'NONE',  ( 0.0000000000000000000, 0.0000000000000000000, 3.000000000000000444 ) ) ;
#332 = FACE_OUTER_BOUND ( 'NONE', #227, .T. ) ;
#333 = ORIENTED_EDGE ( 'NONE', *, *, #111, .T. ) ;
#334 = CARTESIAN_POINT ( 'NONE',  ( -0.2397500000000000187, 2.936090700955779284E-17, 0.01000000000000000021 ) ) ;
#335 = ORIENTED_EDGE ( 'NONE', *, *, #233, .F. ) ;
#336 = ADVANCED_FACE ( 'NONE', ( #269 ), #32, .T. ) ;
#337 = ADVANCED_FACE ( 'NONE', ( #310 ), #206, .T. ) ;
#338 = ORIENTED_EDGE ( 'NONE', *, *, #133, .T. ) ;
#339 = ORIENTED_EDGE ( 'NONE', *, *, #243, .T. ) ;
#340 = AXIS2_PLACEMENT_3D ( 'NONE', #61, #175, #186 ) ;
#341 = FACE_OUTER_BOUND ( 'NONE', #96, .T. ) ;
#342 = LINE ( 'NONE', #152, #53 ) ;
#343 = ORIENTED_EDGE ( 'NONE', *, *, #293, .T. ) ;
#344 = DIRECTION ( 'NONE',  ( 1.000000000000000000, 0.0000000000000000000, 0.0000000000000000000 ) ) ;
#345 =( NAMED_UNIT ( * ) PLANE_ANGLE_UNIT ( ) SI_UNIT ( $, .RADIAN. ) );
#346 = TOROIDAL_SURFACE ( 'NONE', #158, 0.2397500000000000187, 0.01000000000000000021 ) ;
#347 = PRESENTATION_LAYER_ASSIGNMENT (  '', '', ( #122 ) ) ;
#348 = DIRECTION ( 'NONE',  ( -1.224646799147353454E-16, -0.0000000000000000000, -1.000000000000000000 ) ) ;
#349 = DIRECTION ( 'NONE',  ( 0.0000000000000000000, 0.0000000000000000000, 1.000000000000000000 ) ) ;
#350 = CIRCLE ( 'NONE', #317, 0.2350000000000011524 ) ;
#351 = PRODUCT_DEFINITION ( 'UNKNOWN', '', #264, #50 ) ;
ENDSEC;
END-ISO-10303-21;
