ISO-10303-21;
HEADER;
FILE_DESCRIPTION (( 'STEP AP214' ),
    '1' );
FILE_NAME ('Micro_SEM-171-03.STEP',
    '2021-09-02T01:56:39',
    ( '' ),
    ( '' ),
    'SwSTEP 2.0',
    'SolidWorks 2020',
    '' );
FILE_SCHEMA (( 'AUTOMOTIVE_DESIGN' ));
ENDSEC;

DATA;
#1 = ORIENTED_EDGE ( 'NONE', *, *, #4, .T. ) ;
#2 = PLANE ( 'NONE',  #131 ) ;
#3 = DIRECTION ( 'NONE',  ( -1.000000000000000000, 0.0000000000000000000, 1.224646799147353454E-16 ) ) ;
#4 = EDGE_CURVE ( 'NONE', #297, #85, #88, .T. ) ;
#5 = DIRECTION ( 'NONE',  ( 0.7071067811865531239, 8.659560562355003116E-17, -0.7071067811865419106 ) ) ;
#6 = AXIS2_PLACEMENT_3D ( 'NONE', #92, #181, #123 ) ;
#7 = EDGE_CURVE ( 'NONE', #91, #64, #272, .T. ) ;
#8 = DIRECTION ( 'NONE',  ( 1.000000000000000000, 0.0000000000000000000, 0.0000000000000000000 ) ) ;
#9 = CARTESIAN_POINT ( 'NONE',  ( 3.833144481331216295E-17, 0.0000000000000000000, 0.3130000000000000004 ) ) ;
#10 = FACE_OUTER_BOUND ( 'NONE', #292, .T. ) ;
#11 = DIRECTION ( 'NONE',  ( 0.0000000000000000000, 0.0000000000000000000, 1.000000000000000000 ) ) ;
#12 =( LENGTH_UNIT ( ) NAMED_UNIT ( * ) SI_UNIT ( $, .METRE. ) );
#13 = ORIENTED_EDGE ( 'NONE', *, *, #295, .F. ) ;
#14 = AXIS2_PLACEMENT_3D ( 'NONE', #9, #220, #242 ) ;
#15 = ORIENTED_EDGE ( 'NONE', *, *, #200, .T. ) ;
#16 = ORIENTED_EDGE ( 'NONE', *, *, #40, .F. ) ;
#17 = EDGE_LOOP ( 'NONE', ( #112, #232, #38, #19 ) ) ;
#18 = APPLICATION_CONTEXT ( 'automotive_design' ) ;
#19 = ORIENTED_EDGE ( 'NONE', *, *, #31, .F. ) ;
#20 = VECTOR ( 'NONE', #57, 39.37007874015748143 ) ;
#21 = CARTESIAN_POINT ( 'NONE',  ( 4.380848717343942177E-17, 0.0000000000000000000, 0.3577234448654141308 ) ) ;
#22 = SURFACE_SIDE_STYLE ('',( #23 ) ) ;
#23 = SURFACE_STYLE_FILL_AREA ( #283 ) ;
#24 = DIRECTION ( 'NONE',  ( 0.0000000000000000000, 0.0000000000000000000, -1.000000000000000000 ) ) ;
#25 = CYLINDRICAL_SURFACE ( 'NONE', #140, 0.08586404999999998344 ) ;
#26 = AXIS2_PLACEMENT_3D ( 'NONE', #82, #264, #170 ) ;
#27 = DIRECTION ( 'NONE',  ( 0.0000000000000000000, 0.0000000000000000000, 1.000000000000000000 ) ) ;
#28 = ADVANCED_FACE ( 'NONE', ( #69 ), #98, .T. ) ;
#29 = CYLINDRICAL_SURFACE ( 'NONE', #65, 0.08586404999999998344 ) ;
#30 = CARTESIAN_POINT ( 'NONE',  ( 4.380848717343942177E-17, 0.0000000000000000000, 0.3577234448654141308 ) ) ;
#31 = EDGE_CURVE ( 'NONE', #87, #64, #162, .T. ) ;
#32 = AXIS2_PLACEMENT_3D ( 'NONE', #276, #186, #3 ) ;
#33 = DIRECTION ( 'NONE',  ( -1.000000000000000000, 0.0000000000000000000, 0.0000000000000000000 ) ) ;
#34 = SURFACE_STYLE_USAGE ( .BOTH. , #39 ) ;
#35 = ORIENTED_EDGE ( 'NONE', *, *, #222, .T. ) ;
#36 =( CONVERSION_BASED_UNIT ( 'INCH', #296 ) LENGTH_UNIT ( ) NAMED_UNIT ( #72 ) );
#37 = CONICAL_SURFACE ( 'NONE', #14, 0.08586404999999998344, 0.1745329251994339192 ) ;
#38 = ORIENTED_EDGE ( 'NONE', *, *, #7, .T. ) ;
#39 = SURFACE_SIDE_STYLE ('',( #254 ) ) ;
#40 = EDGE_CURVE ( 'NONE', #41, #229, #171, .T. ) ;
#41 = VERTEX_POINT ( 'NONE', #141 ) ;
#42 = ORIENTED_EDGE ( 'NONE', *, *, #113, .T. ) ;
#43 = DIMENSIONAL_EXPONENTS ( 1.000000000000000000, 0.0000000000000000000, 0.0000000000000000000, 0.0000000000000000000, 0.0000000000000000000, 0.0000000000000000000, 0.0000000000000000000 ) ;
#44 = FACE_OUTER_BOUND ( 'NONE', #17, .T. ) ;
#45 = DIMENSIONAL_EXPONENTS ( 1.000000000000000000, 0.0000000000000000000, 0.0000000000000000000, 0.0000000000000000000, 0.0000000000000000000, 0.0000000000000000000, 0.0000000000000000000 ) ;
#46 = EDGE_CURVE ( 'NONE', #249, #91, #263, .T. ) ;
#47 = PRESENTATION_STYLE_ASSIGNMENT (( #261 ) ) ;
#48 = EDGE_CURVE ( 'NONE', #85, #253, #60, .T. ) ;
#49 = CARTESIAN_POINT ( 'NONE',  ( 0.0000000000000000000, 0.0000000000000000000, 0.0000000000000000000 ) ) ;
#50 = CIRCLE ( 'NONE', #125, 0.09375000000000001388 ) ;
#51 =( LENGTH_UNIT ( ) NAMED_UNIT ( * ) SI_UNIT ( $, .METRE. ) );
#52 = DIRECTION ( 'NONE',  ( 0.1736481776669314137, 0.0000000000000000000, 0.9848077530122077983 ) ) ;
#53 = LINE ( 'NONE', #290, #20 ) ;
#54 = AXIS2_PLACEMENT_3D ( 'NONE', #265, #285, #8 ) ;
#55 = CARTESIAN_POINT ( 'NONE',  ( 0.0000000000000000000, 0.0000000000000000000, 1.500000000000000222 ) ) ;
#56 = EDGE_CURVE ( 'NONE', #249, #87, #122, .T. ) ;
#57 = DIRECTION ( 'NONE',  ( -0.0000000000000000000, -0.0000000000000000000, -1.000000000000000000 ) ) ;
#58 = CARTESIAN_POINT ( 'NONE',  ( -0.08586404999999995569, 1.099818857071963371E-17, 0.3130000000000000004 ) ) ;
#59 = MANIFOLD_SOLID_BREP ( 'Cut-Revolve1', #234 ) ;
#60 = CIRCLE ( 'NONE', #32, 0.08586404999999999732 ) ;
#61 = AXIS2_PLACEMENT_3D ( 'NONE', #135, #231, #132 ) ;
#62 = ADVANCED_FACE ( 'NONE', ( #44 ), #278, .T. ) ;
#63 = ORIENTED_EDGE ( 'NONE', *, *, #40, .T. ) ;
#64 = VERTEX_POINT ( 'NONE', #75 ) ;
#65 = AXIS2_PLACEMENT_3D ( 'NONE', #127, #219, #246 ) ;
#66 = CARTESIAN_POINT ( 'NONE',  ( -0.07875000000000061118, 0.0000000000000000000, 1.500000000000000222 ) ) ;
#67 =( NAMED_UNIT ( * ) SI_UNIT ( $, .STERADIAN. ) SOLID_ANGLE_UNIT ( ) );
#68 = ORIENTED_EDGE ( 'NONE', *, *, #165, .F. ) ;
#69 = FACE_OUTER_BOUND ( 'NONE', #205, .T. ) ;
#70 = CARTESIAN_POINT ( 'NONE',  ( 3.833144481331216295E-17, 0.0000000000000000000, 0.3130000000000000004 ) ) ;
#71 = VECTOR ( 'NONE', #5, 39.37007874015748143 ) ;
#72 = DIMENSIONAL_EXPONENTS ( 1.000000000000000000, 0.0000000000000000000, 0.0000000000000000000, 0.0000000000000000000, 0.0000000000000000000, 0.0000000000000000000, 0.0000000000000000000 ) ;
#73 = FILL_AREA_STYLE_COLOUR ( '', #109 ) ;
#74 = EDGE_CURVE ( 'NONE', #203, #297, #149, .T. ) ;
#75 = CARTESIAN_POINT ( 'NONE',  ( -0.09375000000000001388, 0.0000000000000000000, 1.485000000000000986 ) ) ;
#76 = EDGE_CURVE ( 'NONE', #64, #87, #50, .T. ) ;
#77 = AXIS2_PLACEMENT_3D ( 'NONE', #21, #238, #214 ) ;
#78 = CARTESIAN_POINT ( 'NONE',  ( 0.0000000000000000000, 0.0000000000000000000, 1.500000000000000222 ) ) ;
#79 = DIRECTION ( 'NONE',  ( -1.000000000000000000, 0.0000000000000000000, 1.224646799147353454E-16 ) ) ;
#80 = CARTESIAN_POINT ( 'NONE',  ( 0.08586404999999998344, 1.051531339943282878E-17, -1.051531339943283032E-17 ) ) ;
#81 = VECTOR ( 'NONE', #287, 39.37007874015748143 ) ;
#82 = CARTESIAN_POINT ( 'NONE',  ( 0.0000000000000000000, 0.0000000000000000000, 1.500000000000000222 ) ) ;
#83 = FACE_OUTER_BOUND ( 'NONE', #256, .T. ) ;
#84 = DIRECTION ( 'NONE',  ( -1.224646799147353454E-16, -0.0000000000000000000, -1.000000000000000000 ) ) ;
#85 = VERTEX_POINT ( 'NONE', #160 ) ;
#86 = APPLICATION_PROTOCOL_DEFINITION ( 'draft international standard', 'automotive_design', 1998, #18 ) ;
#87 = VERTEX_POINT ( 'NONE', #138 ) ;
#88 = LINE ( 'NONE', #269, #204 ) ;
#89 = AXIS2_PLACEMENT_3D ( 'NONE', #148, #247, #33 ) ;
#90 = ORIENTED_EDGE ( 'NONE', *, *, #200, .F. ) ;
#91 = VERTEX_POINT ( 'NONE', #233 ) ;
#92 = CARTESIAN_POINT ( 'NONE',  ( 0.0000000000000000000, 0.0000000000000000000, 1.500000000000000222 ) ) ;
#93 = CARTESIAN_POINT ( 'NONE',  ( 0.0000000000000000000, 0.0000000000000000000, 1.500000000000000222 ) ) ;
#94 = CIRCLE ( 'NONE', #252, 0.07875000000000061118 ) ;
#95 = PRODUCT ( 'Micro_SEM-171-03', 'Micro_SEM-171-03', '', ( #202 ) ) ;
#96 =( CONVERSION_BASED_UNIT ( 'INCH', #118 ) LENGTH_UNIT ( ) NAMED_UNIT ( #45 ) );
#97 = ADVANCED_FACE ( 'NONE', ( #210 ), #2, .T. ) ;
#98 = CYLINDRICAL_SURFACE ( 'NONE', #198, 0.09375000000000001388 ) ;
#99 = CARTESIAN_POINT ( 'NONE',  ( 0.0000000000000000000, 0.0000000000000000000, 1.485000000000000986 ) ) ;
#100 = CARTESIAN_POINT ( 'NONE',  ( 0.08586405000000002508, 0.0000000000000000000, 0.3130000000000000004 ) ) ;
#101 = LINE ( 'NONE', #144, #227 ) ;
#102 = ADVANCED_FACE ( 'NONE', ( #184 ), #161, .F. ) ;
#103 = DIRECTION ( 'NONE',  ( -0.1736481776669312194, 2.126576849575783625E-17, 0.9848077530122080203 ) ) ;
#104 = ADVANCED_FACE ( 'NONE', ( #10 ), #37, .T. ) ;
#105 = VECTOR ( 'NONE', #84, 39.37007874015748143 ) ;
#106 = FACE_OUTER_BOUND ( 'NONE', #275, .T. ) ;
#107 = CARTESIAN_POINT ( 'NONE',  ( 1.287754489664669484E-33, 0.0000000000000000000, 1.051531339943283186E-17 ) ) ;
#108 = ORIENTED_EDGE ( 'NONE', *, *, #76, .T. ) ;
#109 = COLOUR_RGB ( '',0.7921568627450980005, 0.8196078431372548767, 0.9333333333333333481 ) ;
#110 = PRESENTATION_LAYER_ASSIGNMENT (  '', '', ( #120 ) ) ;
#111 = ORIENTED_EDGE ( 'NONE', *, *, #243, .T. ) ;
#112 = ORIENTED_EDGE ( 'NONE', *, *, #56, .F. ) ;
#113 = EDGE_CURVE ( 'NONE', #297, #203, #291, .T. ) ;
#114 = EDGE_LOOP ( 'NONE', ( #251, #270 ) ) ;
#115 = APPLICATION_PROTOCOL_DEFINITION ( 'draft international standard', 'automotive_design', 1998, #223 ) ;
#116 =( GEOMETRIC_REPRESENTATION_CONTEXT ( 3 ) GLOBAL_UNCERTAINTY_ASSIGNED_CONTEXT ( ( #237 ) ) GLOBAL_UNIT_ASSIGNED_CONTEXT ( ( #96, #281, #235 ) ) REPRESENTATION_CONTEXT ( 'NONE', 'WORKASPACE' ) );
#117 = ORIENTED_EDGE ( 'NONE', *, *, #48, .F. ) ;
#118 = LENGTH_MEASURE_WITH_UNIT ( LENGTH_MEASURE( 0.02539999999999999897 ), #51 );
#119 = DIRECTION ( 'NONE',  ( 0.0000000000000000000, 0.0000000000000000000, 1.000000000000000000 ) ) ;
#120 = STYLED_ITEM ( 'NONE', ( #224 ), #230 ) ;
#121 = UNCERTAINTY_MEASURE_WITH_UNIT (LENGTH_MEASURE( 1.000000000000000082E-05 ), #271, 'distance_accuracy_value', 'NONE');
#122 = LINE ( 'NONE', #239, #71 ) ;
#123 = DIRECTION ( 'NONE',  ( -1.000000000000000000, 0.0000000000000000000, 0.0000000000000000000 ) ) ;
#124 = DIRECTION ( 'NONE',  ( 1.000000000000000000, 0.0000000000000000000, -0.0000000000000000000 ) ) ;
#125 = AXIS2_PLACEMENT_3D ( 'NONE', #99, #279, #258 ) ;
#126 = LINE ( 'NONE', #217, #241 ) ;
#127 = CARTESIAN_POINT ( 'NONE',  ( 0.0000000000000000000, 0.0000000000000000000, 0.0000000000000000000 ) ) ;
#128 = DIRECTION ( 'NONE',  ( -1.224646799147353454E-16, -0.0000000000000000000, -1.000000000000000000 ) ) ;
#129 = PRODUCT_DEFINITION_CONTEXT ( 'detailed design', #223, 'design' ) ;
#130 = ORIENTED_EDGE ( 'NONE', *, *, #46, .T. ) ;
#131 = AXIS2_PLACEMENT_3D ( 'NONE', #93, #119, #212 ) ;
#132 = DIRECTION ( 'NONE',  ( 1.000000000000000000, 0.0000000000000000000, 0.0000000000000000000 ) ) ;
#133 = ORIENTED_EDGE ( 'NONE', *, *, #31, .T. ) ;
#134 = ORIENTED_EDGE ( 'NONE', *, *, #7, .F. ) ;
#135 = CARTESIAN_POINT ( 'NONE',  ( 0.0000000000000000000, 0.0000000000000000000, 0.0000000000000000000 ) ) ;
#136 = ORIENTED_EDGE ( 'NONE', *, *, #295, .T. ) ;
#137 = STYLED_ITEM ( 'NONE', ( #47 ), #59 ) ;
#138 = CARTESIAN_POINT ( 'NONE',  ( 0.09375000000000001388, 1.148106374200643401E-17, 1.485000000000000986 ) ) ;
#139 = CARTESIAN_POINT ( 'NONE',  ( 0.0000000000000000000, 0.0000000000000000000, 1.500000000000000222 ) ) ;
#140 = AXIS2_PLACEMENT_3D ( 'NONE', #191, #240, #79 ) ;
#141 = CARTESIAN_POINT ( 'NONE',  ( 0.09375000000000004163, 1.148106374200644017E-17, 0.3577234448654141308 ) ) ;
#142 = DIRECTION ( 'NONE',  ( -0.0000000000000000000, -0.0000000000000000000, -1.000000000000000000 ) ) ;
#143 = DIRECTION ( 'NONE',  ( 1.000000000000000000, 0.0000000000000000000, 0.0000000000000000000 ) ) ;
#144 = CARTESIAN_POINT ( 'NONE',  ( 0.08586405000000002508, 0.0000000000000000000, 0.3130000000000000004 ) ) ;
#145 = MECHANICAL_DESIGN_GEOMETRIC_PRESENTATION_REPRESENTATION (  '', ( #137 ), #116 ) ;
#146 = CARTESIAN_POINT ( 'NONE',  ( 3.833144481331216295E-17, 0.0000000000000000000, 0.3130000000000000004 ) ) ;
#147 = DIRECTION ( 'NONE',  ( -1.000000000000000000, 0.0000000000000000000, 1.224646799147353454E-16 ) ) ;
#148 = CARTESIAN_POINT ( 'NONE',  ( 0.0000000000000000000, 0.0000000000000000000, 1.500000000000000222 ) ) ;
#149 = CIRCLE ( 'NONE', #154, 0.08586404999999998344 ) ;
#150 = COLOUR_RGB ( '',0.7921568627450980005, 0.8196078431372548767, 0.9333333333333333481 ) ;
#151 = FILL_AREA_STYLE_COLOUR ( '', #150 ) ;
#152 = ORIENTED_EDGE ( 'NONE', *, *, #56, .T. ) ;
#153 = EDGE_LOOP ( 'NONE', ( #180, #225, #1, #176 ) ) ;
#154 = AXIS2_PLACEMENT_3D ( 'NONE', #70, #159, #216 ) ;
#155 =( LENGTH_UNIT ( ) NAMED_UNIT ( * ) SI_UNIT ( $, .METRE. ) );
#156 = DIRECTION ( 'NONE',  ( -0.7071067811865531239, 0.0000000000000000000, -0.7071067811865419106 ) ) ;
#157 = ORIENTED_EDGE ( 'NONE', *, *, #259, .F. ) ;
#158 = ORIENTED_EDGE ( 'NONE', *, *, #113, .F. ) ;
#159 = DIRECTION ( 'NONE',  ( -1.224646799147353454E-16, -0.0000000000000000000, -1.000000000000000000 ) ) ;
#160 = CARTESIAN_POINT ( 'NONE',  ( -0.08586404999999999732, 0.0000000000000000000, 2.103062679886566373E-17 ) ) ;
#161 = PLANE ( 'NONE',  #221 ) ;
#162 = CIRCLE ( 'NONE', #206, 0.09375000000000001388 ) ;
#163 = DIRECTION ( 'NONE',  ( 1.000000000000000000, 0.0000000000000000000, 0.0000000000000000000 ) ) ;
#164 =( GEOMETRIC_REPRESENTATION_CONTEXT ( 3 ) GLOBAL_UNCERTAINTY_ASSIGNED_CONTEXT ( ( #121 ) ) GLOBAL_UNIT_ASSIGNED_CONTEXT ( ( #271, #173, #67 ) ) REPRESENTATION_CONTEXT ( 'NONE', 'WORKASPACE' ) );
#165 = EDGE_CURVE ( 'NONE', #297, #229, #126, .T. ) ;
#166 = LINE ( 'NONE', #80, #105 ) ;
#167 = FACE_OUTER_BOUND ( 'NONE', #197, .T. ) ;
#168 = CARTESIAN_POINT ( 'NONE',  ( 0.08586404999999999732, 1.051531339943283032E-17, -1.895600338963814870E-33 ) ) ;
#169 = DIRECTION ( 'NONE',  ( -1.224646799147353454E-16, -0.0000000000000000000, -1.000000000000000000 ) ) ;
#170 = DIRECTION ( 'NONE',  ( -1.000000000000000000, 0.0000000000000000000, 0.0000000000000000000 ) ) ;
#171 = CIRCLE ( 'NONE', #77, 0.09375000000000001388 ) ;
#172 = ORIENTED_EDGE ( 'NONE', *, *, #74, .F. ) ;
#173 =( NAMED_UNIT ( * ) PLANE_ANGLE_UNIT ( ) SI_UNIT ( $, .RADIAN. ) );
#174 = ORIENTED_EDGE ( 'NONE', *, *, #76, .F. ) ;
#175 = LENGTH_MEASURE_WITH_UNIT ( LENGTH_MEASURE( 0.02539999999999999897 ), #12 );
#176 = ORIENTED_EDGE ( 'NONE', *, *, #266, .F. ) ;
#177 = PRESENTATION_LAYER_ASSIGNMENT (  '', '', ( #137 ) ) ;
#178 =( NAMED_UNIT ( * ) PLANE_ANGLE_UNIT ( ) SI_UNIT ( $, .RADIAN. ) );
#179 = EDGE_LOOP ( 'NONE', ( #299, #130 ) ) ;
#180 = ORIENTED_EDGE ( 'NONE', *, *, #222, .F. ) ;
#181 = DIRECTION ( 'NONE',  ( 0.0000000000000000000, 0.0000000000000000000, -1.000000000000000000 ) ) ;
#182 = DIRECTION ( 'NONE',  ( -1.000000000000000000, 0.0000000000000000000, 0.0000000000000000000 ) ) ;
#183 = ADVANCED_FACE ( 'NONE', ( #83 ), #211, .T. ) ;
#184 = FACE_OUTER_BOUND ( 'NONE', #114, .T. ) ;
#185 = UNCERTAINTY_MEASURE_WITH_UNIT (LENGTH_MEASURE( 1.000000000000000082E-05 ), #36, 'distance_accuracy_value', 'NONE');
#186 = DIRECTION ( 'NONE',  ( -1.224646799147353454E-16, -0.0000000000000000000, -1.000000000000000000 ) ) ;
#187 = PRODUCT_DEFINITION_SHAPE ( 'NONE', 'NONE',  #213 ) ;
#188 = CIRCLE ( 'NONE', #193, 0.08586404999999999732 ) ;
#189 = DIRECTION ( 'NONE',  ( 0.0000000000000000000, 0.0000000000000000000, 1.000000000000000000 ) ) ;
#190 = CARTESIAN_POINT ( 'NONE',  ( 0.07875000000000061118, 1.056257864264595965E-17, 1.500000000000000222 ) ) ;
#191 = CARTESIAN_POINT ( 'NONE',  ( 0.0000000000000000000, 0.0000000000000000000, 0.0000000000000000000 ) ) ;
#192 = CARTESIAN_POINT ( 'NONE',  ( -0.09375000000000001388, 0.0000000000000000000, 1.500000000000000222 ) ) ;
#193 = AXIS2_PLACEMENT_3D ( 'NONE', #107, #262, #147 ) ;
#194 = PRODUCT_DEFINITION_FORMATION_WITH_SPECIFIED_SOURCE ( 'ANY', '', #95, .NOT_KNOWN. ) ;
#195 = CYLINDRICAL_SURFACE ( 'NONE', #89, 0.09375000000000001388 ) ;
#196 = LINE ( 'NONE', #192, #81 ) ;
#197 = EDGE_LOOP ( 'NONE', ( #274, #152, #174, #134 ) ) ;
#198 = AXIS2_PLACEMENT_3D ( 'NONE', #78, #142, #182 ) ;
#199 =( NAMED_UNIT ( * ) SI_UNIT ( $, .STERADIAN. ) SOLID_ANGLE_UNIT ( ) );
#200 = EDGE_CURVE ( 'NONE', #87, #41, #53, .T. ) ;
#201 = ORIENTED_EDGE ( 'NONE', *, *, #259, .T. ) ;
#202 = PRODUCT_CONTEXT ( 'NONE', #18, 'mechanical' ) ;
#203 = VERTEX_POINT ( 'NONE', #100 ) ;
#204 = VECTOR ( 'NONE', #294, 39.37007874015748143 ) ;
#205 = EDGE_LOOP ( 'NONE', ( #90, #133, #111, #16 ) ) ;
#206 = AXIS2_PLACEMENT_3D ( 'NONE', #282, #24, #209 ) ;
#207 = SHAPE_DEFINITION_REPRESENTATION ( #187, #230 ) ;
#208 = ORIENTED_EDGE ( 'NONE', *, *, #243, .F. ) ;
#209 = DIRECTION ( 'NONE',  ( 1.000000000000000000, 0.0000000000000000000, 0.0000000000000000000 ) ) ;
#210 = FACE_OUTER_BOUND ( 'NONE', #179, .T. ) ;
#211 = CONICAL_SURFACE ( 'NONE', #54, 0.08586404999999998344, 0.1745329251994339192 ) ;
#212 = DIRECTION ( 'NONE',  ( 1.000000000000000000, 0.0000000000000000000, -0.0000000000000000000 ) ) ;
#213 = PRODUCT_DEFINITION ( 'UNKNOWN', '', #194, #129 ) ;
#214 = DIRECTION ( 'NONE',  ( 1.000000000000000000, 0.0000000000000000000, 0.0000000000000000000 ) ) ;
#215 = ADVANCED_FACE ( 'NONE', ( #218 ), #25, .T. ) ;
#216 = DIRECTION ( 'NONE',  ( -1.000000000000000000, 0.0000000000000000000, 0.0000000000000000000 ) ) ;
#217 = CARTESIAN_POINT ( 'NONE',  ( -0.08586404999999995569, 1.051531339943282878E-17, 0.3130000000000000004 ) ) ;
#218 = FACE_OUTER_BOUND ( 'NONE', #153, .T. ) ;
#219 = DIRECTION ( 'NONE',  ( -1.224646799147353454E-16, -0.0000000000000000000, -1.000000000000000000 ) ) ;
#220 = DIRECTION ( 'NONE',  ( 1.224646799147353454E-16, 0.0000000000000000000, 1.000000000000000000 ) ) ;
#221 = AXIS2_PLACEMENT_3D ( 'NONE', #49, #11, #124 ) ;
#222 = EDGE_CURVE ( 'NONE', #203, #253, #166, .T. ) ;
#223 = APPLICATION_CONTEXT ( 'automotive_design' ) ;
#224 = PRESENTATION_STYLE_ASSIGNMENT (( #34 ) ) ;
#225 = ORIENTED_EDGE ( 'NONE', *, *, #74, .T. ) ;
#226 = ORIENTED_EDGE ( 'NONE', *, *, #165, .T. ) ;
#227 = VECTOR ( 'NONE', #52, 39.37007874015748143 ) ;
#228 = EDGE_LOOP ( 'NONE', ( #42, #35, #117, #255 ) ) ;
#229 = VERTEX_POINT ( 'NONE', #267 ) ;
#230 = ADVANCED_BREP_SHAPE_REPRESENTATION ( 'Micro_SEM-171-03', ( #59, #61 ), #164 ) ;
#231 = DIRECTION ( 'NONE',  ( 0.0000000000000000000, 0.0000000000000000000, 1.000000000000000000 ) ) ;
#232 = ORIENTED_EDGE ( 'NONE', *, *, #280, .F. ) ;
#233 = CARTESIAN_POINT ( 'NONE',  ( -0.07875000000000061118, 0.0000000000000000000, 1.500000000000000222 ) ) ;
#234 = CLOSED_SHELL ( 'NONE', ( #288, #183, #245, #298, #28, #97, #62, #104, #215, #102 ) ) ;
#235 =( NAMED_UNIT ( * ) SI_UNIT ( $, .STERADIAN. ) SOLID_ANGLE_UNIT ( ) );
#236 = AXIS2_PLACEMENT_3D ( 'NONE', #139, #189, #163 ) ;
#237 = UNCERTAINTY_MEASURE_WITH_UNIT (LENGTH_MEASURE( 1.000000000000000082E-05 ), #96, 'distance_accuracy_value', 'NONE');
#238 = DIRECTION ( 'NONE',  ( -1.224646799147353454E-16, -0.0000000000000000000, -1.000000000000000000 ) ) ;
#239 = CARTESIAN_POINT ( 'NONE',  ( 0.07875000000000061118, 9.644093543285480678E-18, 1.500000000000000222 ) ) ;
#240 = DIRECTION ( 'NONE',  ( -1.224646799147353454E-16, -0.0000000000000000000, -1.000000000000000000 ) ) ;
#241 = VECTOR ( 'NONE', #103, 39.37007874015747433 ) ;
#242 = DIRECTION ( 'NONE',  ( 1.000000000000000000, 0.0000000000000000000, 0.0000000000000000000 ) ) ;
#243 = EDGE_CURVE ( 'NONE', #64, #229, #196, .T. ) ;
#244 = DIRECTION ( 'NONE',  ( 1.000000000000000000, 0.0000000000000000000, 0.0000000000000000000 ) ) ;
#245 = ADVANCED_FACE ( 'NONE', ( #167 ), #257, .T. ) ;
#246 = DIRECTION ( 'NONE',  ( -1.000000000000000000, 0.0000000000000000000, 1.224646799147353454E-16 ) ) ;
#247 = DIRECTION ( 'NONE',  ( -0.0000000000000000000, -0.0000000000000000000, -1.000000000000000000 ) ) ;
#248 = AXIS2_PLACEMENT_3D ( 'NONE', #146, #169, #289 ) ;
#249 = VERTEX_POINT ( 'NONE', #190 ) ;
#250 = FILL_AREA_STYLE ('',( #151 ) ) ;
#251 = ORIENTED_EDGE ( 'NONE', *, *, #48, .T. ) ;
#252 = AXIS2_PLACEMENT_3D ( 'NONE', #55, #27, #244 ) ;
#253 = VERTEX_POINT ( 'NONE', #168 ) ;
#254 = SURFACE_STYLE_FILL_AREA ( #250 ) ;
#255 = ORIENTED_EDGE ( 'NONE', *, *, #4, .F. ) ;
#256 = EDGE_LOOP ( 'NONE', ( #158, #226, #136, #157 ) ) ;
#257 = CONICAL_SURFACE ( 'NONE', #26, 0.07875000000000061118, 0.7853981633974562726 ) ;
#258 = DIRECTION ( 'NONE',  ( 1.000000000000000000, 0.0000000000000000000, 0.0000000000000000000 ) ) ;
#259 = EDGE_CURVE ( 'NONE', #203, #41, #101, .T. ) ;
#260 = CIRCLE ( 'NONE', #286, 0.09375000000000001388 ) ;
#261 = SURFACE_STYLE_USAGE ( .BOTH. , #22 ) ;
#262 = DIRECTION ( 'NONE',  ( -1.224646799147353454E-16, -0.0000000000000000000, -1.000000000000000000 ) ) ;
#263 = CIRCLE ( 'NONE', #236, 0.07875000000000061118 ) ;
#264 = DIRECTION ( 'NONE',  ( 0.0000000000000000000, 0.0000000000000000000, -1.000000000000000000 ) ) ;
#265 = CARTESIAN_POINT ( 'NONE',  ( 3.833144481331216295E-17, 0.0000000000000000000, 0.3130000000000000004 ) ) ;
#266 = EDGE_CURVE ( 'NONE', #253, #85, #188, .T. ) ;
#267 = CARTESIAN_POINT ( 'NONE',  ( -0.09374999999999995837, 0.0000000000000000000, 0.3577234448654141308 ) ) ;
#268 = PRODUCT_RELATED_PRODUCT_CATEGORY ( 'part', '', ( #95 ) ) ;
#269 = CARTESIAN_POINT ( 'NONE',  ( -0.08586404999999998344, 0.0000000000000000000, 1.051531339943283032E-17 ) ) ;
#270 = ORIENTED_EDGE ( 'NONE', *, *, #266, .T. ) ;
#271 =( CONVERSION_BASED_UNIT ( 'INCH', #175 ) LENGTH_UNIT ( ) NAMED_UNIT ( #43 ) );
#272 = LINE ( 'NONE', #66, #277 ) ;
#273 =( GEOMETRIC_REPRESENTATION_CONTEXT ( 3 ) GLOBAL_UNCERTAINTY_ASSIGNED_CONTEXT ( ( #185 ) ) GLOBAL_UNIT_ASSIGNED_CONTEXT ( ( #36, #178, #199 ) ) REPRESENTATION_CONTEXT ( 'NONE', 'WORKASPACE' ) );
#274 = ORIENTED_EDGE ( 'NONE', *, *, #46, .F. ) ;
#275 = EDGE_LOOP ( 'NONE', ( #108, #15, #13, #208 ) ) ;
#276 = CARTESIAN_POINT ( 'NONE',  ( 1.287754489664669484E-33, 0.0000000000000000000, 1.051531339943283186E-17 ) ) ;
#277 = VECTOR ( 'NONE', #156, 39.37007874015748143 ) ;
#278 = CONICAL_SURFACE ( 'NONE', #6, 0.07875000000000061118, 0.7853981633974562726 ) ;
#279 = DIRECTION ( 'NONE',  ( 0.0000000000000000000, 0.0000000000000000000, -1.000000000000000000 ) ) ;
#280 = EDGE_CURVE ( 'NONE', #91, #249, #94, .T. ) ;
#281 =( NAMED_UNIT ( * ) PLANE_ANGLE_UNIT ( ) SI_UNIT ( $, .RADIAN. ) );
#282 = CARTESIAN_POINT ( 'NONE',  ( 0.0000000000000000000, 0.0000000000000000000, 1.485000000000000986 ) ) ;
#283 = FILL_AREA_STYLE ('',( #73 ) ) ;
#284 = FACE_OUTER_BOUND ( 'NONE', #228, .T. ) ;
#285 = DIRECTION ( 'NONE',  ( 1.224646799147353454E-16, 0.0000000000000000000, 1.000000000000000000 ) ) ;
#286 = AXIS2_PLACEMENT_3D ( 'NONE', #30, #128, #143 ) ;
#287 = DIRECTION ( 'NONE',  ( -0.0000000000000000000, -0.0000000000000000000, -1.000000000000000000 ) ) ;
#288 = ADVANCED_FACE ( 'NONE', ( #284 ), #29, .T. ) ;
#289 = DIRECTION ( 'NONE',  ( -1.000000000000000000, 0.0000000000000000000, 0.0000000000000000000 ) ) ;
#290 = CARTESIAN_POINT ( 'NONE',  ( 0.09375000000000001388, 1.148106374200643401E-17, 1.500000000000000222 ) ) ;
#291 = CIRCLE ( 'NONE', #248, 0.08586404999999998344 ) ;
#292 = EDGE_LOOP ( 'NONE', ( #68, #172, #201, #63 ) ) ;
#293 = MECHANICAL_DESIGN_GEOMETRIC_PRESENTATION_REPRESENTATION (  '', ( #120 ), #273 ) ;
#294 = DIRECTION ( 'NONE',  ( -1.224646799147353454E-16, -0.0000000000000000000, -1.000000000000000000 ) ) ;
#295 = EDGE_CURVE ( 'NONE', #229, #41, #260, .T. ) ;
#296 = LENGTH_MEASURE_WITH_UNIT ( LENGTH_MEASURE( 0.02539999999999999897 ), #155 );
#297 = VERTEX_POINT ( 'NONE', #58 ) ;
#298 = ADVANCED_FACE ( 'NONE', ( #106 ), #195, .T. ) ;
#299 = ORIENTED_EDGE ( 'NONE', *, *, #280, .T. ) ;
ENDSEC;
END-ISO-10303-21;
