ISO-10303-21;
HEADER;
FILE_DESCRIPTION (( 'STEP AP214' ),
    '1' );
FILE_NAME ('Micro_RNC-500-2X.STEP',
    '2021-09-03T17:39:09',
    ( '' ),
    ( '' ),
    'SwSTEP 2.0',
    'SolidWorks 2020',
    '' );
FILE_SCHEMA (( 'AUTOMOTIVE_DESIGN' ));
ENDSEC;

DATA;
#1 = DIRECTION ( 'NONE',  ( -1.000000000000000000, 0.0000000000000000000, 0.0000000000000000000 ) ) ;
#2 = EDGE_CURVE ( 'NONE', #14, #209, #10, .T. ) ;
#3 = COLOUR_RGB ( '',0.7921568627450980005, 0.8196078431372548767, 0.9333333333333333481 ) ;
#4 = ORIENTED_EDGE ( 'NONE', *, *, #190, .T. ) ;
#5 = CARTESIAN_POINT ( 'NONE',  ( 0.2500000000000000000, 3.061616997868382402E-17, 0.2459999999999989695 ) ) ;
#6 = CARTESIAN_POINT ( 'NONE',  ( 0.0000000000000000000, 0.0000000000000000000, 3.000000000000000444 ) ) ;
#7 = EDGE_CURVE ( 'NONE', #117, #207, #233, .T. ) ;
#8 = SURFACE_STYLE_FILL_AREA ( #185 ) ;
#9 = CARTESIAN_POINT ( 'NONE',  ( 0.0000000000000000000, 0.0000000000000000000, 0.2459999999999989695 ) ) ;
#10 = CIRCLE ( 'NONE', #178, 0.003999999999999999216 ) ;
#11 =( NAMED_UNIT ( * ) SI_UNIT ( $, .STERADIAN. ) SOLID_ANGLE_UNIT ( ) );
#12 = CARTESIAN_POINT ( 'NONE',  ( 0.0000000000000000000, 0.0000000000000000000, 0.0000000000000000000 ) ) ;
#13 = DIRECTION ( 'NONE',  ( 0.0000000000000000000, 0.0000000000000000000, -1.000000000000000000 ) ) ;
#14 = VERTEX_POINT ( 'NONE', #16 ) ;
#15 = AXIS2_PLACEMENT_3D ( 'NONE', #194, #94, #25 ) ;
#16 = CARTESIAN_POINT ( 'NONE',  ( 0.003999999999999999216, 0.0000000000000000000, 3.000000000000000444 ) ) ;
#17 = CARTESIAN_POINT ( 'NONE',  ( 0.0000000000000000000, 0.0000000000000000000, 3.000000000000000444 ) ) ;
#18 = FACE_OUTER_BOUND ( 'NONE', #203, .T. ) ;
#19 = ADVANCED_FACE ( 'NONE', ( #131 ), #101, .T. ) ;
#20 = ADVANCED_BREP_SHAPE_REPRESENTATION ( 'Micro_RNC-500-2X', ( #130, #121 ), #224 ) ;
#21 = EDGE_CURVE ( 'NONE', #144, #40, #204, .T. ) ;
#22 = PLANE ( 'NONE',  #162 ) ;
#23 = CIRCLE ( 'NONE', #195, 0.003999999999999999216 ) ;
#24 = LINE ( 'NONE', #156, #152 ) ;
#25 = DIRECTION ( 'NONE',  ( -1.000000000000000000, 0.0000000000000000000, 0.0000000000000000000 ) ) ;
#26 = SURFACE_SIDE_STYLE ('',( #45 ) ) ;
#27 = PRODUCT_RELATED_PRODUCT_CATEGORY ( 'part', '', ( #106 ) ) ;
#28 = DIRECTION ( 'NONE',  ( 1.000000000000000000, 0.0000000000000000000, 0.0000000000000000000 ) ) ;
#29 = ORIENTED_EDGE ( 'NONE', *, *, #168, .T. ) ;
#30 = CARTESIAN_POINT ( 'NONE',  ( 0.0000000000000000000, 0.0000000000000000000, 3.000000000000000444 ) ) ;
#31 = ORIENTED_EDGE ( 'NONE', *, *, #138, .F. ) ;
#32 = LINE ( 'NONE', #104, #70 ) ;
#33 = LINE ( 'NONE', #196, #239 ) ;
#34 = CARTESIAN_POINT ( 'NONE',  ( 0.0000000000000000000, 0.0000000000000000000, 2.754000000000001336 ) ) ;
#35 = ORIENTED_EDGE ( 'NONE', *, *, #51, .T. ) ;
#36 = STYLED_ITEM ( 'NONE', ( #145 ), #20 ) ;
#37 = EDGE_LOOP ( 'NONE', ( #193, #31 ) ) ;
#38 = CIRCLE ( 'NONE', #49, 0.2500000000000000000 ) ;
#39 =( LENGTH_UNIT ( ) NAMED_UNIT ( * ) SI_UNIT ( $, .METRE. ) );
#40 = VERTEX_POINT ( 'NONE', #91 ) ;
#41 = CARTESIAN_POINT ( 'NONE',  ( 0.0000000000000000000, 0.0000000000000000000, 3.000000000000000444 ) ) ;
#42 = AXIS2_PLACEMENT_3D ( 'NONE', #6, #181, #81 ) ;
#43 = UNCERTAINTY_MEASURE_WITH_UNIT (LENGTH_MEASURE( 1.000000000000000082E-05 ), #245, 'distance_accuracy_value', 'NONE');
#44 = CARTESIAN_POINT ( 'NONE',  ( 0.0000000000000000000, 0.0000000000000000000, 0.0000000000000000000 ) ) ;
#45 = SURFACE_STYLE_FILL_AREA ( #146 ) ;
#46 = LENGTH_MEASURE_WITH_UNIT ( LENGTH_MEASURE( 0.02539999999999999897 ), #186 );
#47 =( CONVERSION_BASED_UNIT ( 'INCH', #154 ) LENGTH_UNIT ( ) NAMED_UNIT ( #227 ) );
#48 = CARTESIAN_POINT ( 'NONE',  ( -0.2500000000000000000, 0.0000000000000000000, 2.754000000000001336 ) ) ;
#49 = AXIS2_PLACEMENT_3D ( 'NONE', #177, #230, #1 ) ;
#50 = ORIENTED_EDGE ( 'NONE', *, *, #80, .F. ) ;
#51 = EDGE_CURVE ( 'NONE', #40, #207, #135, .T. ) ;
#52 = DIRECTION ( 'NONE',  ( 1.000000000000000000, 0.0000000000000000000, 0.0000000000000000000 ) ) ;
#53 = CONICAL_SURFACE ( 'NONE', #97, 0.003999999999999999216, 0.7853981633974503884 ) ;
#54 = ORIENTED_EDGE ( 'NONE', *, *, #90, .T. ) ;
#55 = DIRECTION ( 'NONE',  ( 0.7071067811865490160, 0.0000000000000000000, -0.7071067811865460184 ) ) ;
#56 = DIRECTION ( 'NONE',  ( 0.7071067811865490160, 0.0000000000000000000, 0.7071067811865460184 ) ) ;
#57 = CIRCLE ( 'NONE', #119, 0.2500000000000000000 ) ;
#58 = EDGE_CURVE ( 'NONE', #14, #40, #33, .T. ) ;
#59 = ADVANCED_FACE ( 'NONE', ( #18 ), #22, .F. ) ;
#60 = CIRCLE ( 'NONE', #219, 0.2500000000000000000 ) ;
#61 = CARTESIAN_POINT ( 'NONE',  ( 0.0000000000000000000, 0.0000000000000000000, 3.000000000000000444 ) ) ;
#62 = EDGE_CURVE ( 'NONE', #40, #144, #38, .T. ) ;
#63 = ORIENTED_EDGE ( 'NONE', *, *, #51, .F. ) ;
#64 = CARTESIAN_POINT ( 'NONE',  ( 0.0000000000000000000, 0.0000000000000000000, 3.000000000000000444 ) ) ;
#65 = CARTESIAN_POINT ( 'NONE',  ( 0.003999999999999999216, 0.0000000000000000000, 0.0000000000000000000 ) ) ;
#66 = DIRECTION ( 'NONE',  ( -1.000000000000000000, 0.0000000000000000000, 0.0000000000000000000 ) ) ;
#67 = ADVANCED_FACE ( 'NONE', ( #72 ), #77, .T. ) ;
#68 = LENGTH_MEASURE_WITH_UNIT ( LENGTH_MEASURE( 0.02539999999999999897 ), #187 );
#69 = ORIENTED_EDGE ( 'NONE', *, *, #172, .F. ) ;
#70 = VECTOR ( 'NONE', #111, 39.37007874015748143 ) ;
#71 = DIRECTION ( 'NONE',  ( 0.0000000000000000000, 0.0000000000000000000, -1.000000000000000000 ) ) ;
#72 = FACE_OUTER_BOUND ( 'NONE', #148, .T. ) ;
#73 = UNCERTAINTY_MEASURE_WITH_UNIT (LENGTH_MEASURE( 1.000000000000000082E-05 ), #47, 'distance_accuracy_value', 'NONE');
#74 = FACE_OUTER_BOUND ( 'NONE', #37, .T. ) ;
#75 = EDGE_CURVE ( 'NONE', #96, #109, #133, .T. ) ;
#76 = ADVANCED_FACE ( 'NONE', ( #74 ), #151, .T. ) ;
#77 = CYLINDRICAL_SURFACE ( 'NONE', #78, 0.2500000000000000000 ) ;
#78 = AXIS2_PLACEMENT_3D ( 'NONE', #113, #99, #180 ) ;
#79 = CARTESIAN_POINT ( 'NONE',  ( -0.003999999999999999216, 1.555301434917138211E-17, 0.0000000000000000000 ) ) ;
#80 = EDGE_CURVE ( 'NONE', #96, #117, #198, .T. ) ;
#81 = DIRECTION ( 'NONE',  ( -1.000000000000000000, 0.0000000000000000000, 0.0000000000000000000 ) ) ;
#82 = CONICAL_SURFACE ( 'NONE', #208, 0.003999999999999999216, 0.7853981633974503884 ) ;
#83 = DIRECTION ( 'NONE',  ( 0.0000000000000000000, 0.0000000000000000000, -1.000000000000000000 ) ) ;
#84 = ORIENTED_EDGE ( 'NONE', *, *, #62, .T. ) ;
#85 = DIRECTION ( 'NONE',  ( 1.000000000000000000, 0.0000000000000000000, 0.0000000000000000000 ) ) ;
#86 = ORIENTED_EDGE ( 'NONE', *, *, #7, .F. ) ;
#87 = ORIENTED_EDGE ( 'NONE', *, *, #58, .F. ) ;
#88 = APPLICATION_PROTOCOL_DEFINITION ( 'draft international standard', 'automotive_design', 1998, #232 ) ;
#89 = VECTOR ( 'NONE', #173, 39.37007874015748143 ) ;
#90 = EDGE_CURVE ( 'NONE', #209, #144, #24, .T. ) ;
#91 = CARTESIAN_POINT ( 'NONE',  ( 0.2500000000000000000, 3.061616997868382402E-17, 2.754000000000001336 ) ) ;
#92 = CARTESIAN_POINT ( 'NONE',  ( -0.003999999999999999216, 4.898587196589411612E-19, 0.0000000000000000000 ) ) ;
#93 = STYLED_ITEM ( 'NONE', ( #159 ), #130 ) ;
#94 = DIRECTION ( 'NONE',  ( -0.0000000000000000000, -0.0000000000000000000, -1.000000000000000000 ) ) ;
#95 = ADVANCED_FACE ( 'NONE', ( #236 ), #189, .T. ) ;
#96 = VERTEX_POINT ( 'NONE', #79 ) ;
#97 = AXIS2_PLACEMENT_3D ( 'NONE', #44, #103, #28 ) ;
#98 = ADVANCED_FACE ( 'NONE', ( #122 ), #246, .T. ) ;
#99 = DIRECTION ( 'NONE',  ( -0.0000000000000000000, -0.0000000000000000000, -1.000000000000000000 ) ) ;
#100 = APPLICATION_CONTEXT ( 'automotive_design' ) ;
#101 = CONICAL_SURFACE ( 'NONE', #140, 0.003999999999999999216, 0.7853981633974503884 ) ;
#102 =( NAMED_UNIT ( * ) SI_UNIT ( $, .STERADIAN. ) SOLID_ANGLE_UNIT ( ) );
#103 = DIRECTION ( 'NONE',  ( 0.0000000000000000000, 0.0000000000000000000, 1.000000000000000000 ) ) ;
#104 = CARTESIAN_POINT ( 'NONE',  ( -0.2500000000000000000, 0.0000000000000000000, 3.000000000000000444 ) ) ;
#105 = EDGE_LOOP ( 'NONE', ( #161, #176, #242, #218 ) ) ;
#106 = PRODUCT ( 'Micro_RNC-500-2X', 'Micro_RNC-500-2X', '', ( #120 ) ) ;
#107 = VECTOR ( 'NONE', #216, 39.37007874015748143 ) ;
#108 =( CONVERSION_BASED_UNIT ( 'INCH', #46 ) LENGTH_UNIT ( ) NAMED_UNIT ( #171 ) );
#109 = VERTEX_POINT ( 'NONE', #157 ) ;
#110 =( NAMED_UNIT ( * ) PLANE_ANGLE_UNIT ( ) SI_UNIT ( $, .RADIAN. ) );
#111 = DIRECTION ( 'NONE',  ( -0.0000000000000000000, -0.0000000000000000000, -1.000000000000000000 ) ) ;
#112 =( GEOMETRIC_REPRESENTATION_CONTEXT ( 3 ) GLOBAL_UNCERTAINTY_ASSIGNED_CONTEXT ( ( #73 ) ) GLOBAL_UNIT_ASSIGNED_CONTEXT ( ( #47, #202, #102 ) ) REPRESENTATION_CONTEXT ( 'NONE', 'WORKASPACE' ) );
#113 = CARTESIAN_POINT ( 'NONE',  ( 0.0000000000000000000, 0.0000000000000000000, 3.000000000000000444 ) ) ;
#114 = DIRECTION ( 'NONE',  ( 1.000000000000000000, 0.0000000000000000000, -0.0000000000000000000 ) ) ;
#115 = PRODUCT_DEFINITION_FORMATION_WITH_SPECIFIED_SOURCE ( 'ANY', '', #106, .NOT_KNOWN. ) ;
#116 = CARTESIAN_POINT ( 'NONE',  ( 0.2500000000000000000, 3.061616997868382402E-17, 3.000000000000000444 ) ) ;
#117 = VERTEX_POINT ( 'NONE', #65 ) ;
#118 = PRODUCT_DEFINITION ( 'UNKNOWN', '', #115, #139 ) ;
#119 = AXIS2_PLACEMENT_3D ( 'NONE', #9, #126, #123 ) ;
#120 = PRODUCT_CONTEXT ( 'NONE', #100, 'mechanical' ) ;
#121 = AXIS2_PLACEMENT_3D ( 'NONE', #200, #235, #179 ) ;
#122 = FACE_OUTER_BOUND ( 'NONE', #226, .T. ) ;
#123 = DIRECTION ( 'NONE',  ( -1.000000000000000000, 0.0000000000000000000, 0.0000000000000000000 ) ) ;
#124 = ORIENTED_EDGE ( 'NONE', *, *, #90, .F. ) ;
#125 = DIRECTION ( 'NONE',  ( -1.000000000000000000, 0.0000000000000000000, 0.0000000000000000000 ) ) ;
#126 = DIRECTION ( 'NONE',  ( -0.0000000000000000000, -0.0000000000000000000, -1.000000000000000000 ) ) ;
#127 = EDGE_LOOP ( 'NONE', ( #63, #84, #147, #240 ) ) ;
#128 = MECHANICAL_DESIGN_GEOMETRIC_PRESENTATION_REPRESENTATION (  '', ( #93 ), #136 ) ;
#129 = DIRECTION ( 'NONE',  ( 0.0000000000000000000, 0.0000000000000000000, -1.000000000000000000 ) ) ;
#130 = MANIFOLD_SOLID_BREP ( 'Mirror1', #174 ) ;
#131 = FACE_OUTER_BOUND ( 'NONE', #170, .T. ) ;
#132 = ADVANCED_FACE ( 'NONE', ( #220 ), #53, .T. ) ;
#133 = LINE ( 'NONE', #92, #89 ) ;
#134 = COLOUR_RGB ( '',0.7921568627450980005, 0.8196078431372548767, 0.9333333333333333481 ) ;
#135 = LINE ( 'NONE', #116, #107 ) ;
#136 =( GEOMETRIC_REPRESENTATION_CONTEXT ( 3 ) GLOBAL_UNCERTAINTY_ASSIGNED_CONTEXT ( ( #43 ) ) GLOBAL_UNIT_ASSIGNED_CONTEXT ( ( #245, #191, #141 ) ) REPRESENTATION_CONTEXT ( 'NONE', 'WORKASPACE' ) );
#137 = DIRECTION ( 'NONE',  ( 0.0000000000000000000, 0.0000000000000000000, 1.000000000000000000 ) ) ;
#138 = EDGE_CURVE ( 'NONE', #209, #14, #229, .T. ) ;
#139 = PRODUCT_DEFINITION_CONTEXT ( 'detailed design', #232, 'design' ) ;
#140 = AXIS2_PLACEMENT_3D ( 'NONE', #155, #231, #52 ) ;
#141 =( NAMED_UNIT ( * ) SI_UNIT ( $, .STERADIAN. ) SOLID_ANGLE_UNIT ( ) );
#142 = FILL_AREA_STYLE_COLOUR ( '', #3 ) ;
#143 = ORIENTED_EDGE ( 'NONE', *, *, #75, .T. ) ;
#144 = VERTEX_POINT ( 'NONE', #48 ) ;
#145 = PRESENTATION_STYLE_ASSIGNMENT (( #163 ) ) ;
#146 = FILL_AREA_STYLE ('',( #142 ) ) ;
#147 = ORIENTED_EDGE ( 'NONE', *, *, #172, .T. ) ;
#148 = EDGE_LOOP ( 'NONE', ( #247, #35, #244, #69 ) ) ;
#149 = DIRECTION ( 'NONE',  ( -1.000000000000000000, 0.0000000000000000000, 0.0000000000000000000 ) ) ;
#150 = UNCERTAINTY_MEASURE_WITH_UNIT (LENGTH_MEASURE( 1.000000000000000082E-05 ), #108, 'distance_accuracy_value', 'NONE');
#151 = PLANE ( 'NONE',  #211 ) ;
#152 = VECTOR ( 'NONE', #201, 39.37007874015748143 ) ;
#153 = DIMENSIONAL_EXPONENTS ( 1.000000000000000000, 0.0000000000000000000, 0.0000000000000000000, 0.0000000000000000000, 0.0000000000000000000, 0.0000000000000000000, 0.0000000000000000000 ) ;
#154 = LENGTH_MEASURE_WITH_UNIT ( LENGTH_MEASURE( 0.02539999999999999897 ), #39 );
#155 = CARTESIAN_POINT ( 'NONE',  ( 0.0000000000000000000, 0.0000000000000000000, 0.0000000000000000000 ) ) ;
#156 = CARTESIAN_POINT ( 'NONE',  ( -0.003999999999999999216, -4.898587196589411612E-19, 3.000000000000000444 ) ) ;
#157 = CARTESIAN_POINT ( 'NONE',  ( -0.2500000000000000000, 0.0000000000000000000, 0.2459999999999989695 ) ) ;
#158 = APPLICATION_PROTOCOL_DEFINITION ( 'draft international standard', 'automotive_design', 1998, #100 ) ;
#159 = PRESENTATION_STYLE_ASSIGNMENT (( #238 ) ) ;
#160 = SHAPE_DEFINITION_REPRESENTATION ( #222, #20 ) ;
#161 = ORIENTED_EDGE ( 'NONE', *, *, #75, .F. ) ;
#162 = AXIS2_PLACEMENT_3D ( 'NONE', #237, #137, #249 ) ;
#163 = SURFACE_STYLE_USAGE ( .BOTH. , #243 ) ;
#164 = ORIENTED_EDGE ( 'NONE', *, *, #58, .T. ) ;
#165 = FILL_AREA_STYLE_COLOUR ( '', #134 ) ;
#166 = EDGE_LOOP ( 'NONE', ( #228, #54, #248, #87 ) ) ;
#167 = CARTESIAN_POINT ( 'NONE',  ( -0.003999999999999999216, -1.555301434917138211E-17, 3.000000000000000444 ) ) ;
#168 = EDGE_CURVE ( 'NONE', #109, #207, #57, .T. ) ;
#169 = AXIS2_PLACEMENT_3D ( 'NONE', #34, #129, #149 ) ;
#170 = EDGE_LOOP ( 'NONE', ( #50, #143, #29, #86 ) ) ;
#171 = DIMENSIONAL_EXPONENTS ( 1.000000000000000000, 0.0000000000000000000, 0.0000000000000000000, 0.0000000000000000000, 0.0000000000000000000, 0.0000000000000000000, 0.0000000000000000000 ) ;
#172 = EDGE_CURVE ( 'NONE', #144, #109, #32, .T. ) ;
#173 = DIRECTION ( 'NONE',  ( -0.7071067811865490160, 8.659560562354951347E-17, 0.7071067811865460184 ) ) ;
#174 = CLOSED_SHELL ( 'NONE', ( #183, #19, #67, #95, #132, #59, #98, #76 ) ) ;
#175 = AXIS2_PLACEMENT_3D ( 'NONE', #30, #83, #125 ) ;
#176 = ORIENTED_EDGE ( 'NONE', *, *, #190, .F. ) ;
#177 = CARTESIAN_POINT ( 'NONE',  ( 0.0000000000000000000, 0.0000000000000000000, 2.754000000000001336 ) ) ;
#178 = AXIS2_PLACEMENT_3D ( 'NONE', #17, #71, #212 ) ;
#179 = DIRECTION ( 'NONE',  ( 1.000000000000000000, 0.0000000000000000000, 0.0000000000000000000 ) ) ;
#180 = DIRECTION ( 'NONE',  ( -1.000000000000000000, 0.0000000000000000000, 0.0000000000000000000 ) ) ;
#181 = DIRECTION ( 'NONE',  ( -0.0000000000000000000, -0.0000000000000000000, -1.000000000000000000 ) ) ;
#182 = PRESENTATION_LAYER_ASSIGNMENT (  '', '', ( #36 ) ) ;
#183 = ADVANCED_FACE ( 'NONE', ( #241 ), #82, .T. ) ;
#184 = DIRECTION ( 'NONE',  ( -1.000000000000000000, 0.0000000000000000000, 0.0000000000000000000 ) ) ;
#185 = FILL_AREA_STYLE ('',( #165 ) ) ;
#186 =( LENGTH_UNIT ( ) NAMED_UNIT ( * ) SI_UNIT ( $, .METRE. ) );
#187 =( LENGTH_UNIT ( ) NAMED_UNIT ( * ) SI_UNIT ( $, .METRE. ) );
#188 = PRESENTATION_LAYER_ASSIGNMENT (  '', '', ( #93 ) ) ;
#189 = CYLINDRICAL_SURFACE ( 'NONE', #42, 0.2500000000000000000 ) ;
#190 = EDGE_CURVE ( 'NONE', #117, #96, #23, .T. ) ;
#191 =( NAMED_UNIT ( * ) PLANE_ANGLE_UNIT ( ) SI_UNIT ( $, .RADIAN. ) );
#192 = ORIENTED_EDGE ( 'NONE', *, *, #21, .F. ) ;
#193 = ORIENTED_EDGE ( 'NONE', *, *, #2, .F. ) ;
#194 = CARTESIAN_POINT ( 'NONE',  ( 0.0000000000000000000, 0.0000000000000000000, 0.0000000000000000000 ) ) ;
#195 = AXIS2_PLACEMENT_3D ( 'NONE', #12, #205, #184 ) ;
#196 = CARTESIAN_POINT ( 'NONE',  ( 0.003999999999999999216, 0.0000000000000000000, 3.000000000000000444 ) ) ;
#197 = ORIENTED_EDGE ( 'NONE', *, *, #80, .T. ) ;
#198 = CIRCLE ( 'NONE', #15, 0.003999999999999999216 ) ;
#199 = AXIS2_PLACEMENT_3D ( 'NONE', #41, #13, #221 ) ;
#200 = CARTESIAN_POINT ( 'NONE',  ( 0.0000000000000000000, 0.0000000000000000000, 0.0000000000000000000 ) ) ;
#201 = DIRECTION ( 'NONE',  ( -0.7071067811865490160, -8.659560562354951347E-17, -0.7071067811865460184 ) ) ;
#202 =( NAMED_UNIT ( * ) PLANE_ANGLE_UNIT ( ) SI_UNIT ( $, .RADIAN. ) );
#203 = EDGE_LOOP ( 'NONE', ( #4, #197 ) ) ;
#204 = CIRCLE ( 'NONE', #169, 0.2500000000000000000 ) ;
#205 = DIRECTION ( 'NONE',  ( -0.0000000000000000000, -0.0000000000000000000, -1.000000000000000000 ) ) ;
#206 = CARTESIAN_POINT ( 'NONE',  ( 0.0000000000000000000, 0.0000000000000000000, 0.2459999999999989695 ) ) ;
#207 = VERTEX_POINT ( 'NONE', #5 ) ;
#208 = AXIS2_PLACEMENT_3D ( 'NONE', #64, #225, #85 ) ;
#209 = VERTEX_POINT ( 'NONE', #167 ) ;
#210 = ORIENTED_EDGE ( 'NONE', *, *, #138, .T. ) ;
#211 = AXIS2_PLACEMENT_3D ( 'NONE', #61, #213, #114 ) ;
#212 = DIRECTION ( 'NONE',  ( -1.000000000000000000, 0.0000000000000000000, 0.0000000000000000000 ) ) ;
#213 = DIRECTION ( 'NONE',  ( 0.0000000000000000000, 0.0000000000000000000, 1.000000000000000000 ) ) ;
#214 = CARTESIAN_POINT ( 'NONE',  ( 0.003999999999999999216, 0.0000000000000000000, 0.0000000000000000000 ) ) ;
#215 = MECHANICAL_DESIGN_GEOMETRIC_PRESENTATION_REPRESENTATION (  '', ( #36 ), #112 ) ;
#216 = DIRECTION ( 'NONE',  ( -0.0000000000000000000, -0.0000000000000000000, -1.000000000000000000 ) ) ;
#217 = VECTOR ( 'NONE', #56, 39.37007874015748143 ) ;
#218 = ORIENTED_EDGE ( 'NONE', *, *, #234, .T. ) ;
#219 = AXIS2_PLACEMENT_3D ( 'NONE', #206, #223, #66 ) ;
#220 = FACE_OUTER_BOUND ( 'NONE', #105, .T. ) ;
#221 = DIRECTION ( 'NONE',  ( 1.000000000000000000, 0.0000000000000000000, 0.0000000000000000000 ) ) ;
#222 = PRODUCT_DEFINITION_SHAPE ( 'NONE', 'NONE',  #118 ) ;
#223 = DIRECTION ( 'NONE',  ( -0.0000000000000000000, -0.0000000000000000000, -1.000000000000000000 ) ) ;
#224 =( GEOMETRIC_REPRESENTATION_CONTEXT ( 3 ) GLOBAL_UNCERTAINTY_ASSIGNED_CONTEXT ( ( #150 ) ) GLOBAL_UNIT_ASSIGNED_CONTEXT ( ( #108, #110, #11 ) ) REPRESENTATION_CONTEXT ( 'NONE', 'WORKASPACE' ) );
#225 = DIRECTION ( 'NONE',  ( 0.0000000000000000000, 0.0000000000000000000, -1.000000000000000000 ) ) ;
#226 = EDGE_LOOP ( 'NONE', ( #124, #210, #164, #192 ) ) ;
#227 = DIMENSIONAL_EXPONENTS ( 1.000000000000000000, 0.0000000000000000000, 0.0000000000000000000, 0.0000000000000000000, 0.0000000000000000000, 0.0000000000000000000, 0.0000000000000000000 ) ;
#228 = ORIENTED_EDGE ( 'NONE', *, *, #2, .T. ) ;
#229 = CIRCLE ( 'NONE', #175, 0.003999999999999999216 ) ;
#230 = DIRECTION ( 'NONE',  ( 0.0000000000000000000, 0.0000000000000000000, -1.000000000000000000 ) ) ;
#231 = DIRECTION ( 'NONE',  ( 0.0000000000000000000, 0.0000000000000000000, 1.000000000000000000 ) ) ;
#232 = APPLICATION_CONTEXT ( 'automotive_design' ) ;
#233 = LINE ( 'NONE', #214, #217 ) ;
#234 = EDGE_CURVE ( 'NONE', #207, #109, #60, .T. ) ;
#235 = DIRECTION ( 'NONE',  ( 0.0000000000000000000, 0.0000000000000000000, 1.000000000000000000 ) ) ;
#236 = FACE_OUTER_BOUND ( 'NONE', #127, .T. ) ;
#237 = CARTESIAN_POINT ( 'NONE',  ( 0.0000000000000000000, 0.0000000000000000000, 0.0000000000000000000 ) ) ;
#238 = SURFACE_STYLE_USAGE ( .BOTH. , #26 ) ;
#239 = VECTOR ( 'NONE', #55, 39.37007874015748143 ) ;
#240 = ORIENTED_EDGE ( 'NONE', *, *, #234, .F. ) ;
#241 = FACE_OUTER_BOUND ( 'NONE', #166, .T. ) ;
#242 = ORIENTED_EDGE ( 'NONE', *, *, #7, .T. ) ;
#243 = SURFACE_SIDE_STYLE ('',( #8 ) ) ;
#244 = ORIENTED_EDGE ( 'NONE', *, *, #168, .F. ) ;
#245 =( CONVERSION_BASED_UNIT ( 'INCH', #68 ) LENGTH_UNIT ( ) NAMED_UNIT ( #153 ) );
#246 = CONICAL_SURFACE ( 'NONE', #199, 0.003999999999999999216, 0.7853981633974503884 ) ;
#247 = ORIENTED_EDGE ( 'NONE', *, *, #21, .T. ) ;
#248 = ORIENTED_EDGE ( 'NONE', *, *, #62, .F. ) ;
#249 = DIRECTION ( 'NONE',  ( 1.000000000000000000, 0.0000000000000000000, -0.0000000000000000000 ) ) ;
ENDSEC;
END-ISO-10303-21;
