ISO-10303-21;
HEADER;
FILE_DESCRIPTION (( 'STEP AP214' ),
    '1' );
FILE_NAME ('83410.STEP',
    '2023-06-23T09:54:37',
    ( '' ),
    ( '' ),
    'SwSTEP 2.0',
    'SolidWorks 2023',
    '' );
FILE_SCHEMA (( 'AUTOMOTIVE_DESIGN' ));
ENDSEC;

DATA;
#1 = DIRECTION ( 'NONE',  ( 3.918869757271530214E-17, 1.000000000000000000, -0.000000000000000000 ) ) ;
#2 = SURFACE_STYLE_USAGE ( .BOTH. , #271 ) ;
#3 = AXIS2_PLACEMENT_3D ( 'NONE', #112, #31, #223 ) ;
#4 =( GEOMETRIC_REPRESENTATION_CONTEXT ( 3 ) GLOBAL_UNCERTAINTY_ASSIGNED_CONTEXT ( ( #37 ) ) GLOBAL_UNIT_ASSIGNED_CONTEXT ( ( #26, #117, #265 ) ) REPRESENTATION_CONTEXT ( 'NONE', 'WORKASPACE' ) );
#5 = LENGTH_MEASURE_WITH_UNIT ( LENGTH_MEASURE( 0.02539999999999999897 ), #55 );
#6 = FACE_OUTER_BOUND ( 'NONE', #199, .T. ) ;
#7 = FACE_OUTER_BOUND ( 'NONE', #282, .T. ) ;
#8 = FILL_AREA_STYLE ('',( #221 ) ) ;
#9 = ORIENTED_EDGE ( 'NONE', *, *, #90, .F. ) ;
#10 = FILL_AREA_STYLE_COLOUR ( '', #165 ) ;
#11 = ORIENTED_EDGE ( 'NONE', *, *, #75, .F. ) ;
#12 = EDGE_CURVE ( 'NONE', #193, #272, #57, .T. ) ;
#13 = VECTOR ( 'NONE', #32, 39.37007874015748143 ) ;
#14 = DIRECTION ( 'NONE',  ( 3.918869757271530214E-17, 1.000000000000000000, -0.000000000000000000 ) ) ;
#15 = EDGE_CURVE ( 'NONE', #173, #193, #132, .T. ) ;
#16 = ORIENTED_EDGE ( 'NONE', *, *, #298, .F. ) ;
#17 = FACE_OUTER_BOUND ( 'NONE', #108, .T. ) ;
#18 = DIRECTION ( 'NONE',  ( -3.918869757271530214E-17, -1.000000000000000000, 0.000000000000000000 ) ) ;
#19 = PRESENTATION_LAYER_ASSIGNMENT (  '', '', ( #147 ) ) ;
#20 = EDGE_CURVE ( 'NONE', #33, #105, #251, .T. ) ;
#21 =( LENGTH_UNIT ( ) NAMED_UNIT ( * ) SI_UNIT ( $, .METRE. ) );
#22 = STYLED_ITEM ( 'NONE', ( #207 ), #206 ) ;
#23 = CYLINDRICAL_SURFACE ( 'NONE', #262, 0.09374999999999997224 ) ;
#24 = APPLICATION_PROTOCOL_DEFINITION ( 'draft international standard', 'automotive_design', 1998, #186 ) ;
#25 = LENGTH_MEASURE_WITH_UNIT ( LENGTH_MEASURE( 0.02539999999999999897 ), #142 );
#26 =( CONVERSION_BASED_UNIT ( 'INCH', #219 ) LENGTH_UNIT ( ) NAMED_UNIT ( #148 ) );
#27 = LENGTH_MEASURE_WITH_UNIT ( LENGTH_MEASURE( 0.02539999999999999897 ), #21 );
#28 = PRESENTATION_STYLE_ASSIGNMENT (( #266 ) ) ;
#29 =( NAMED_UNIT ( * ) SI_UNIT ( $, .STERADIAN. ) SOLID_ANGLE_UNIT ( ) );
#30 = AXIS2_PLACEMENT_3D ( 'NONE', #302, #255, #133 ) ;
#31 = DIRECTION ( 'NONE',  ( -0.000000000000000000, -1.000000000000000000, -0.000000000000000000 ) ) ;
#32 = DIRECTION ( 'NONE',  ( -0.000000000000000000, -1.000000000000000000, -0.000000000000000000 ) ) ;
#33 = VERTEX_POINT ( 'NONE', #172 ) ;
#34 = EDGE_LOOP ( 'NONE', ( #301, #9 ) ) ;
#35 = DIRECTION ( 'NONE',  ( 3.918869757271530214E-17, 1.000000000000000000, -0.000000000000000000 ) ) ;
#36 = EDGE_LOOP ( 'NONE', ( #56, #277, #88, #104 ) ) ;
#37 = UNCERTAINTY_MEASURE_WITH_UNIT (LENGTH_MEASURE( 1.000000000000000082E-05 ), #26, 'distance_accuracy_value', 'NONE');
#38 = FILL_AREA_STYLE ('',( #155 ) ) ;
#39 = MECHANICAL_DESIGN_GEOMETRIC_PRESENTATION_REPRESENTATION (  '', ( #222 ), #217 ) ;
#40 = SURFACE_SIDE_STYLE ('',( #95 ) ) ;
#41 = SURFACE_STYLE_FILL_AREA ( #256 ) ;
#42 =( NAMED_UNIT ( * ) PLANE_ANGLE_UNIT ( ) SI_UNIT ( $, .RADIAN. ) );
#43 = CARTESIAN_POINT ( 'NONE',  ( 6.123233995736766036E-17, 2.000000000000000000, 0.000000000000000000 ) ) ;
#44 = PRODUCT_RELATED_PRODUCT_CATEGORY ( 'part', '', ( #190 ) ) ;
#45 = AXIS2_PLACEMENT_3D ( 'NONE', #279, #18, #261 ) ;
#46 = SURFACE_STYLE_FILL_AREA ( #182 ) ;
#47 = EDGE_CURVE ( 'NONE', #168, #173, #61, .T. ) ;
#48 = LENGTH_MEASURE_WITH_UNIT ( LENGTH_MEASURE( 0.02539999999999999897 ), #54 );
#49 = PLANE ( 'NONE',  #120 ) ;
#50 = UNCERTAINTY_MEASURE_WITH_UNIT (LENGTH_MEASURE( 1.000000000000000082E-05 ), #201, 'distance_accuracy_value', 'NONE');
#51 = CIRCLE ( 'NONE', #97, 0.09374999999999994449 ) ;
#52 = DIMENSIONAL_EXPONENTS ( 1.000000000000000000, 0.000000000000000000, 0.000000000000000000, 0.000000000000000000, 0.000000000000000000, 0.000000000000000000, 0.000000000000000000 ) ;
#53 = DIMENSIONAL_EXPONENTS ( 1.000000000000000000, 0.000000000000000000, 0.000000000000000000, 0.000000000000000000, 0.000000000000000000, 0.000000000000000000, 0.000000000000000000 ) ;
#54 =( LENGTH_UNIT ( ) NAMED_UNIT ( * ) SI_UNIT ( $, .METRE. ) );
#55 =( LENGTH_UNIT ( ) NAMED_UNIT ( * ) SI_UNIT ( $, .METRE. ) );
#56 = ORIENTED_EDGE ( 'NONE', *, *, #125, .T. ) ;
#57 = CIRCLE ( 'NONE', #187, 0.09374999999999994449 ) ;
#58 = AXIS2_PLACEMENT_3D ( 'NONE', #214, #1, #93 ) ;
#59 = ORIENTED_EDGE ( 'NONE', *, *, #121, .F. ) ;
#60 = CARTESIAN_POINT ( 'NONE',  ( 0.000000000000000000, 0.000000000000000000, -0.09375000000000001388 ) ) ;
#61 = CIRCLE ( 'NONE', #237, 0.09375000000000001388 ) ;
#62 = PRESENTATION_LAYER_ASSIGNMENT (  '', '', ( #241 ) ) ;
#63 = DIRECTION ( 'NONE',  ( -0.000000000000000000, -1.000000000000000000, -0.000000000000000000 ) ) ;
#64 = ORIENTED_EDGE ( 'NONE', *, *, #233, .F. ) ;
#65 = ORIENTED_EDGE ( 'NONE', *, *, #75, .T. ) ;
#66 = PRODUCT_DEFINITION_CONTEXT ( 'detailed design', #212, 'design' ) ;
#67 = CIRCLE ( 'NONE', #188, 0.09375000000000001388 ) ;
#68 =( CONVERSION_BASED_UNIT ( 'INCH', #25 ) LENGTH_UNIT ( ) NAMED_UNIT ( #53 ) );
#69 = CIRCLE ( 'NONE', #242, 0.09375000000000001388 ) ;
#70 = CYLINDRICAL_SURFACE ( 'NONE', #3, 0.09375000000000001388 ) ;
#71 = DIRECTION ( 'NONE',  ( 0.000000000000000000, 0.000000000000000000, 1.000000000000000000 ) ) ;
#72 = DIRECTION ( 'NONE',  ( 3.918869757271530214E-17, 1.000000000000000000, -0.000000000000000000 ) ) ;
#73 = PRESENTATION_STYLE_ASSIGNMENT (( #116 ) ) ;
#74 = MECHANICAL_DESIGN_GEOMETRIC_PRESENTATION_REPRESENTATION (  '', ( #161 ), #232 ) ;
#75 = EDGE_CURVE ( 'NONE', #272, #193, #51, .T. ) ;
#76 = SHAPE_DEFINITION_REPRESENTATION ( #280, #99 ) ;
#77 = CARTESIAN_POINT ( 'NONE',  ( 0.09375000000000001388, 2.000000000000000000, 1.148106374200643401E-17 ) ) ;
#78 = COLOUR_RGB ( '',0.7921568627450980005, 0.8196078431372548767, 0.9333333333333333481 ) ;
#79 = FILL_AREA_STYLE ('',( #289 ) ) ;
#80 = CARTESIAN_POINT ( 'NONE',  ( -0.09374999999999987510, 2.000000000000000000, 0.000000000000000000 ) ) ;
#81 = DIRECTION ( 'NONE',  ( 3.918869757271530214E-17, 1.000000000000000000, -0.000000000000000000 ) ) ;
#82 = ORIENTED_EDGE ( 'NONE', *, *, #125, .F. ) ;
#83 = CARTESIAN_POINT ( 'NONE',  ( 0.000000000000000000, 0.000000000000000000, 0.000000000000000000 ) ) ;
#84 = CARTESIAN_POINT ( 'NONE',  ( 0.000000000000000000, 0.000000000000000000, -0.09375000000000001388 ) ) ;
#85 =( NAMED_UNIT ( * ) PLANE_ANGLE_UNIT ( ) SI_UNIT ( $, .RADIAN. ) );
#86 = DIRECTION ( 'NONE',  ( -0.000000000000000000, -1.000000000000000000, -0.000000000000000000 ) ) ;
#87 = LINE ( 'NONE', #113, #290 ) ;
#88 = ORIENTED_EDGE ( 'NONE', *, *, #12, .F. ) ;
#89 = PRESENTATION_STYLE_ASSIGNMENT (( #203 ) ) ;
#90 = EDGE_CURVE ( 'NONE', #254, #33, #91, .T. ) ;
#91 = CIRCLE ( 'NONE', #307, 0.09375000000000001388 ) ;
#92 = MECHANICAL_DESIGN_GEOMETRIC_PRESENTATION_REPRESENTATION (  '', ( #252 ), #134 ) ;
#93 = DIRECTION ( 'NONE',  ( -1.000000000000000000, 3.918869757271530214E-17, 0.000000000000000000 ) ) ;
#94 = PRODUCT_CONTEXT ( 'NONE', #186, 'mechanical' ) ;
#95 = SURFACE_STYLE_FILL_AREA ( #38 ) ;
#96 = PRODUCT_DEFINITION ( 'UNKNOWN', '', #211, #66 ) ;
#97 = AXIS2_PLACEMENT_3D ( 'NONE', #249, #14, #296 ) ;
#98 = VECTOR ( 'NONE', #122, 39.37007874015748143 ) ;
#99 = ADVANCED_BREP_SHAPE_REPRESENTATION ( '83410', ( #206, #216, #227 ), #4 ) ;
#100 = SURFACE_STYLE_FILL_AREA ( #8 ) ;
#101 = ORIENTED_EDGE ( 'NONE', *, *, #180, .F. ) ;
#102 = VECTOR ( 'NONE', #81, 39.37007874015748143 ) ;
#103 =( GEOMETRIC_REPRESENTATION_CONTEXT ( 3 ) GLOBAL_UNCERTAINTY_ASSIGNED_CONTEXT ( ( #236 ) ) GLOBAL_UNIT_ASSIGNED_CONTEXT ( ( #250, #42, #143 ) ) REPRESENTATION_CONTEXT ( 'NONE', 'WORKASPACE' ) );
#104 = ORIENTED_EDGE ( 'NONE', *, *, #15, .F. ) ;
#105 = VERTEX_POINT ( 'NONE', #60 ) ;
#106 = PLANE ( 'NONE',  #45 ) ;
#107 = AXIS2_PLACEMENT_3D ( 'NONE', #243, #220, #240 ) ;
#108 = EDGE_LOOP ( 'NONE', ( #129, #65 ) ) ;
#109 = SURFACE_STYLE_USAGE ( .BOTH. , #274 ) ;
#110 =( NAMED_UNIT ( * ) SI_UNIT ( $, .STERADIAN. ) SOLID_ANGLE_UNIT ( ) );
#111 = SURFACE_SIDE_STYLE ('',( #41 ) ) ;
#112 = CARTESIAN_POINT ( 'NONE',  ( 0.000000000000000000, 0.000000000000000000, 0.000000000000000000 ) ) ;
#113 = CARTESIAN_POINT ( 'NONE',  ( 0.09375000000000004163, 2.000000000000000000, 1.148106374200643247E-17 ) ) ;
#114 = DIRECTION ( 'NONE',  ( 3.918869757271530214E-17, 1.000000000000000000, -0.000000000000000000 ) ) ;
#115 = DIRECTION ( 'NONE',  ( 1.000000000000000000, 0.000000000000000000, 0.000000000000000000 ) ) ;
#116 = SURFACE_STYLE_USAGE ( .BOTH. , #285 ) ;
#117 =( NAMED_UNIT ( * ) PLANE_ANGLE_UNIT ( ) SI_UNIT ( $, .RADIAN. ) );
#118 =( CONVERSION_BASED_UNIT ( 'INCH', #27 ) LENGTH_UNIT ( ) NAMED_UNIT ( #141 ) );
#119 = APPLICATION_PROTOCOL_DEFINITION ( 'draft international standard', 'automotive_design', 1998, #212 ) ;
#120 = AXIS2_PLACEMENT_3D ( 'NONE', #83, #131, #230 ) ;
#121 = EDGE_CURVE ( 'NONE', #149, #105, #128, .T. ) ;
#122 = DIRECTION ( 'NONE',  ( -0.000000000000000000, -1.000000000000000000, -0.000000000000000000 ) ) ;
#123 = CARTESIAN_POINT ( 'NONE',  ( -0.09375000000000001388, 0.4374999999999998890, 0.000000000000000000 ) ) ;
#124 = AXIS2_PLACEMENT_3D ( 'NONE', #43, #160, #281 ) ;
#125 = EDGE_CURVE ( 'NONE', #173, #168, #67, .T. ) ;
#126 = DIRECTION ( 'NONE',  ( -1.000000000000000000, 0.000000000000000000, 0.000000000000000000 ) ) ;
#127 = ORIENTED_EDGE ( 'NONE', *, *, #298, .T. ) ;
#128 = CIRCLE ( 'NONE', #164, 0.09375000000000001388 ) ;
#129 = ORIENTED_EDGE ( 'NONE', *, *, #12, .T. ) ;
#130 = DIRECTION ( 'NONE',  ( -1.000000000000000000, 0.000000000000000000, 0.000000000000000000 ) ) ;
#131 = DIRECTION ( 'NONE',  ( 0.000000000000000000, -1.000000000000000000, -0.000000000000000000 ) ) ;
#132 = LINE ( 'NONE', #297, #102 ) ;
#133 = DIRECTION ( 'NONE',  ( 0.000000000000000000, -0.000000000000000000, 1.000000000000000000 ) ) ;
#134 =( GEOMETRIC_REPRESENTATION_CONTEXT ( 3 ) GLOBAL_UNCERTAINTY_ASSIGNED_CONTEXT ( ( #176 ) ) GLOBAL_UNIT_ASSIGNED_CONTEXT ( ( #309, #181, #110 ) ) REPRESENTATION_CONTEXT ( 'NONE', 'WORKASPACE' ) );
#135 = CARTESIAN_POINT ( 'NONE',  ( 1.148106374200643863E-17, 0.000000000000000000, 0.09375000000000001388 ) ) ;
#136 =( NAMED_UNIT ( * ) SI_UNIT ( $, .STERADIAN. ) SOLID_ANGLE_UNIT ( ) );
#137 =( LENGTH_UNIT ( ) NAMED_UNIT ( * ) SI_UNIT ( $, .METRE. ) );
#138 = FACE_OUTER_BOUND ( 'NONE', #154, .T. ) ;
#139 = UNCERTAINTY_MEASURE_WITH_UNIT (LENGTH_MEASURE( 1.000000000000000082E-05 ), #68, 'distance_accuracy_value', 'NONE');
#140 = CARTESIAN_POINT ( 'NONE',  ( 1.148106374200643863E-17, 0.4375000000000000000, 0.09375000000000001388 ) ) ;
#141 = DIMENSIONAL_EXPONENTS ( 1.000000000000000000, 0.000000000000000000, 0.000000000000000000, 0.000000000000000000, 0.000000000000000000, 0.000000000000000000, 0.000000000000000000 ) ;
#142 =( LENGTH_UNIT ( ) NAMED_UNIT ( * ) SI_UNIT ( $, .METRE. ) );
#143 =( NAMED_UNIT ( * ) SI_UNIT ( $, .STERADIAN. ) SOLID_ANGLE_UNIT ( ) );
#144 = ADVANCED_FACE ( 'NONE', ( #17 ), #106, .F. ) ;
#145 = ADVANCED_FACE ( 'NONE', ( #215 ), #23, .T. ) ;
#146 = ORIENTED_EDGE ( 'NONE', *, *, #121, .T. ) ;
#147 = STYLED_ITEM ( 'NONE', ( #245 ), #303 ) ;
#148 = DIMENSIONAL_EXPONENTS ( 1.000000000000000000, 0.000000000000000000, 0.000000000000000000, 0.000000000000000000, 0.000000000000000000, 0.000000000000000000, 0.000000000000000000 ) ;
#149 = VERTEX_POINT ( 'NONE', #135 ) ;
#150 = ADVANCED_FACE ( 'NONE', ( #138 ), #204, .F. ) ;
#151 =( NAMED_UNIT ( * ) PLANE_ANGLE_UNIT ( ) SI_UNIT ( $, .RADIAN. ) );
#152 = EDGE_LOOP ( 'NONE', ( #64, #228, #248, #11 ) ) ;
#153 = CARTESIAN_POINT ( 'NONE',  ( 0.000000000000000000, 0.000000000000000000, 0.000000000000000000 ) ) ;
#154 = EDGE_LOOP ( 'NONE', ( #82, #198 ) ) ;
#155 = FILL_AREA_STYLE_COLOUR ( '', #238 ) ;
#156 =( NAMED_UNIT ( * ) PLANE_ANGLE_UNIT ( ) SI_UNIT ( $, .RADIAN. ) );
#157 = LENGTH_MEASURE_WITH_UNIT ( LENGTH_MEASURE( 0.02539999999999999897 ), #283 );
#158 = COLOUR_RGB ( '',1.000000000000000000, 0.000000000000000000, 0.000000000000000000 ) ;
#159 = CYLINDRICAL_SURFACE ( 'NONE', #124, 0.09374999999999997224 ) ;
#160 = DIRECTION ( 'NONE',  ( 3.918869757271530214E-17, 1.000000000000000000, -0.000000000000000000 ) ) ;
#161 = STYLED_ITEM ( 'NONE', ( #73 ), #169 ) ;
#162 = LINE ( 'NONE', #163, #98 ) ;
#163 = CARTESIAN_POINT ( 'NONE',  ( 1.148106374200643863E-17, 0.000000000000000000, 0.09375000000000001388 ) ) ;
#164 = AXIS2_PLACEMENT_3D ( 'NONE', #153, #86, #229 ) ;
#165 = COLOUR_RGB ( '',0.7921568627450980005, 0.8196078431372548767, 0.9333333333333333481 ) ;
#166 = SURFACE_STYLE_FILL_AREA ( #79 ) ;
#167 = DIMENSIONAL_EXPONENTS ( 1.000000000000000000, 0.000000000000000000, 0.000000000000000000, 0.000000000000000000, 0.000000000000000000, 0.000000000000000000, 0.000000000000000000 ) ;
#168 = VERTEX_POINT ( 'NONE', #183 ) ;
#169 = ADVANCED_FACE ( 'NONE', ( #306 ), #70, .T. ) ;
#170 = DIRECTION ( 'NONE',  ( 3.918869757271530214E-17, 1.000000000000000000, -0.000000000000000000 ) ) ;
#171 = DIRECTION ( 'NONE',  ( 0.000000000000000000, 0.000000000000000000, -1.000000000000000000 ) ) ;
#172 = CARTESIAN_POINT ( 'NONE',  ( 0.000000000000000000, 0.4375000000000000000, -0.09375000000000001388 ) ) ;
#173 = VERTEX_POINT ( 'NONE', #123 ) ;
#174 = FACE_OUTER_BOUND ( 'NONE', #36, .T. ) ;
#175 = EDGE_LOOP ( 'NONE', ( #101, #268, #291, #59 ) ) ;
#176 = UNCERTAINTY_MEASURE_WITH_UNIT (LENGTH_MEASURE( 1.000000000000000082E-05 ), #309, 'distance_accuracy_value', 'NONE');
#177 =( GEOMETRIC_REPRESENTATION_CONTEXT ( 3 ) GLOBAL_UNCERTAINTY_ASSIGNED_CONTEXT ( ( #304 ) ) GLOBAL_UNIT_ASSIGNED_CONTEXT ( ( #299, #85, #196 ) ) REPRESENTATION_CONTEXT ( 'NONE', 'WORKASPACE' ) );
#178 = DIRECTION ( 'NONE',  ( -0.000000000000000000, -1.000000000000000000, -0.000000000000000000 ) ) ;
#179 = DIRECTION ( 'NONE',  ( -1.000000000000000000, 0.000000000000000000, 0.000000000000000000 ) ) ;
#180 = EDGE_CURVE ( 'NONE', #254, #149, #162, .T. ) ;
#181 =( NAMED_UNIT ( * ) PLANE_ANGLE_UNIT ( ) SI_UNIT ( $, .RADIAN. ) );
#182 = FILL_AREA_STYLE ('',( #286 ) ) ;
#183 = CARTESIAN_POINT ( 'NONE',  ( 0.09375000000000001388, 0.4374999999999998890, 1.148106374200643401E-17 ) ) ;
#184 = MECHANICAL_DESIGN_GEOMETRIC_PRESENTATION_REPRESENTATION (  '', ( #147 ), #103 ) ;
#185 = CYLINDRICAL_SURFACE ( 'NONE', #284, 0.09375000000000001388 ) ;
#186 = APPLICATION_CONTEXT ( 'automotive_design' ) ;
#187 = AXIS2_PLACEMENT_3D ( 'NONE', #224, #294, #126 ) ;
#188 = AXIS2_PLACEMENT_3D ( 'NONE', #231, #35, #130 ) ;
#189 = SURFACE_SIDE_STYLE ('',( #100 ) ) ;
#190 = PRODUCT ( '83410', '83410', '', ( #94 ) ) ;
#191 = ADVANCED_FACE ( 'NONE', ( #7 ), #49, .T. ) ;
#192 = FILL_AREA_STYLE ('',( #10 ) ) ;
#193 = VERTEX_POINT ( 'NONE', #80 ) ;
#194 = CLOSED_SHELL ( 'NONE', ( #244, #150, #145, #144 ) ) ;
#195 = PRESENTATION_LAYER_ASSIGNMENT (  '', '', ( #222 ) ) ;
#196 =( NAMED_UNIT ( * ) SI_UNIT ( $, .STERADIAN. ) SOLID_ANGLE_UNIT ( ) );
#197 = ORIENTED_EDGE ( 'NONE', *, *, #20, .F. ) ;
#198 = ORIENTED_EDGE ( 'NONE', *, *, #47, .F. ) ;
#199 = EDGE_LOOP ( 'NONE', ( #202, #253, #16, #197 ) ) ;
#200 = CIRCLE ( 'NONE', #107, 0.09375000000000001388 ) ;
#201 =( CONVERSION_BASED_UNIT ( 'INCH', #157 ) LENGTH_UNIT ( ) NAMED_UNIT ( #292 ) );
#202 = ORIENTED_EDGE ( 'NONE', *, *, #208, .T. ) ;
#203 = SURFACE_STYLE_USAGE ( .BOTH. , #40 ) ;
#204 = PLANE ( 'NONE',  #58 ) ;
#205 = CARTESIAN_POINT ( 'NONE',  ( 0.000000000000000000, 0.000000000000000000, 0.000000000000000000 ) ) ;
#206 = MANIFOLD_SOLID_BREP ( 'Revolve - Cutting Edge', #270 ) ;
#207 = PRESENTATION_STYLE_ASSIGNMENT (( #109 ) ) ;
#208 = EDGE_CURVE ( 'NONE', #33, #254, #69, .T. ) ;
#209 =( GEOMETRIC_REPRESENTATION_CONTEXT ( 3 ) GLOBAL_UNCERTAINTY_ASSIGNED_CONTEXT ( ( #50 ) ) GLOBAL_UNIT_ASSIGNED_CONTEXT ( ( #201, #305, #136 ) ) REPRESENTATION_CONTEXT ( 'NONE', 'WORKASPACE' ) );
#210 = LENGTH_MEASURE_WITH_UNIT ( LENGTH_MEASURE( 0.02539999999999999897 ), #137 );
#211 = PRODUCT_DEFINITION_FORMATION_WITH_SPECIFIED_SOURCE ( 'ANY', '', #190, .NOT_KNOWN. ) ;
#212 = APPLICATION_CONTEXT ( 'automotive_design' ) ;
#213 = PLANE ( 'NONE',  #30 ) ;
#214 = CARTESIAN_POINT ( 'NONE',  ( 7.198846956776916766E-35, 0.4375000000000000000, 0.000000000000000000 ) ) ;
#215 = FACE_OUTER_BOUND ( 'NONE', #152, .T. ) ;
#216 = MANIFOLD_SOLID_BREP ( 'Revolve - Tool Body (Straight Shanked)', #194 ) ;
#217 =( GEOMETRIC_REPRESENTATION_CONTEXT ( 3 ) GLOBAL_UNCERTAINTY_ASSIGNED_CONTEXT ( ( #295 ) ) GLOBAL_UNIT_ASSIGNED_CONTEXT ( ( #118, #151, #29 ) ) REPRESENTATION_CONTEXT ( 'NONE', 'WORKASPACE' ) );
#218 = DIRECTION ( 'NONE',  ( -0.000000000000000000, -1.000000000000000000, -0.000000000000000000 ) ) ;
#219 = LENGTH_MEASURE_WITH_UNIT ( LENGTH_MEASURE( 0.02539999999999999897 ), #267 );
#220 = DIRECTION ( 'NONE',  ( -0.000000000000000000, -1.000000000000000000, -0.000000000000000000 ) ) ;
#221 = FILL_AREA_STYLE_COLOUR ( '', #308 ) ;
#222 = STYLED_ITEM ( 'NONE', ( #89 ), #269 ) ;
#223 = DIRECTION ( 'NONE',  ( 0.000000000000000000, 0.000000000000000000, -1.000000000000000000 ) ) ;
#224 = CARTESIAN_POINT ( 'NONE',  ( 6.123233995736766036E-17, 2.000000000000000000, 0.000000000000000000 ) ) ;
#225 = CARTESIAN_POINT ( 'NONE',  ( 0.000000000000000000, 0.4374999999999998890, 0.000000000000000000 ) ) ;
#226 = PRESENTATION_LAYER_ASSIGNMENT (  '', '', ( #252 ) ) ;
#227 = AXIS2_PLACEMENT_3D ( 'NONE', #288, #71, #115 ) ;
#228 = ORIENTED_EDGE ( 'NONE', *, *, #47, .T. ) ;
#229 = DIRECTION ( 'NONE',  ( 0.000000000000000000, 0.000000000000000000, -1.000000000000000000 ) ) ;
#230 = DIRECTION ( 'NONE',  ( 0.000000000000000000, 0.000000000000000000, -1.000000000000000000 ) ) ;
#231 = CARTESIAN_POINT ( 'NONE',  ( 0.000000000000000000, 0.4374999999999998890, 0.000000000000000000 ) ) ;
#232 =( GEOMETRIC_REPRESENTATION_CONTEXT ( 3 ) GLOBAL_UNCERTAINTY_ASSIGNED_CONTEXT ( ( #139 ) ) GLOBAL_UNIT_ASSIGNED_CONTEXT ( ( #68, #156, #235 ) ) REPRESENTATION_CONTEXT ( 'NONE', 'WORKASPACE' ) );
#233 = EDGE_CURVE ( 'NONE', #168, #272, #87, .T. ) ;
#234 = PRESENTATION_STYLE_ASSIGNMENT (( #260 ) ) ;
#235 =( NAMED_UNIT ( * ) SI_UNIT ( $, .STERADIAN. ) SOLID_ANGLE_UNIT ( ) );
#236 = UNCERTAINTY_MEASURE_WITH_UNIT (LENGTH_MEASURE( 1.000000000000000082E-05 ), #250, 'distance_accuracy_value', 'NONE');
#237 = AXIS2_PLACEMENT_3D ( 'NONE', #225, #170, #275 ) ;
#238 = COLOUR_RGB ( '',1.000000000000000000, 0.000000000000000000, 0.000000000000000000 ) ;
#239 = FACE_OUTER_BOUND ( 'NONE', #34, .T. ) ;
#240 = DIRECTION ( 'NONE',  ( 0.000000000000000000, 0.000000000000000000, -1.000000000000000000 ) ) ;
#241 = STYLED_ITEM ( 'NONE', ( #28 ), #191 ) ;
#242 = AXIS2_PLACEMENT_3D ( 'NONE', #247, #178, #263 ) ;
#243 = CARTESIAN_POINT ( 'NONE',  ( 0.000000000000000000, 0.000000000000000000, 0.000000000000000000 ) ) ;
#244 = ADVANCED_FACE ( 'NONE', ( #174 ), #159, .T. ) ;
#245 = PRESENTATION_STYLE_ASSIGNMENT (( #2 ) ) ;
#246 = PRESENTATION_LAYER_ASSIGNMENT (  '', '', ( #161 ) ) ;
#247 = CARTESIAN_POINT ( 'NONE',  ( 0.000000000000000000, 0.4375000000000000000, 0.000000000000000000 ) ) ;
#248 = ORIENTED_EDGE ( 'NONE', *, *, #15, .T. ) ;
#249 = CARTESIAN_POINT ( 'NONE',  ( 6.123233995736766036E-17, 2.000000000000000000, 0.000000000000000000 ) ) ;
#250 =( CONVERSION_BASED_UNIT ( 'INCH', #48 ) LENGTH_UNIT ( ) NAMED_UNIT ( #167 ) );
#251 = LINE ( 'NONE', #84, #13 ) ;
#252 = STYLED_ITEM ( 'NONE', ( #234 ), #216 ) ;
#253 = ORIENTED_EDGE ( 'NONE', *, *, #180, .T. ) ;
#254 = VERTEX_POINT ( 'NONE', #140 ) ;
#255 = DIRECTION ( 'NONE',  ( 0.000000000000000000, 1.000000000000000000, 0.000000000000000000 ) ) ;
#256 = FILL_AREA_STYLE ('',( #258 ) ) ;
#257 = MECHANICAL_DESIGN_GEOMETRIC_PRESENTATION_REPRESENTATION (  '', ( #241 ), #177 ) ;
#258 = FILL_AREA_STYLE_COLOUR ( '', #78 ) ;
#259 = CARTESIAN_POINT ( 'NONE',  ( 6.123233995736766036E-17, 2.000000000000000000, 0.000000000000000000 ) ) ;
#260 = SURFACE_STYLE_USAGE ( .BOTH. , #111 ) ;
#261 = DIRECTION ( 'NONE',  ( 1.000000000000000000, -3.918869757271530214E-17, 0.000000000000000000 ) ) ;
#262 = AXIS2_PLACEMENT_3D ( 'NONE', #259, #114, #179 ) ;
#263 = DIRECTION ( 'NONE',  ( 0.000000000000000000, 0.000000000000000000, -1.000000000000000000 ) ) ;
#264 = DIRECTION ( 'NONE',  ( 0.000000000000000000, 0.000000000000000000, -1.000000000000000000 ) ) ;
#265 =( NAMED_UNIT ( * ) SI_UNIT ( $, .STERADIAN. ) SOLID_ANGLE_UNIT ( ) );
#266 = SURFACE_STYLE_USAGE ( .BOTH. , #189 ) ;
#267 =( LENGTH_UNIT ( ) NAMED_UNIT ( * ) SI_UNIT ( $, .METRE. ) );
#268 = ORIENTED_EDGE ( 'NONE', *, *, #90, .T. ) ;
#269 = ADVANCED_FACE ( 'NONE', ( #239 ), #213, .T. ) ;
#270 = CLOSED_SHELL ( 'NONE', ( #303, #269, #169, #191 ) ) ;
#271 = SURFACE_SIDE_STYLE ('',( #166 ) ) ;
#272 = VERTEX_POINT ( 'NONE', #77 ) ;
#273 = PRESENTATION_LAYER_ASSIGNMENT (  '', '', ( #22 ) ) ;
#274 = SURFACE_SIDE_STYLE ('',( #293 ) ) ;
#275 = DIRECTION ( 'NONE',  ( -1.000000000000000000, 0.000000000000000000, 0.000000000000000000 ) ) ;
#276 = DIMENSIONAL_EXPONENTS ( 1.000000000000000000, 0.000000000000000000, 0.000000000000000000, 0.000000000000000000, 0.000000000000000000, 0.000000000000000000, 0.000000000000000000 ) ;
#277 = ORIENTED_EDGE ( 'NONE', *, *, #233, .T. ) ;
#278 = CARTESIAN_POINT ( 'NONE',  ( 0.000000000000000000, 0.4375000000000000000, 0.000000000000000000 ) ) ;
#279 = CARTESIAN_POINT ( 'NONE',  ( 0.09375000000000001388, 2.000000000000000000, 0.000000000000000000 ) ) ;
#280 = PRODUCT_DEFINITION_SHAPE ( 'NONE', 'NONE',  #96 ) ;
#281 = DIRECTION ( 'NONE',  ( -1.000000000000000000, 0.000000000000000000, 0.000000000000000000 ) ) ;
#282 = EDGE_LOOP ( 'NONE', ( #127, #146 ) ) ;
#283 =( LENGTH_UNIT ( ) NAMED_UNIT ( * ) SI_UNIT ( $, .METRE. ) );
#284 = AXIS2_PLACEMENT_3D ( 'NONE', #205, #218, #264 ) ;
#285 = SURFACE_SIDE_STYLE ('',( #46 ) ) ;
#286 = FILL_AREA_STYLE_COLOUR ( '', #158 ) ;
#287 = COLOUR_RGB ( '',1.000000000000000000, 0.000000000000000000, 0.000000000000000000 ) ;
#288 = CARTESIAN_POINT ( 'NONE',  ( 0.000000000000000000, 0.000000000000000000, 0.000000000000000000 ) ) ;
#289 = FILL_AREA_STYLE_COLOUR ( '', #287 ) ;
#290 = VECTOR ( 'NONE', #72, 39.37007874015748143 ) ;
#291 = ORIENTED_EDGE ( 'NONE', *, *, #20, .T. ) ;
#292 = DIMENSIONAL_EXPONENTS ( 1.000000000000000000, 0.000000000000000000, 0.000000000000000000, 0.000000000000000000, 0.000000000000000000, 0.000000000000000000, 0.000000000000000000 ) ;
#293 = SURFACE_STYLE_FILL_AREA ( #192 ) ;
#294 = DIRECTION ( 'NONE',  ( 3.918869757271530214E-17, 1.000000000000000000, -0.000000000000000000 ) ) ;
#295 = UNCERTAINTY_MEASURE_WITH_UNIT (LENGTH_MEASURE( 1.000000000000000082E-05 ), #118, 'distance_accuracy_value', 'NONE');
#296 = DIRECTION ( 'NONE',  ( -1.000000000000000000, 0.000000000000000000, 0.000000000000000000 ) ) ;
#297 = CARTESIAN_POINT ( 'NONE',  ( -0.09374999999999990286, 2.000000000000000000, 0.000000000000000000 ) ) ;
#298 = EDGE_CURVE ( 'NONE', #105, #149, #200, .T. ) ;
#299 =( CONVERSION_BASED_UNIT ( 'INCH', #5 ) LENGTH_UNIT ( ) NAMED_UNIT ( #276 ) );
#300 = MECHANICAL_DESIGN_GEOMETRIC_PRESENTATION_REPRESENTATION (  '', ( #22 ), #209 ) ;
#301 = ORIENTED_EDGE ( 'NONE', *, *, #208, .F. ) ;
#302 = CARTESIAN_POINT ( 'NONE',  ( 0.000000000000000000, 0.4375000000000000000, 0.000000000000000000 ) ) ;
#303 = ADVANCED_FACE ( 'NONE', ( #6 ), #185, .T. ) ;
#304 = UNCERTAINTY_MEASURE_WITH_UNIT (LENGTH_MEASURE( 1.000000000000000082E-05 ), #299, 'distance_accuracy_value', 'NONE');
#305 =( NAMED_UNIT ( * ) PLANE_ANGLE_UNIT ( ) SI_UNIT ( $, .RADIAN. ) );
#306 = FACE_OUTER_BOUND ( 'NONE', #175, .T. ) ;
#307 = AXIS2_PLACEMENT_3D ( 'NONE', #278, #63, #171 ) ;
#308 = COLOUR_RGB ( '',1.000000000000000000, 0.000000000000000000, 0.000000000000000000 ) ;
#309 =( CONVERSION_BASED_UNIT ( 'INCH', #210 ) LENGTH_UNIT ( ) NAMED_UNIT ( #52 ) );
ENDSEC;
END-ISO-10303-21;
