ISO-10303-21;
HEADER;
FILE_DESCRIPTION (( 'STEP AP214' ),
    '1' );
FILE_NAME ('Micro_DC-01.STEP',
    '2021-08-31T17:22:14',
    ( '' ),
    ( '' ),
    'SwSTEP 2.0',
    'SolidWorks 2020',
    '' );
FILE_SCHEMA (( 'AUTOMOTIVE_DESIGN' ));
ENDSEC;

DATA;
#1 = VECTOR ( 'NONE', #105, 39.37007874015748854 ) ;
#2 = STYLED_ITEM ( 'NONE', ( #123 ), #345 ) ;
#3 = ORIENTED_EDGE ( 'NONE', *, *, #347, .T. ) ;
#4 = DIRECTION ( 'NONE',  ( -1.000000000000000000, 0.0000000000000000000, 0.0000000000000000000 ) ) ;
#5 = CARTESIAN_POINT ( 'NONE',  ( 0.0000000000000000000, 0.0000000000000000000, 0.0000000000000000000 ) ) ;
#6 = VERTEX_POINT ( 'NONE', #334 ) ;
#7 = PRODUCT ( 'Micro_DC-01', 'Micro_DC-01', '', ( #146 ) ) ;
#8 = CYLINDRICAL_SURFACE ( 'NONE', #211, 0.06250000000000000000 ) ;
#9 = DIRECTION ( 'NONE',  ( -1.000000000000000000, 0.0000000000000000000, 1.252096997096120642E-16 ) ) ;
#10 = VECTOR ( 'NONE', #265, 39.37007874015748143 ) ;
#11 = CIRCLE ( 'NONE', #314, 0.06249999999999997918 ) ;
#12 = DIRECTION ( 'NONE',  ( 1.252096997096120642E-16, 0.0000000000000000000, 1.000000000000000000 ) ) ;
#13 = CARTESIAN_POINT ( 'NONE',  ( 1.173643811742043287E-18, 0.0000000000000000000, 1.490626574343170141 ) ) ;
#14 = UNCERTAINTY_MEASURE_WITH_UNIT (LENGTH_MEASURE( 1.000000000000000082E-05 ), #163, 'distance_accuracy_value', 'NONE');
#15 = ORIENTED_EDGE ( 'NONE', *, *, #343, .T. ) ;
#16 = LINE ( 'NONE', #261, #10 ) ;
#17 = CARTESIAN_POINT ( 'NONE',  ( 0.01560000000000000275, 0.0000000000000000000, 0.04737342565682987894 ) ) ;
#18 = CLOSED_SHELL ( 'NONE', ( #147, #288, #258, #195, #34, #368, #170, #231, #156, #151, #183, #56, #263, #210 ) ) ;
#19 =( NAMED_UNIT ( * ) PLANE_ANGLE_UNIT ( ) SI_UNIT ( $, .RADIAN. ) );
#20 = DIRECTION ( 'NONE',  ( 1.252096997096120642E-16, 0.0000000000000000000, -1.000000000000000000 ) ) ;
#21 = FACE_OUTER_BOUND ( 'NONE', #332, .T. ) ;
#22 = EDGE_CURVE ( 'NONE', #116, #242, #153, .T. ) ;
#23 = EDGE_LOOP ( 'NONE', ( #246, #124, #310 ) ) ;
#24 = VECTOR ( 'NONE', #216, 39.37007874015748143 ) ;
#25 =( CONVERSION_BASED_UNIT ( 'INCH', #318 ) LENGTH_UNIT ( ) NAMED_UNIT ( #370 ) );
#26 = ORIENTED_EDGE ( 'NONE', *, *, #22, .T. ) ;
#27 = AXIS2_PLACEMENT_3D ( 'NONE', #5, #130, #9 ) ;
#28 = FACE_OUTER_BOUND ( 'NONE', #99, .T. ) ;
#29 = ORIENTED_EDGE ( 'NONE', *, *, #272, .T. ) ;
#30 = LENGTH_MEASURE_WITH_UNIT ( LENGTH_MEASURE( 0.02539999999999999897 ), #202 );
#31 = ORIENTED_EDGE ( 'NONE', *, *, #197, .T. ) ;
#32 = DIRECTION ( 'NONE',  ( -1.252096997096120642E-16, -0.0000000000000000000, -1.000000000000000000 ) ) ;
#33 = CARTESIAN_POINT ( 'NONE',  ( 0.0000000000000000000, 0.0000000000000000000, 1.500000000000000222 ) ) ;
#34 = ADVANCED_FACE ( 'NONE', ( #251 ), #166, .T. ) ;
#35 = ORIENTED_EDGE ( 'NONE', *, *, #388, .T. ) ;
#36 = CARTESIAN_POINT ( 'NONE',  ( -0.01559999999999999061, 1.910449006669870394E-18, 0.04737342565682987894 ) ) ;
#37 = CIRCLE ( 'NONE', #165, 0.01559999999999999755 ) ;
#38 = CONICAL_SURFACE ( 'NONE', #57, 0.01559999999999999755, 0.5235987755983000369 ) ;
#39 = ORIENTED_EDGE ( 'NONE', *, *, #197, .F. ) ;
#40 = CARTESIAN_POINT ( 'NONE',  ( 1.173643811742043287E-18, 0.0000000000000000000, 0.009373425656829886821 ) ) ;
#41 = ORIENTED_EDGE ( 'NONE', *, *, #218, .T. ) ;
#42 = EDGE_CURVE ( 'NONE', #242, #116, #82, .T. ) ;
#43 = FACE_OUTER_BOUND ( 'NONE', #220, .T. ) ;
#44 = AXIS2_PLACEMENT_3D ( 'NONE', #361, #212, #323 ) ;
#45 = CARTESIAN_POINT ( 'NONE',  ( -0.01559999999999999928, 0.0000000000000000000, 1.500000000000000222 ) ) ;
#46 = DIRECTION ( 'NONE',  ( 1.252096997096120642E-16, 0.0000000000000000000, -1.000000000000000000 ) ) ;
#47 = DIRECTION ( 'NONE',  ( 1.252096997096120642E-16, 0.0000000000000000000, 1.000000000000000000 ) ) ;
#48 = DIRECTION ( 'NONE',  ( -1.000000000000000000, 0.0000000000000000000, 0.0000000000000000000 ) ) ;
#49 = DIRECTION ( 'NONE',  ( -1.000000000000000000, 0.0000000000000000000, 0.0000000000000000000 ) ) ;
#50 = ORIENTED_EDGE ( 'NONE', *, *, #324, .F. ) ;
#51 = CONICAL_SURFACE ( 'NONE', #227, 65.52281426576880108, 1.029744258676656976 ) ;
#52 = AXIS2_PLACEMENT_3D ( 'NONE', #315, #46, #209 ) ;
#53 = COLOUR_RGB ( '',0.7921568627450980005, 0.8196078431372548767, 0.9333333333333333481 ) ;
#54 = DIRECTION ( 'NONE',  ( -1.252096997096120642E-16, -0.0000000000000000000, -1.000000000000000000 ) ) ;
#55 = SHAPE_DEFINITION_REPRESENTATION ( #134, #66 ) ;
#56 = ADVANCED_FACE ( 'NONE', ( #28 ), #51, .T. ) ;
#57 = AXIS2_PLACEMENT_3D ( 'NONE', #104, #232, #79 ) ;
#58 = APPLICATION_CONTEXT ( 'automotive_design' ) ;
#59 = SURFACE_STYLE_FILL_AREA ( #330 ) ;
#60 = DIRECTION ( 'NONE',  ( -1.000000000000000000, 0.0000000000000000000, 0.0000000000000000000 ) ) ;
#61 = ORIENTED_EDGE ( 'NONE', *, *, #42, .T. ) ;
#62 = EDGE_CURVE ( 'NONE', #237, #253, #380, .T. ) ;
#63 = CIRCLE ( 'NONE', #115, 0.01559999999999999928 ) ;
#64 = SURFACE_SIDE_STYLE ('',( #59 ) ) ;
#65 = VERTEX_POINT ( 'NONE', #358 ) ;
#66 = ADVANCED_BREP_SHAPE_REPRESENTATION ( 'Micro_DC-01', ( #345, #264 ), #271 ) ;
#67 = ORIENTED_EDGE ( 'NONE', *, *, #347, .F. ) ;
#68 =( LENGTH_UNIT ( ) NAMED_UNIT ( * ) SI_UNIT ( $, .METRE. ) );
#69 = VERTEX_POINT ( 'NONE', #103 ) ;
#70 = CIRCLE ( 'NONE', #392, 0.06249999999999997918 ) ;
#71 = CARTESIAN_POINT ( 'NONE',  ( 0.01560000000000000275, 0.0000000000000000000, 1.452626574343170329 ) ) ;
#72 = DIRECTION ( 'NONE',  ( 0.8571673007021136659, 0.0000000000000000000, 0.5150380749100519351 ) ) ;
#73 = VECTOR ( 'NONE', #353, 39.37007874015748854 ) ;
#74 = AXIS2_PLACEMENT_3D ( 'NONE', #291, #81, #199 ) ;
#75 = CARTESIAN_POINT ( 'NONE',  ( -0.01559999999999999061, -1.910449006669870394E-18, 1.452626574343170329 ) ) ;
#76 = DIRECTION ( 'NONE',  ( -0.5000000000000008882, 6.123233995736778362E-17, 0.8660254037844380415 ) ) ;
#77 = DIRECTION ( 'NONE',  ( -1.000000000000000000, 0.0000000000000000000, 1.252096997096120642E-16 ) ) ;
#78 = DIRECTION ( 'NONE',  ( 1.000000000000000000, 0.0000000000000000000, -1.334178587669836305E-16 ) ) ;
#79 = DIRECTION ( 'NONE',  ( 1.000000000000000000, 0.0000000000000000000, 0.0000000000000000000 ) ) ;
#80 = CARTESIAN_POINT ( 'NONE',  ( 1.173643811742043287E-18, 0.0000000000000000000, 1.490626574343170141 ) ) ;
#81 = DIRECTION ( 'NONE',  ( -1.252096997096120642E-16, -0.0000000000000000000, -1.000000000000000000 ) ) ;
#82 = CIRCLE ( 'NONE', #360, 0.06249999999999997918 ) ;
#83 = PRODUCT_DEFINITION ( 'UNKNOWN', '', #281, #257 ) ;
#84 = APPLICATION_PROTOCOL_DEFINITION ( 'draft international standard', 'automotive_design', 1998, #58 ) ;
#85 = CARTESIAN_POINT ( 'NONE',  ( 1.610279483493955892E-17, 0.0000000000000000000, 0.1286066085318099683 ) ) ;
#86 = ORIENTED_EDGE ( 'NONE', *, *, #362, .T. ) ;
#87 = AXIS2_PLACEMENT_3D ( 'NONE', #40, #351, #205 ) ;
#88 = CARTESIAN_POINT ( 'NONE',  ( -0.01559999999999999061, 0.0000000000000000000, 1.452626574343170329 ) ) ;
#89 = PRODUCT_RELATED_PRODUCT_CATEGORY ( 'part', '', ( #7 ) ) ;
#90 = DIRECTION ( 'NONE',  ( -1.000000000000000000, 0.0000000000000000000, 0.0000000000000000000 ) ) ;
#91 =( NAMED_UNIT ( * ) SI_UNIT ( $, .STERADIAN. ) SOLID_ANGLE_UNIT ( ) );
#92 = DIRECTION ( 'NONE',  ( -0.8571673007021134438, -1.049727191138620298E-16, -0.5150380749100521571 ) ) ;
#93 = ORIENTED_EDGE ( 'NONE', *, *, #287, .T. ) ;
#94 = ORIENTED_EDGE ( 'NONE', *, *, #282, .F. ) ;
#95 = VECTOR ( 'NONE', #221, 39.37007874015748143 ) ;
#96 = ORIENTED_EDGE ( 'NONE', *, *, #161, .T. ) ;
#97 = EDGE_CURVE ( 'NONE', #116, #207, #16, .T. ) ;
#98 = VERTEX_POINT ( 'NONE', #384 ) ;
#99 = EDGE_LOOP ( 'NONE', ( #306, #86, #131 ) ) ;
#100 = CARTESIAN_POINT ( 'NONE',  ( 1.610279483493955892E-17, 0.0000000000000000000, 0.1286066085318099683 ) ) ;
#101 = CARTESIAN_POINT ( 'NONE',  ( 0.0000000000000000000, 0.0000000000000000000, 1.500000000000000222 ) ) ;
#102 = EDGE_CURVE ( 'NONE', #98, #69, #348, .T. ) ;
#103 = CARTESIAN_POINT ( 'NONE',  ( -0.01559999999999999408, 1.910449006669870394E-18, 0.009373425656829888555 ) ) ;
#104 = CARTESIAN_POINT ( 'NONE',  ( 5.931612400707300585E-18, 0.0000000000000000000, 1.452626574343170329 ) ) ;
#105 = DIRECTION ( 'NONE',  ( -0.8571673007021134438, 1.049727191138620298E-16, 0.5150380749100521571 ) ) ;
#106 = DIRECTION ( 'NONE',  ( 1.000000000000000000, 0.0000000000000000000, 0.0000000000000000000 ) ) ;
#107 = EDGE_LOOP ( 'NONE', ( #169, #61, #226, #286 ) ) ;
#108 = VECTOR ( 'NONE', #72, 39.37007874015748143 ) ;
#109 = CARTESIAN_POINT ( 'NONE',  ( 5.931612400707300585E-18, 0.0000000000000000000, 0.04737342565682987894 ) ) ;
#110 = CYLINDRICAL_SURFACE ( 'NONE', #228, 0.01559999999999999928 ) ;
#111 = CARTESIAN_POINT ( 'NONE',  ( 4.929515736598900023E-15, 0.0000000000000000000, -37.87007874015748143 ) ) ;
#112 = ORIENTED_EDGE ( 'NONE', *, *, #282, .T. ) ;
#113 = DIRECTION ( 'NONE',  ( 1.000000000000000000, 0.0000000000000000000, 0.0000000000000000000 ) ) ;
#114 = DIRECTION ( 'NONE',  ( 0.8571673007021136659, 0.0000000000000000000, -0.5150380749100519351 ) ) ;
#115 = AXIS2_PLACEMENT_3D ( 'NONE', #80, #206, #60 ) ;
#116 = VERTEX_POINT ( 'NONE', #383 ) ;
#117 = EDGE_CURVE ( 'NONE', #237, #307, #359, .T. ) ;
#118 = CARTESIAN_POINT ( 'NONE',  ( 0.0000000000000000000, 0.0000000000000000000, 1.500000000000000222 ) ) ;
#119 = EDGE_LOOP ( 'NONE', ( #372, #3, #305, #39 ) ) ;
#120 = SURFACE_STYLE_FILL_AREA ( #389 ) ;
#121 = CYLINDRICAL_SURFACE ( 'NONE', #44, 0.01559999999999999928 ) ;
#122 = EDGE_LOOP ( 'NONE', ( #50, #35, #29, #375 ) ) ;
#123 = PRESENTATION_STYLE_ASSIGNMENT (( #276 ) ) ;
#124 = ORIENTED_EDGE ( 'NONE', *, *, #316, .T. ) ;
#125 = LINE ( 'NONE', #36, #298 ) ;
#126 = DIRECTION ( 'NONE',  ( -1.252096997096120642E-16, -0.0000000000000000000, -1.000000000000000000 ) ) ;
#127 = EDGE_LOOP ( 'NONE', ( #223, #320, #196, #252 ) ) ;
#128 = DIRECTION ( 'NONE',  ( 1.252096997096120642E-16, 0.0000000000000000000, -1.000000000000000000 ) ) ;
#129 = ORIENTED_EDGE ( 'NONE', *, *, #259, .T. ) ;
#130 = DIRECTION ( 'NONE',  ( -1.252096997096120642E-16, -0.0000000000000000000, -1.000000000000000000 ) ) ;
#131 = ORIENTED_EDGE ( 'NONE', *, *, #161, .F. ) ;
#132 = EDGE_CURVE ( 'NONE', #237, #65, #296, .T. ) ;
#133 = CARTESIAN_POINT ( 'NONE',  ( 0.0000000000000000000, 0.0000000000000000000, 1.500000000000000222 ) ) ;
#134 = PRODUCT_DEFINITION_SHAPE ( 'NONE', 'NONE',  #83 ) ;
#135 = DIRECTION ( 'NONE',  ( 1.000000000000000000, 0.0000000000000000000, 0.0000000000000000000 ) ) ;
#136 = EDGE_CURVE ( 'NONE', #280, #6, #302, .T. ) ;
#137 = CARTESIAN_POINT ( 'NONE',  ( 0.0000000000000000000, 0.0000000000000000000, 0.0000000000000000000 ) ) ;
#138 = FACE_OUTER_BOUND ( 'NONE', #194, .T. ) ;
#139 = CARTESIAN_POINT ( 'NONE',  ( 1.610279483493955892E-17, 0.0000000000000000000, 1.371393391468190170 ) ) ;
#140 = DIRECTION ( 'NONE',  ( 1.000000000000000000, 0.0000000000000000000, 1.334178587669836305E-16 ) ) ;
#141 = AXIS2_PLACEMENT_3D ( 'NONE', #150, #386, #245 ) ;
#142 = LINE ( 'NONE', #349, #108 ) ;
#143 = DIRECTION ( 'NONE',  ( 1.252096997096120642E-16, 0.0000000000000000000, -1.000000000000000000 ) ) ;
#144 = PRESENTATION_STYLE_ASSIGNMENT (( #301 ) ) ;
#145 = CYLINDRICAL_SURFACE ( 'NONE', #141, 0.06250000000000000000 ) ;
#146 = PRODUCT_CONTEXT ( 'NONE', #328, 'mechanical' ) ;
#147 = ADVANCED_FACE ( 'NONE', ( #175 ), #303, .T. ) ;
#148 = AXIS2_PLACEMENT_3D ( 'NONE', #109, #289, #106 ) ;
#149 = DIRECTION ( 'NONE',  ( -1.252096997096120642E-16, -0.0000000000000000000, 1.000000000000000000 ) ) ;
#150 = CARTESIAN_POINT ( 'NONE',  ( 0.0000000000000000000, 0.0000000000000000000, 1.500000000000000222 ) ) ;
#151 = ADVANCED_FACE ( 'NONE', ( #321 ), #110, .T. ) ;
#152 = DIRECTION ( 'NONE',  ( -1.252096997096120642E-16, -0.0000000000000000000, -1.000000000000000000 ) ) ;
#153 = CIRCLE ( 'NONE', #378, 0.06249999999999997918 ) ;
#154 =( NAMED_UNIT ( * ) PLANE_ANGLE_UNIT ( ) SI_UNIT ( $, .RADIAN. ) );
#155 = CONICAL_SURFACE ( 'NONE', #247, 0.01559999999999999755, 0.5235987755983000369 ) ;
#156 = ADVANCED_FACE ( 'NONE', ( #203 ), #308, .T. ) ;
#157 = LINE ( 'NONE', #33, #255 ) ;
#158 = ORIENTED_EDGE ( 'NONE', *, *, #132, .F. ) ;
#159 = DIRECTION ( 'NONE',  ( 1.252096997096120642E-16, 0.0000000000000000000, 1.000000000000000000 ) ) ;
#160 = LINE ( 'NONE', #394, #24 ) ;
#161 = EDGE_CURVE ( 'NONE', #6, #280, #63, .T. ) ;
#162 = ORIENTED_EDGE ( 'NONE', *, *, #272, .F. ) ;
#163 =( CONVERSION_BASED_UNIT ( 'INCH', #187 ) LENGTH_UNIT ( ) NAMED_UNIT ( #366 ) );
#164 =( NAMED_UNIT ( * ) PLANE_ANGLE_UNIT ( ) SI_UNIT ( $, .RADIAN. ) );
#165 = AXIS2_PLACEMENT_3D ( 'NONE', #331, #126, #336 ) ;
#166 = CYLINDRICAL_SURFACE ( 'NONE', #27, 0.01559999999999999928 ) ;
#167 = ORIENTED_EDGE ( 'NONE', *, *, #102, .T. ) ;
#168 = DIRECTION ( 'NONE',  ( -1.000000000000000000, 0.0000000000000000000, 0.0000000000000000000 ) ) ;
#169 = ORIENTED_EDGE ( 'NONE', *, *, #381, .F. ) ;
#170 = ADVANCED_FACE ( 'NONE', ( #21 ), #145, .T. ) ;
#171 = CARTESIAN_POINT ( 'NONE',  ( 0.01559999999999999928, 1.910449006669871164E-18, -1.953271315469948143E-18 ) ) ;
#172 = PRESENTATION_LAYER_ASSIGNMENT (  '', '', ( #229 ) ) ;
#173 = DIRECTION ( 'NONE',  ( -1.252096997096120642E-16, -0.0000000000000000000, -1.000000000000000000 ) ) ;
#174 = FACE_OUTER_BOUND ( 'NONE', #122, .T. ) ;
#175 = FACE_OUTER_BOUND ( 'NONE', #119, .T. ) ;
#176 = UNCERTAINTY_MEASURE_WITH_UNIT (LENGTH_MEASURE( 1.000000000000000082E-05 ), #275, 'distance_accuracy_value', 'NONE');
#177 = FILL_AREA_STYLE_COLOUR ( '', #53 ) ;
#178 = CARTESIAN_POINT ( 'NONE',  ( 0.06250000000000000000, 7.654042494670956004E-18, 1.371393391468190170 ) ) ;
#179 = EDGE_LOOP ( 'NONE', ( #393, #325, #277, #248 ) ) ;
#180 = AXIS2_PLACEMENT_3D ( 'NONE', #111, #230, #346 ) ;
#181 = DIRECTION ( 'NONE',  ( -1.000000000000000000, 0.0000000000000000000, 0.0000000000000000000 ) ) ;
#182 = CARTESIAN_POINT ( 'NONE',  ( 4.929515736598900023E-15, 0.0000000000000000000, 39.37007874015748143 ) ) ;
#183 = ADVANCED_FACE ( 'NONE', ( #43 ), #374, .T. ) ;
#184 = SURFACE_SIDE_STYLE ('',( #120 ) ) ;
#185 = CARTESIAN_POINT ( 'NONE',  ( 0.01560000000000002704, 0.0000000000000000000, 1.490626574343170141 ) ) ;
#186 = COLOUR_RGB ( '',0.7921568627450980005, 0.8196078431372548767, 0.9333333333333333481 ) ;
#187 = LENGTH_MEASURE_WITH_UNIT ( LENGTH_MEASURE( 0.02539999999999999897 ), #68 );
#188 = CARTESIAN_POINT ( 'NONE',  ( 5.931612400707300585E-18, 0.0000000000000000000, 1.452626574343170329 ) ) ;
#189 = MECHANICAL_DESIGN_GEOMETRIC_PRESENTATION_REPRESENTATION (  '', ( #2 ), #382 ) ;
#190 = ORIENTED_EDGE ( 'NONE', *, *, #22, .F. ) ;
#191 = CARTESIAN_POINT ( 'NONE',  ( 1.610279483493955892E-17, 0.0000000000000000000, 1.371393391468190170 ) ) ;
#192 = EDGE_LOOP ( 'NONE', ( #217, #364, #129, #96 ) ) ;
#193 = EDGE_LOOP ( 'NONE', ( #397, #340, #15, #94 ) ) ;
#194 = EDGE_LOOP ( 'NONE', ( #335, #167, #377 ) ) ;
#195 = ADVANCED_FACE ( 'NONE', ( #174 ), #155, .T. ) ;
#196 = ORIENTED_EDGE ( 'NONE', *, *, #222, .F. ) ;
#197 = EDGE_CURVE ( 'NONE', #395, #242, #256, .T. ) ;
#198 = CARTESIAN_POINT ( 'NONE',  ( 0.06250000000000000000, 7.654042494670956004E-18, 0.1286066085318099683 ) ) ;
#199 = DIRECTION ( 'NONE',  ( -1.000000000000000000, 0.0000000000000000000, 0.0000000000000000000 ) ) ;
#200 = AXIS2_PLACEMENT_3D ( 'NONE', #268, #390, #214 ) ;
#201 = MECHANICAL_DESIGN_GEOMETRIC_PRESENTATION_REPRESENTATION (  '', ( #229 ), #249 ) ;
#202 =( LENGTH_UNIT ( ) NAMED_UNIT ( * ) SI_UNIT ( $, .METRE. ) );
#203 = FACE_OUTER_BOUND ( 'NONE', #283, .T. ) ;
#204 = DIRECTION ( 'NONE',  ( 1.252096997096120642E-16, 0.0000000000000000000, -1.000000000000000000 ) ) ;
#205 = DIRECTION ( 'NONE',  ( -1.000000000000000000, 0.0000000000000000000, 1.368112977596285813E-16 ) ) ;
#206 = DIRECTION ( 'NONE',  ( 1.252096997096120642E-16, 0.0000000000000000000, -1.000000000000000000 ) ) ;
#207 = VERTEX_POINT ( 'NONE', #379 ) ;
#208 = APPLICATION_PROTOCOL_DEFINITION ( 'draft international standard', 'automotive_design', 1998, #328 ) ;
#209 = DIRECTION ( 'NONE',  ( 1.000000000000000000, 0.0000000000000000000, 0.0000000000000000000 ) ) ;
#210 = ADVANCED_FACE ( 'NONE', ( #357 ), #38, .T. ) ;
#211 = AXIS2_PLACEMENT_3D ( 'NONE', #101, #319, #48 ) ;
#212 = DIRECTION ( 'NONE',  ( -1.252096997096120642E-16, -0.0000000000000000000, 1.000000000000000000 ) ) ;
#213 = VECTOR ( 'NONE', #235, 39.37007874015748854 ) ;
#214 = DIRECTION ( 'NONE',  ( -1.000000000000000000, 0.0000000000000000000, 1.368112977596285813E-16 ) ) ;
#215 = VECTOR ( 'NONE', #354, 39.37007874015748143 ) ;
#216 = DIRECTION ( 'NONE',  ( -1.252096997096120642E-16, -0.0000000000000000000, -1.000000000000000000 ) ) ;
#217 = ORIENTED_EDGE ( 'NONE', *, *, #371, .F. ) ;
#218 = EDGE_CURVE ( 'NONE', #98, #307, #142, .T. ) ;
#219 = AXIS2_PLACEMENT_3D ( 'NONE', #250, #159, #78 ) ;
#220 = EDGE_LOOP ( 'NONE', ( #337, #158, #299, #244 ) ) ;
#221 = DIRECTION ( 'NONE',  ( -1.252096997096120642E-16, -0.0000000000000000000, 1.000000000000000000 ) ) ;
#222 = EDGE_CURVE ( 'NONE', #69, #307, #279, .T. ) ;
#223 = ORIENTED_EDGE ( 'NONE', *, *, #324, .T. ) ;
#224 = LINE ( 'NONE', #260, #95 ) ;
#225 = ORIENTED_EDGE ( 'NONE', *, *, #97, .F. ) ;
#226 = ORIENTED_EDGE ( 'NONE', *, *, #97, .T. ) ;
#227 = AXIS2_PLACEMENT_3D ( 'NONE', #233, #20, #140 ) ;
#228 = AXIS2_PLACEMENT_3D ( 'NONE', #137, #54, #77 ) ;
#229 = STYLED_ITEM ( 'NONE', ( #144 ), #66 ) ;
#230 = DIRECTION ( 'NONE',  ( 1.252096997096120642E-16, 0.0000000000000000000, -1.000000000000000000 ) ) ;
#231 = ADVANCED_FACE ( 'NONE', ( #285 ), #8, .T. ) ;
#232 = DIRECTION ( 'NONE',  ( 1.252096997096120642E-16, 0.0000000000000000000, -1.000000000000000000 ) ) ;
#233 = CARTESIAN_POINT ( 'NONE',  ( 4.929515736598900023E-15, 0.0000000000000000000, -37.87007874015748143 ) ) ;
#234 = CARTESIAN_POINT ( 'NONE',  ( 0.0000000000000000000, 0.0000000000000000000, 1.500000000000000222 ) ) ;
#235 = DIRECTION ( 'NONE',  ( 0.5000000000000012212, 0.0000000000000000000, -0.8660254037844379305 ) ) ;
#236 = DIRECTION ( 'NONE',  ( 1.000000000000000000, 0.0000000000000000000, -1.334178587669836305E-16 ) ) ;
#237 = VERTEX_POINT ( 'NONE', #317 ) ;
#238 =( NAMED_UNIT ( * ) SI_UNIT ( $, .STERADIAN. ) SOLID_ANGLE_UNIT ( ) );
#239 = CARTESIAN_POINT ( 'NONE',  ( 0.0000000000000000000, 0.0000000000000000000, 0.0000000000000000000 ) ) ;
#240 = VECTOR ( 'NONE', #173, 39.37007874015748143 ) ;
#241 = AXIS2_PLACEMENT_3D ( 'NONE', #13, #350, #49 ) ;
#242 = VERTEX_POINT ( 'NONE', #178 ) ;
#243 = CARTESIAN_POINT ( 'NONE',  ( 0.01559999999999999928, 0.0000000000000000000, 0.009373425656829885086 ) ) ;
#244 = ORIENTED_EDGE ( 'NONE', *, *, #373, .T. ) ;
#245 = DIRECTION ( 'NONE',  ( -1.000000000000000000, 0.0000000000000000000, 0.0000000000000000000 ) ) ;
#246 = ORIENTED_EDGE ( 'NONE', *, *, #362, .F. ) ;
#247 = AXIS2_PLACEMENT_3D ( 'NONE', #292, #12, #135 ) ;
#248 = ORIENTED_EDGE ( 'NONE', *, *, #259, .F. ) ;
#249 =( GEOMETRIC_REPRESENTATION_CONTEXT ( 3 ) GLOBAL_UNCERTAINTY_ASSIGNED_CONTEXT ( ( #293 ) ) GLOBAL_UNIT_ASSIGNED_CONTEXT ( ( #25, #19, #238 ) ) REPRESENTATION_CONTEXT ( 'NONE', 'WORKASPACE' ) );
#250 = CARTESIAN_POINT ( 'NONE',  ( 4.929515736598900023E-15, 0.0000000000000000000, 39.37007874015748143 ) ) ;
#251 = FACE_OUTER_BOUND ( 'NONE', #127, .T. ) ;
#252 = ORIENTED_EDGE ( 'NONE', *, *, #343, .F. ) ;
#253 = VERTEX_POINT ( 'NONE', #198 ) ;
#254 = DIRECTION ( 'NONE',  ( -1.000000000000000000, 0.0000000000000000000, 0.0000000000000000000 ) ) ;
#255 = VECTOR ( 'NONE', #92, 39.37007874015748854 ) ;
#256 = LINE ( 'NONE', #71, #213 ) ;
#257 = PRODUCT_DEFINITION_CONTEXT ( 'detailed design', #58, 'design' ) ;
#258 = ADVANCED_FACE ( 'NONE', ( #295 ), #297, .T. ) ;
#259 = EDGE_CURVE ( 'NONE', #311, #6, #313, .T. ) ;
#260 = CARTESIAN_POINT ( 'NONE',  ( 0.01559999999999999928, -1.910449006669871164E-18, 1.500000000000000222 ) ) ;
#261 = CARTESIAN_POINT ( 'NONE',  ( -0.06250000000000000000, 0.0000000000000000000, 1.500000000000000222 ) ) ;
#262 = AXIS2_PLACEMENT_3D ( 'NONE', #329, #304, #269 ) ;
#263 = ADVANCED_FACE ( 'NONE', ( #363 ), #266, .T. ) ;
#264 = AXIS2_PLACEMENT_3D ( 'NONE', #365, #300, #113 ) ;
#265 = DIRECTION ( 'NONE',  ( -0.0000000000000000000, -0.0000000000000000000, -1.000000000000000000 ) ) ;
#266 = CYLINDRICAL_SURFACE ( 'NONE', #270, 0.01559999999999999928 ) ;
#267 = PRESENTATION_LAYER_ASSIGNMENT (  '', '', ( #2 ) ) ;
#268 = CARTESIAN_POINT ( 'NONE',  ( 1.173643811742043287E-18, 0.0000000000000000000, 0.009373425656829886821 ) ) ;
#269 = DIRECTION ( 'NONE',  ( -1.000000000000000000, 0.0000000000000000000, 0.0000000000000000000 ) ) ;
#270 = AXIS2_PLACEMENT_3D ( 'NONE', #118, #385, #181 ) ;
#271 =( GEOMETRIC_REPRESENTATION_CONTEXT ( 3 ) GLOBAL_UNCERTAINTY_ASSIGNED_CONTEXT ( ( #176 ) ) GLOBAL_UNIT_ASSIGNED_CONTEXT ( ( #275, #164, #356 ) ) REPRESENTATION_CONTEXT ( 'NONE', 'WORKASPACE' ) );
#272 = EDGE_CURVE ( 'NONE', #207, #253, #70, .T. ) ;
#273 = DIMENSIONAL_EXPONENTS ( 1.000000000000000000, 0.0000000000000000000, 0.0000000000000000000, 0.0000000000000000000, 0.0000000000000000000, 0.0000000000000000000, 0.0000000000000000000 ) ;
#274 = ORIENTED_EDGE ( 'NONE', *, *, #102, .F. ) ;
#275 =( CONVERSION_BASED_UNIT ( 'INCH', #30 ) LENGTH_UNIT ( ) NAMED_UNIT ( #273 ) );
#276 = SURFACE_STYLE_USAGE ( .BOTH. , #64 ) ;
#277 = ORIENTED_EDGE ( 'NONE', *, *, #136, .T. ) ;
#278 = CARTESIAN_POINT ( 'NONE',  ( 0.01560000000000000275, -1.910449006669871164E-18, 1.452626574343170329 ) ) ;
#279 = CIRCLE ( 'NONE', #87, 0.01559999999999999928 ) ;
#280 = VERTEX_POINT ( 'NONE', #185 ) ;
#281 = PRODUCT_DEFINITION_FORMATION_WITH_SPECIFIED_SOURCE ( 'ANY', '', #7, .NOT_KNOWN. ) ;
#282 = EDGE_CURVE ( 'NONE', #307, #69, #352, .T. ) ;
#283 = EDGE_LOOP ( 'NONE', ( #274, #41, #112 ) ) ;
#284 = LINE ( 'NONE', #75, #215 ) ;
#285 = FACE_OUTER_BOUND ( 'NONE', #107, .T. ) ;
#286 = ORIENTED_EDGE ( 'NONE', *, *, #373, .F. ) ;
#287 = EDGE_CURVE ( 'NONE', #311, #395, #327, .T. ) ;
#288 = ADVANCED_FACE ( 'NONE', ( #391 ), #121, .T. ) ;
#289 = DIRECTION ( 'NONE',  ( 1.252096997096120642E-16, 0.0000000000000000000, 1.000000000000000000 ) ) ;
#290 = AXIS2_PLACEMENT_3D ( 'NONE', #182, #47, #236 ) ;
#291 = CARTESIAN_POINT ( 'NONE',  ( 5.931612400707300585E-18, 0.0000000000000000000, 0.04737342565682987894 ) ) ;
#292 = CARTESIAN_POINT ( 'NONE',  ( 5.931612400707300585E-18, 0.0000000000000000000, 0.04737342565682987894 ) ) ;
#293 = UNCERTAINTY_MEASURE_WITH_UNIT (LENGTH_MEASURE( 1.000000000000000082E-05 ), #25, 'distance_accuracy_value', 'NONE');
#294 =( LENGTH_UNIT ( ) NAMED_UNIT ( * ) SI_UNIT ( $, .METRE. ) );
#295 = FACE_OUTER_BOUND ( 'NONE', #23, .T. ) ;
#296 = CIRCLE ( 'NONE', #74, 0.01559999999999999755 ) ;
#297 = CONICAL_SURFACE ( 'NONE', #180, 65.52281426576880108, 1.029744258676656976 ) ;
#298 = VECTOR ( 'NONE', #76, 39.37007874015748143 ) ;
#299 = ORIENTED_EDGE ( 'NONE', *, *, #62, .T. ) ;
#300 = DIRECTION ( 'NONE',  ( 0.0000000000000000000, 0.0000000000000000000, 1.000000000000000000 ) ) ;
#301 = SURFACE_STYLE_USAGE ( .BOTH. , #184 ) ;
#302 = CIRCLE ( 'NONE', #241, 0.01559999999999999928 ) ;
#303 = CONICAL_SURFACE ( 'NONE', #52, 0.01559999999999999755, 0.5235987755983000369 ) ;
#304 = DIRECTION ( 'NONE',  ( 1.252096997096120642E-16, 0.0000000000000000000, -1.000000000000000000 ) ) ;
#305 = ORIENTED_EDGE ( 'NONE', *, *, #42, .F. ) ;
#306 = ORIENTED_EDGE ( 'NONE', *, *, #316, .F. ) ;
#307 = VERTEX_POINT ( 'NONE', #243 ) ;
#308 = CONICAL_SURFACE ( 'NONE', #290, 65.52281426576880108, 1.029744258676656976 ) ;
#309 = VECTOR ( 'NONE', #341, 39.37007874015748143 ) ;
#310 = ORIENTED_EDGE ( 'NONE', *, *, #136, .F. ) ;
#311 = VERTEX_POINT ( 'NONE', #88 ) ;
#312 = LINE ( 'NONE', #133, #322 ) ;
#313 = LINE ( 'NONE', #45, #333 ) ;
#314 = AXIS2_PLACEMENT_3D ( 'NONE', #100, #32, #4 ) ;
#315 = CARTESIAN_POINT ( 'NONE',  ( 5.931612400707300585E-18, 0.0000000000000000000, 1.452626574343170329 ) ) ;
#316 = EDGE_CURVE ( 'NONE', #367, #6, #157, .T. ) ;
#317 = CARTESIAN_POINT ( 'NONE',  ( 0.01560000000000000275, 1.910449006669871164E-18, 0.04737342565682987894 ) ) ;
#318 = LENGTH_MEASURE_WITH_UNIT ( LENGTH_MEASURE( 0.02539999999999999897 ), #294 );
#319 = DIRECTION ( 'NONE',  ( -0.0000000000000000000, -0.0000000000000000000, -1.000000000000000000 ) ) ;
#320 = ORIENTED_EDGE ( 'NONE', *, *, #117, .T. ) ;
#321 = FACE_OUTER_BOUND ( 'NONE', #193, .T. ) ;
#322 = VECTOR ( 'NONE', #114, 39.37007874015748143 ) ;
#323 = DIRECTION ( 'NONE',  ( -1.000000000000000000, 0.0000000000000000000, 0.0000000000000000000 ) ) ;
#324 = EDGE_CURVE ( 'NONE', #65, #237, #37, .T. ) ;
#325 = ORIENTED_EDGE ( 'NONE', *, *, #371, .T. ) ;
#326 = DIRECTION ( 'NONE',  ( -1.000000000000000000, 0.0000000000000000000, 0.0000000000000000000 ) ) ;
#327 = CIRCLE ( 'NONE', #262, 0.01559999999999999755 ) ;
#328 = APPLICATION_CONTEXT ( 'automotive_design' ) ;
#329 = CARTESIAN_POINT ( 'NONE',  ( 5.931612400707300585E-18, 0.0000000000000000000, 1.452626574343170329 ) ) ;
#330 = FILL_AREA_STYLE ('',( #339 ) ) ;
#331 = CARTESIAN_POINT ( 'NONE',  ( 5.931612400707300585E-18, 0.0000000000000000000, 0.04737342565682987894 ) ) ;
#332 = EDGE_LOOP ( 'NONE', ( #26, #376, #162, #225 ) ) ;
#333 = VECTOR ( 'NONE', #149, 39.37007874015748143 ) ;
#334 = CARTESIAN_POINT ( 'NONE',  ( -0.01560000000000002184, -1.910449006669874246E-18, 1.490626574343170141 ) ) ;
#335 = ORIENTED_EDGE ( 'NONE', *, *, #218, .F. ) ;
#336 = DIRECTION ( 'NONE',  ( -1.000000000000000000, 0.0000000000000000000, 0.0000000000000000000 ) ) ;
#337 = ORIENTED_EDGE ( 'NONE', *, *, #388, .F. ) ;
#338 = CARTESIAN_POINT ( 'NONE',  ( 0.06250000000000000000, 7.654042494670956004E-18, 1.500000000000000222 ) ) ;
#339 = FILL_AREA_STYLE_COLOUR ( '', #186 ) ;
#340 = ORIENTED_EDGE ( 'NONE', *, *, #132, .T. ) ;
#341 = DIRECTION ( 'NONE',  ( -0.0000000000000000000, -0.0000000000000000000, -1.000000000000000000 ) ) ;
#342 = AXIS2_PLACEMENT_3D ( 'NONE', #188, #204, #90 ) ;
#343 = EDGE_CURVE ( 'NONE', #65, #69, #160, .T. ) ;
#344 = EDGE_LOOP ( 'NONE', ( #67, #93, #31, #190 ) ) ;
#345 = MANIFOLD_SOLID_BREP ( 'Mirror1', #18 ) ;
#346 = DIRECTION ( 'NONE',  ( 1.000000000000000000, 0.0000000000000000000, 1.334178587669836305E-16 ) ) ;
#347 = EDGE_CURVE ( 'NONE', #311, #116, #284, .T. ) ;
#348 = LINE ( 'NONE', #239, #1 ) ;
#349 = CARTESIAN_POINT ( 'NONE',  ( 0.0000000000000000000, 0.0000000000000000000, 0.0000000000000000000 ) ) ;
#350 = DIRECTION ( 'NONE',  ( 1.252096997096120642E-16, 0.0000000000000000000, -1.000000000000000000 ) ) ;
#351 = DIRECTION ( 'NONE',  ( -1.252096997096120642E-16, -0.0000000000000000000, -1.000000000000000000 ) ) ;
#352 = CIRCLE ( 'NONE', #200, 0.01559999999999999928 ) ;
#353 = DIRECTION ( 'NONE',  ( 0.5000000000000012212, 0.0000000000000000000, 0.8660254037844379305 ) ) ;
#354 = DIRECTION ( 'NONE',  ( -0.5000000000000008882, -6.123233995736778362E-17, -0.8660254037844380415 ) ) ;
#355 = EDGE_CURVE ( 'NONE', #395, #311, #369, .T. ) ;
#356 =( NAMED_UNIT ( * ) SI_UNIT ( $, .STERADIAN. ) SOLID_ANGLE_UNIT ( ) );
#357 = FACE_OUTER_BOUND ( 'NONE', #344, .T. ) ;
#358 = CARTESIAN_POINT ( 'NONE',  ( -0.01559999999999999061, 0.0000000000000000000, 0.04737342565682987894 ) ) ;
#359 = LINE ( 'NONE', #171, #240 ) ;
#360 = AXIS2_PLACEMENT_3D ( 'NONE', #139, #143, #254 ) ;
#361 = CARTESIAN_POINT ( 'NONE',  ( 0.0000000000000000000, 0.0000000000000000000, 1.500000000000000222 ) ) ;
#362 = EDGE_CURVE ( 'NONE', #367, #280, #312, .T. ) ;
#363 = FACE_OUTER_BOUND ( 'NONE', #192, .T. ) ;
#364 = ORIENTED_EDGE ( 'NONE', *, *, #287, .F. ) ;
#365 = CARTESIAN_POINT ( 'NONE',  ( 0.0000000000000000000, 0.0000000000000000000, 0.0000000000000000000 ) ) ;
#366 = DIMENSIONAL_EXPONENTS ( 1.000000000000000000, 0.0000000000000000000, 0.0000000000000000000, 0.0000000000000000000, 0.0000000000000000000, 0.0000000000000000000, 0.0000000000000000000 ) ;
#367 = VERTEX_POINT ( 'NONE', #234 ) ;
#368 = ADVANCED_FACE ( 'NONE', ( #138 ), #387, .T. ) ;
#369 = CIRCLE ( 'NONE', #342, 0.01559999999999999755 ) ;
#370 = DIMENSIONAL_EXPONENTS ( 1.000000000000000000, 0.0000000000000000000, 0.0000000000000000000, 0.0000000000000000000, 0.0000000000000000000, 0.0000000000000000000, 0.0000000000000000000 ) ;
#371 = EDGE_CURVE ( 'NONE', #395, #280, #224, .T. ) ;
#372 = ORIENTED_EDGE ( 'NONE', *, *, #355, .T. ) ;
#373 = EDGE_CURVE ( 'NONE', #253, #207, #11, .T. ) ;
#374 = CONICAL_SURFACE ( 'NONE', #148, 0.01559999999999999755, 0.5235987755983000369 ) ;
#375 = ORIENTED_EDGE ( 'NONE', *, *, #62, .F. ) ;
#376 = ORIENTED_EDGE ( 'NONE', *, *, #381, .T. ) ;
#377 = ORIENTED_EDGE ( 'NONE', *, *, #222, .T. ) ;
#378 = AXIS2_PLACEMENT_3D ( 'NONE', #191, #128, #168 ) ;
#379 = CARTESIAN_POINT ( 'NONE',  ( -0.06249999999999996531, 0.0000000000000000000, 0.1286066085318099683 ) ) ;
#380 = LINE ( 'NONE', #17, #73 ) ;
#381 = EDGE_CURVE ( 'NONE', #242, #253, #396, .T. ) ;
#382 =( GEOMETRIC_REPRESENTATION_CONTEXT ( 3 ) GLOBAL_UNCERTAINTY_ASSIGNED_CONTEXT ( ( #14 ) ) GLOBAL_UNIT_ASSIGNED_CONTEXT ( ( #163, #154, #91 ) ) REPRESENTATION_CONTEXT ( 'NONE', 'WORKASPACE' ) );
#383 = CARTESIAN_POINT ( 'NONE',  ( -0.06249999999999996531, 0.0000000000000000000, 1.371393391468190170 ) ) ;
#384 = CARTESIAN_POINT ( 'NONE',  ( 0.0000000000000000000, 0.0000000000000000000, 0.0000000000000000000 ) ) ;
#385 = DIRECTION ( 'NONE',  ( -1.252096997096120642E-16, -0.0000000000000000000, 1.000000000000000000 ) ) ;
#386 = DIRECTION ( 'NONE',  ( -0.0000000000000000000, -0.0000000000000000000, -1.000000000000000000 ) ) ;
#387 = CONICAL_SURFACE ( 'NONE', #219, 65.52281426576880108, 1.029744258676656976 ) ;
#388 = EDGE_CURVE ( 'NONE', #65, #207, #125, .T. ) ;
#389 = FILL_AREA_STYLE ('',( #177 ) ) ;
#390 = DIRECTION ( 'NONE',  ( -1.252096997096120642E-16, -0.0000000000000000000, -1.000000000000000000 ) ) ;
#391 = FACE_OUTER_BOUND ( 'NONE', #179, .T. ) ;
#392 = AXIS2_PLACEMENT_3D ( 'NONE', #85, #152, #326 ) ;
#393 = ORIENTED_EDGE ( 'NONE', *, *, #355, .F. ) ;
#394 = CARTESIAN_POINT ( 'NONE',  ( -0.01559999999999999928, 0.0000000000000000000, 1.953271315469948143E-18 ) ) ;
#395 = VERTEX_POINT ( 'NONE', #278 ) ;
#396 = LINE ( 'NONE', #338, #309 ) ;
#397 = ORIENTED_EDGE ( 'NONE', *, *, #117, .F. ) ;
ENDSEC;
END-ISO-10303-21;
