ISO-10303-21;
HEADER;
FILE_DESCRIPTION (( 'STEP AP214' ),
    '1' );
FILE_NAME ('59494.STEP',
    '2023-07-24T15:48:00',
    ( '' ),
    ( '' ),
    'SwSTEP 2.0',
    'SolidWorks 2023',
    '' );
FILE_SCHEMA (( 'AUTOMOTIVE_DESIGN' ));
ENDSEC;

DATA;
#1 = DIRECTION ( 'NONE',  ( -4.082155997157840121E-17, 1.000000000000000000, -0.000000000000000000 ) ) ;
#2 = MECHANICAL_DESIGN_GEOMETRIC_PRESENTATION_REPRESENTATION (  '', ( #178 ), #166 ) ;
#3 = FILL_AREA_STYLE_COLOUR ( '', #257 ) ;
#4 = COLOUR_RGB ( '',1.000000000000000000, 0.000000000000000000, 0.000000000000000000 ) ;
#5 = DIRECTION ( 'NONE',  ( 0.000000000000000000, 0.000000000000000000, -1.000000000000000000 ) ) ;
#6 = EDGE_CURVE ( 'NONE', #269, #232, #202, .T. ) ;
#7 = AXIS2_PLACEMENT_3D ( 'NONE', #95, #139, #281 ) ;
#8 = DIRECTION ( 'NONE',  ( -1.000000000000000000, 0.000000000000000000, 0.000000000000000000 ) ) ;
#9 = EDGE_LOOP ( 'NONE', ( #181, #24, #277, #119 ) ) ;
#10 = AXIS2_PLACEMENT_3D ( 'NONE', #285, #68, #266 ) ;
#11 =( NAMED_UNIT ( * ) SI_UNIT ( $, .STERADIAN. ) SOLID_ANGLE_UNIT ( ) );
#12 = ORIENTED_EDGE ( 'NONE', *, *, #240, .T. ) ;
#13 = DIRECTION ( 'NONE',  ( -4.082155997157840121E-17, 1.000000000000000000, 0.000000000000000000 ) ) ;
#14 = SURFACE_STYLE_USAGE ( .BOTH. , #59 ) ;
#15 = ADVANCED_FACE ( 'NONE', ( #96 ), #273, .F. ) ;
#16 = MECHANICAL_DESIGN_GEOMETRIC_PRESENTATION_REPRESENTATION (  '', ( #99 ), #91 ) ;
#17 = CARTESIAN_POINT ( 'NONE',  ( 0.000000000000000000, 0.000000000000000000, 0.000000000000000000 ) ) ;
#18 = AXIS2_PLACEMENT_3D ( 'NONE', #251, #33, #161 ) ;
#19 = SURFACE_STYLE_USAGE ( .BOTH. , #239 ) ;
#20 =( NAMED_UNIT ( * ) PLANE_ANGLE_UNIT ( ) SI_UNIT ( $, .RADIAN. ) );
#21 = DIRECTION ( 'NONE',  ( -4.082155997157840121E-17, 1.000000000000000000, -0.000000000000000000 ) ) ;
#22 = UNCERTAINTY_MEASURE_WITH_UNIT (LENGTH_MEASURE( 1.000000000000000082E-05 ), #190, 'distance_accuracy_value', 'NONE');
#23 =( LENGTH_UNIT ( ) NAMED_UNIT ( * ) SI_UNIT ( .MILLI., .METRE. ) );
#24 = ORIENTED_EDGE ( 'NONE', *, *, #210, .T. ) ;
#25 = VECTOR ( 'NONE', #150, 1000.000000000000000 ) ;
#26 = PRESENTATION_STYLE_ASSIGNMENT (( #66 ) ) ;
#27 = ADVANCED_FACE ( 'NONE', ( #252 ), #79, .T. ) ;
#28 = FACE_OUTER_BOUND ( 'NONE', #93, .T. ) ;
#29 = DIRECTION ( 'NONE',  ( 4.082155997157840121E-17, -1.000000000000000000, 0.000000000000000000 ) ) ;
#30 = APPLICATION_PROTOCOL_DEFINITION ( 'draft international standard', 'automotive_design', 1998, #56 ) ;
#31 = FACE_OUTER_BOUND ( 'NONE', #69, .T. ) ;
#32 = MECHANICAL_DESIGN_GEOMETRIC_PRESENTATION_REPRESENTATION (  '', ( #117 ), #101 ) ;
#33 = DIRECTION ( 'NONE',  ( -4.082155997157840121E-17, 1.000000000000000000, -0.000000000000000000 ) ) ;
#34 = PRODUCT_DEFINITION_FORMATION_WITH_SPECIFIED_SOURCE ( 'ANY', '', #61, .NOT_KNOWN. ) ;
#35 = PLANE ( 'NONE',  #129 ) ;
#36 =( NAMED_UNIT ( * ) PLANE_ANGLE_UNIT ( ) SI_UNIT ( $, .RADIAN. ) );
#37 = FACE_OUTER_BOUND ( 'NONE', #175, .T. ) ;
#38 = ADVANCED_FACE ( 'NONE', ( #188 ), #162, .T. ) ;
#39 = DIRECTION ( 'NONE',  ( -0.000000000000000000, -1.000000000000000000, -0.000000000000000000 ) ) ;
#40 = CIRCLE ( 'NONE', #10, 12.50000000000000355 ) ;
#41 = EDGE_CURVE ( 'NONE', #198, #269, #46, .T. ) ;
#42 =( NAMED_UNIT ( * ) SI_UNIT ( $, .STERADIAN. ) SOLID_ANGLE_UNIT ( ) );
#43 = UNCERTAINTY_MEASURE_WITH_UNIT (LENGTH_MEASURE( 1.000000000000000082E-05 ), #23, 'distance_accuracy_value', 'NONE');
#44 = PRESENTATION_STYLE_ASSIGNMENT (( #263 ) ) ;
#45 = VERTEX_POINT ( 'NONE', #143 ) ;
#46 = CIRCLE ( 'NONE', #253, 12.50000000000000000 ) ;
#47 = SURFACE_SIDE_STYLE ('',( #246 ) ) ;
#48 = ORIENTED_EDGE ( 'NONE', *, *, #244, .F. ) ;
#49 = DIRECTION ( 'NONE',  ( -0.000000000000000000, -1.000000000000000000, -0.000000000000000000 ) ) ;
#50 =( LENGTH_UNIT ( ) NAMED_UNIT ( * ) SI_UNIT ( .MILLI., .METRE. ) );
#51 = PRESENTATION_STYLE_ASSIGNMENT (( #205 ) ) ;
#52 = EDGE_LOOP ( 'NONE', ( #112, #272 ) ) ;
#53 = VECTOR ( 'NONE', #78, 1000.000000000000000 ) ;
#54 = DIRECTION ( 'NONE',  ( -0.000000000000000000, -1.000000000000000000, -0.000000000000000000 ) ) ;
#55 = CARTESIAN_POINT ( 'NONE',  ( 12.50000000000000000, 124.9999999999999858, 0.000000000000000000 ) ) ;
#56 = APPLICATION_CONTEXT ( 'automotive_design' ) ;
#57 = FILL_AREA_STYLE_COLOUR ( '', #142 ) ;
#58 = ADVANCED_FACE ( 'NONE', ( #31 ), #35, .F. ) ;
#59 = SURFACE_SIDE_STYLE ('',( #121 ) ) ;
#60 = CIRCLE ( 'NONE', #247, 12.50000000000000000 ) ;
#61 = PRODUCT ( '59494', '59494', '', ( #230 ) ) ;
#62 = SURFACE_SIDE_STYLE ('',( #151 ) ) ;
#63 = ORIENTED_EDGE ( 'NONE', *, *, #287, .T. ) ;
#64 = UNCERTAINTY_MEASURE_WITH_UNIT (LENGTH_MEASURE( 1.000000000000000082E-05 ), #238, 'distance_accuracy_value', 'NONE');
#65 = COLOUR_RGB ( '',0.7921568627450980005, 0.8196078431372548767, 0.9333333333333333481 ) ;
#66 = SURFACE_STYLE_USAGE ( .BOTH. , #47 ) ;
#67 = VERTEX_POINT ( 'NONE', #207 ) ;
#68 = DIRECTION ( 'NONE',  ( -4.082155997157840121E-17, 1.000000000000000000, -0.000000000000000000 ) ) ;
#69 = EDGE_LOOP ( 'NONE', ( #89, #165 ) ) ;
#70 = DIRECTION ( 'NONE',  ( 0.000000000000000000, 0.000000000000000000, -1.000000000000000000 ) ) ;
#71 = EDGE_CURVE ( 'NONE', #198, #109, #212, .T. ) ;
#72 = LINE ( 'NONE', #208, #186 ) ;
#73 = CARTESIAN_POINT ( 'NONE',  ( -3.061616997868379493E-15, 124.9999999999999858, 0.000000000000000000 ) ) ;
#74 = SHAPE_DEFINITION_REPRESENTATION ( #228, #185 ) ;
#75 = ORIENTED_EDGE ( 'NONE', *, *, #41, .F. ) ;
#76 = STYLED_ITEM ( 'NONE', ( #26 ), #200 ) ;
#77 = CARTESIAN_POINT ( 'NONE',  ( 1.530808498934191521E-15, 0.000000000000000000, 12.50000000000000000 ) ) ;
#78 = DIRECTION ( 'NONE',  ( -0.000000000000000000, -1.000000000000000000, -0.000000000000000000 ) ) ;
#79 = CYLINDRICAL_SURFACE ( 'NONE', #88, 12.50000000000000000 ) ;
#80 =( NAMED_UNIT ( * ) PLANE_ANGLE_UNIT ( ) SI_UNIT ( $, .RADIAN. ) );
#81 = VECTOR ( 'NONE', #39, 1000.000000000000000 ) ;
#82 = CARTESIAN_POINT ( 'NONE',  ( -12.50000000000000711, 124.9999999999999858, 0.000000000000000000 ) ) ;
#83 = SURFACE_STYLE_FILL_AREA ( #259 ) ;
#84 = PRESENTATION_STYLE_ASSIGNMENT (( #194 ) ) ;
#85 = PRODUCT_DEFINITION_CONTEXT ( 'detailed design', #114, 'design' ) ;
#86 = FILL_AREA_STYLE_COLOUR ( '', #275 ) ;
#87 = ORIENTED_EDGE ( 'NONE', *, *, #274, .F. ) ;
#88 = AXIS2_PLACEMENT_3D ( 'NONE', #254, #54, #5 ) ;
#89 = ORIENTED_EDGE ( 'NONE', *, *, #274, .T. ) ;
#90 = DIRECTION ( 'NONE',  ( 0.000000000000000000, -1.000000000000000000, -0.000000000000000000 ) ) ;
#91 =( GEOMETRIC_REPRESENTATION_CONTEXT ( 3 ) GLOBAL_UNCERTAINTY_ASSIGNED_CONTEXT ( ( #43 ) ) GLOBAL_UNIT_ASSIGNED_CONTEXT ( ( #23, #201, #177 ) ) REPRESENTATION_CONTEXT ( 'NONE', 'WORKASPACE' ) );
#92 = APPLICATION_PROTOCOL_DEFINITION ( 'draft international standard', 'automotive_design', 1998, #114 ) ;
#93 = EDGE_LOOP ( 'NONE', ( #288, #106, #87, #48 ) ) ;
#94 = DIRECTION ( 'NONE',  ( -1.000000000000000000, 0.000000000000000000, 0.000000000000000000 ) ) ;
#95 = CARTESIAN_POINT ( 'NONE',  ( 0.000000000000000000, 0.000000000000000000, 0.000000000000000000 ) ) ;
#96 = FACE_OUTER_BOUND ( 'NONE', #52, .T. ) ;
#97 = ORIENTED_EDGE ( 'NONE', *, *, #192, .F. ) ;
#98 = CARTESIAN_POINT ( 'NONE',  ( 0.000000000000000000, 50.00000000000000000, 0.000000000000000000 ) ) ;
#99 = STYLED_ITEM ( 'NONE', ( #44 ), #180 ) ;
#100 = EDGE_CURVE ( 'NONE', #222, #67, #206, .T. ) ;
#101 =( GEOMETRIC_REPRESENTATION_CONTEXT ( 3 ) GLOBAL_UNCERTAINTY_ASSIGNED_CONTEXT ( ( #22 ) ) GLOBAL_UNIT_ASSIGNED_CONTEXT ( ( #190, #171, #42 ) ) REPRESENTATION_CONTEXT ( 'NONE', 'WORKASPACE' ) );
#102 = CARTESIAN_POINT ( 'NONE',  ( 0.000000000000000000, 0.000000000000000000, -12.50000000000000000 ) ) ;
#103 =( NAMED_UNIT ( * ) PLANE_ANGLE_UNIT ( ) SI_UNIT ( $, .RADIAN. ) );
#104 = PRESENTATION_STYLE_ASSIGNMENT (( #14 ) ) ;
#105 = CARTESIAN_POINT ( 'NONE',  ( 0.000000000000000000, 0.000000000000000000, 0.000000000000000000 ) ) ;
#106 = ORIENTED_EDGE ( 'NONE', *, *, #220, .T. ) ;
#107 = CARTESIAN_POINT ( 'NONE',  ( 0.000000000000000000, 50.00000000000000000, -12.50000000000000000 ) ) ;
#108 = ORIENTED_EDGE ( 'NONE', *, *, #71, .F. ) ;
#109 = VERTEX_POINT ( 'NONE', #102 ) ;
#110 = DIRECTION ( 'NONE',  ( -1.000000000000000000, 0.000000000000000000, 0.000000000000000000 ) ) ;
#111 = DIRECTION ( 'NONE',  ( -0.000000000000000000, -1.000000000000000000, -0.000000000000000000 ) ) ;
#112 = ORIENTED_EDGE ( 'NONE', *, *, #189, .F. ) ;
#113 = COLOUR_RGB ( '',1.000000000000000000, 0.000000000000000000, 0.000000000000000000 ) ;
#114 = APPLICATION_CONTEXT ( 'automotive_design' ) ;
#115 = CARTESIAN_POINT ( 'NONE',  ( 0.000000000000000000, 0.000000000000000000, 0.000000000000000000 ) ) ;
#116 = VERTEX_POINT ( 'NONE', #82 ) ;
#117 = STYLED_ITEM ( 'NONE', ( #284 ), #133 ) ;
#118 = DIRECTION ( 'NONE',  ( 1.000000000000000000, 4.082155997157840121E-17, 0.000000000000000000 ) ) ;
#119 = ORIENTED_EDGE ( 'NONE', *, *, #240, .F. ) ;
#120 = CIRCLE ( 'NONE', #159, 12.50000000000000355 ) ;
#121 = SURFACE_STYLE_FILL_AREA ( #256 ) ;
#122 = DIRECTION ( 'NONE',  ( -4.082155997157840121E-17, 1.000000000000000000, -0.000000000000000000 ) ) ;
#123 = CLOSED_SHELL ( 'NONE', ( #270, #15, #38, #58 ) ) ;
#124 = FILL_AREA_STYLE ('',( #125 ) ) ;
#125 = FILL_AREA_STYLE_COLOUR ( '', #65 ) ;
#126 = FILL_AREA_STYLE ('',( #154 ) ) ;
#127 = AXIS2_PLACEMENT_3D ( 'NONE', #128, #21, #110 ) ;
#128 = CARTESIAN_POINT ( 'NONE',  ( 0.000000000000000000, 50.00000000000000000, 0.000000000000000000 ) ) ;
#129 = AXIS2_PLACEMENT_3D ( 'NONE', #55, #29, #118 ) ;
#130 = UNCERTAINTY_MEASURE_WITH_UNIT (LENGTH_MEASURE( 1.000000000000000082E-05 ), #235, 'distance_accuracy_value', 'NONE');
#131 = AXIS2_PLACEMENT_3D ( 'NONE', #105, #268, #70 ) ;
#132 = DIRECTION ( 'NONE',  ( 0.000000000000000000, 0.000000000000000000, -1.000000000000000000 ) ) ;
#133 = ADVANCED_FACE ( 'NONE', ( #169 ), #147, .T. ) ;
#134 = DIRECTION ( 'NONE',  ( 0.000000000000000000, 0.000000000000000000, -1.000000000000000000 ) ) ;
#135 = DIRECTION ( 'NONE',  ( 0.000000000000000000, 0.000000000000000000, -1.000000000000000000 ) ) ;
#136 = CARTESIAN_POINT ( 'NONE',  ( 1.530808498934191521E-15, 50.00000000000000000, 12.50000000000000000 ) ) ;
#137 = EDGE_LOOP ( 'NONE', ( #179, #152, #158, #108 ) ) ;
#138 = PRESENTATION_LAYER_ASSIGNMENT (  '', '', ( #264 ) ) ;
#139 = DIRECTION ( 'NONE',  ( 0.000000000000000000, 0.000000000000000000, 1.000000000000000000 ) ) ;
#140 = SURFACE_STYLE_FILL_AREA ( #233 ) ;
#141 = CLOSED_SHELL ( 'NONE', ( #27, #133, #200, #180 ) ) ;
#142 = COLOUR_RGB ( '',0.7921568627450980005, 0.8196078431372548767, 0.9333333333333333481 ) ;
#143 = CARTESIAN_POINT ( 'NONE',  ( 12.50000000000000000, 124.9999999999999858, 1.530808498934191719E-15 ) ) ;
#144 = ORIENTED_EDGE ( 'NONE', *, *, #100, .T. ) ;
#145 = PRESENTATION_LAYER_ASSIGNMENT (  '', '', ( #178 ) ) ;
#146 = PRESENTATION_LAYER_ASSIGNMENT (  '', '', ( #76 ) ) ;
#147 = PLANE ( 'NONE',  #265 ) ;
#148 = SURFACE_SIDE_STYLE ('',( #261 ) ) ;
#149 = PRODUCT_RELATED_PRODUCT_CATEGORY ( 'part', '', ( #61 ) ) ;
#150 = DIRECTION ( 'NONE',  ( -4.082155997157840121E-17, 1.000000000000000000, -0.000000000000000000 ) ) ;
#151 = SURFACE_STYLE_FILL_AREA ( #126 ) ;
#152 = ORIENTED_EDGE ( 'NONE', *, *, #6, .T. ) ;
#153 = STYLED_ITEM ( 'NONE', ( #51 ), #27 ) ;
#154 = FILL_AREA_STYLE_COLOUR ( '', #113 ) ;
#155 = PRESENTATION_LAYER_ASSIGNMENT (  '', '', ( #117 ) ) ;
#156 = ORIENTED_EDGE ( 'NONE', *, *, #210, .F. ) ;
#157 = CYLINDRICAL_SURFACE ( 'NONE', #131, 12.50000000000000000 ) ;
#158 = ORIENTED_EDGE ( 'NONE', *, *, #287, .F. ) ;
#159 = AXIS2_PLACEMENT_3D ( 'NONE', #73, #1, #94 ) ;
#160 = DIRECTION ( 'NONE',  ( -4.082155997157840121E-17, 1.000000000000000000, -0.000000000000000000 ) ) ;
#161 = DIRECTION ( 'NONE',  ( -1.000000000000000000, 0.000000000000000000, 0.000000000000000000 ) ) ;
#162 = CYLINDRICAL_SURFACE ( 'NONE', #18, 12.50000000000000178 ) ;
#163 = MANIFOLD_SOLID_BREP ( 'Revolve - Tool Body (Straight Shanked)', #123 ) ;
#164 = DIRECTION ( 'NONE',  ( -0.000000000000000000, -1.000000000000000000, -0.000000000000000000 ) ) ;
#165 = ORIENTED_EDGE ( 'NONE', *, *, #192, .T. ) ;
#166 =( GEOMETRIC_REPRESENTATION_CONTEXT ( 3 ) GLOBAL_UNCERTAINTY_ASSIGNED_CONTEXT ( ( #64 ) ) GLOBAL_UNIT_ASSIGNED_CONTEXT ( ( #238, #103, #279 ) ) REPRESENTATION_CONTEXT ( 'NONE', 'WORKASPACE' ) );
#167 = PRODUCT_DEFINITION ( 'UNKNOWN', '', #34, #85 ) ;
#168 =( GEOMETRIC_REPRESENTATION_CONTEXT ( 3 ) GLOBAL_UNCERTAINTY_ASSIGNED_CONTEXT ( ( #262 ) ) GLOBAL_UNIT_ASSIGNED_CONTEXT ( ( #211, #36, #184 ) ) REPRESENTATION_CONTEXT ( 'NONE', 'WORKASPACE' ) );
#169 = FACE_OUTER_BOUND ( 'NONE', #267, .T. ) ;
#170 = MANIFOLD_SOLID_BREP ( 'Revolve - Cutting Edge', #141 ) ;
#171 =( NAMED_UNIT ( * ) PLANE_ANGLE_UNIT ( ) SI_UNIT ( $, .RADIAN. ) );
#172 = MECHANICAL_DESIGN_GEOMETRIC_PRESENTATION_REPRESENTATION (  '', ( #76 ), #283 ) ;
#173 = CARTESIAN_POINT ( 'NONE',  ( 0.000000000000000000, 50.00000000000000000, 0.000000000000000000 ) ) ;
#174 =( NAMED_UNIT ( * ) SI_UNIT ( $, .STERADIAN. ) SOLID_ANGLE_UNIT ( ) );
#175 = EDGE_LOOP ( 'NONE', ( #63, #12 ) ) ;
#176 = FACE_OUTER_BOUND ( 'NONE', #9, .T. ) ;
#177 =( NAMED_UNIT ( * ) SI_UNIT ( $, .STERADIAN. ) SOLID_ANGLE_UNIT ( ) );
#178 = STYLED_ITEM ( 'NONE', ( #104 ), #163 ) ;
#179 = ORIENTED_EDGE ( 'NONE', *, *, #41, .T. ) ;
#180 = ADVANCED_FACE ( 'NONE', ( #37 ), #282, .T. ) ;
#181 = ORIENTED_EDGE ( 'NONE', *, *, #6, .F. ) ;
#182 = DIRECTION ( 'NONE',  ( 0.000000000000000000, 0.000000000000000000, -1.000000000000000000 ) ) ;
#183 = SURFACE_SIDE_STYLE ('',( #140 ) ) ;
#184 =( NAMED_UNIT ( * ) SI_UNIT ( $, .STERADIAN. ) SOLID_ANGLE_UNIT ( ) );
#185 = ADVANCED_BREP_SHAPE_REPRESENTATION ( '59494', ( #170, #163, #7 ), #231 ) ;
#186 = VECTOR ( 'NONE', #122, 1000.000000000000000 ) ;
#187 = EDGE_LOOP ( 'NONE', ( #245, #144, #286, #97 ) ) ;
#188 = FACE_OUTER_BOUND ( 'NONE', #187, .T. ) ;
#189 = EDGE_CURVE ( 'NONE', #67, #222, #280, .T. ) ;
#190 =( LENGTH_UNIT ( ) NAMED_UNIT ( * ) SI_UNIT ( .MILLI., .METRE. ) );
#191 = PRESENTATION_LAYER_ASSIGNMENT (  '', '', ( #153 ) ) ;
#192 = EDGE_CURVE ( 'NONE', #45, #116, #40, .T. ) ;
#193 = DIRECTION ( 'NONE',  ( -1.000000000000000000, 0.000000000000000000, 0.000000000000000000 ) ) ;
#194 = SURFACE_STYLE_USAGE ( .BOTH. , #148 ) ;
#195 = LINE ( 'NONE', #225, #25 ) ;
#196 = DIRECTION ( 'NONE',  ( 0.000000000000000000, 0.000000000000000000, -1.000000000000000000 ) ) ;
#197 = CIRCLE ( 'NONE', #237, 12.50000000000000000 ) ;
#198 = VERTEX_POINT ( 'NONE', #107 ) ;
#199 =( LENGTH_UNIT ( ) NAMED_UNIT ( * ) SI_UNIT ( .MILLI., .METRE. ) );
#200 = ADVANCED_FACE ( 'NONE', ( #176 ), #157, .T. ) ;
#201 =( NAMED_UNIT ( * ) PLANE_ANGLE_UNIT ( ) SI_UNIT ( $, .RADIAN. ) );
#202 = LINE ( 'NONE', #77, #53 ) ;
#203 = PRESENTATION_LAYER_ASSIGNMENT (  '', '', ( #99 ) ) ;
#204 = DIRECTION ( 'NONE',  ( -0.000000000000000000, -1.000000000000000000, -0.000000000000000000 ) ) ;
#205 = SURFACE_STYLE_USAGE ( .BOTH. , #183 ) ;
#206 = CIRCLE ( 'NONE', #243, 12.50000000000000000 ) ;
#207 = CARTESIAN_POINT ( 'NONE',  ( -12.50000000000000000, 50.00000000000000000, 0.000000000000000000 ) ) ;
#208 = CARTESIAN_POINT ( 'NONE',  ( -12.50000000000000533, 124.9999999999999858, 0.000000000000000000 ) ) ;
#209 = AXIS2_PLACEMENT_3D ( 'NONE', #214, #160, #8 ) ;
#210 = EDGE_CURVE ( 'NONE', #269, #198, #60, .T. ) ;
#211 =( LENGTH_UNIT ( ) NAMED_UNIT ( * ) SI_UNIT ( .MILLI., .METRE. ) );
#212 = LINE ( 'NONE', #236, #81 ) ;
#213 = DIRECTION ( 'NONE',  ( 0.000000000000000000, 1.000000000000000000, 0.000000000000000000 ) ) ;
#214 = CARTESIAN_POINT ( 'NONE',  ( -3.061616997868379493E-15, 124.9999999999999858, 0.000000000000000000 ) ) ;
#215 = AXIS2_PLACEMENT_3D ( 'NONE', #227, #13, #250 ) ;
#216 = DIRECTION ( 'NONE',  ( -4.082155997157840121E-17, 1.000000000000000000, -0.000000000000000000 ) ) ;
#217 = FILL_AREA_STYLE_COLOUR ( '', #4 ) ;
#218 = CARTESIAN_POINT ( 'NONE',  ( 0.000000000000000000, 0.000000000000000000, 0.000000000000000000 ) ) ;
#219 = UNCERTAINTY_MEASURE_WITH_UNIT (LENGTH_MEASURE( 1.000000000000000082E-05 ), #50, 'distance_accuracy_value', 'NONE');
#220 = EDGE_CURVE ( 'NONE', #222, #45, #195, .T. ) ;
#221 = FILL_AREA_STYLE ('',( #86 ) ) ;
#222 = VERTEX_POINT ( 'NONE', #276 ) ;
#223 = AXIS2_PLACEMENT_3D ( 'NONE', #115, #204, #134 ) ;
#224 =( NAMED_UNIT ( * ) SI_UNIT ( $, .STERADIAN. ) SOLID_ANGLE_UNIT ( ) );
#225 = CARTESIAN_POINT ( 'NONE',  ( 12.49999999999999822, 124.9999999999999858, 1.530808498934191719E-15 ) ) ;
#226 = CYLINDRICAL_SURFACE ( 'NONE', #209, 12.50000000000000178 ) ;
#227 = CARTESIAN_POINT ( 'NONE',  ( 1.041499849070732488E-32, 50.00000000000000000, 0.000000000000000000 ) ) ;
#228 = PRODUCT_DEFINITION_SHAPE ( 'NONE', 'NONE',  #167 ) ;
#229 =( GEOMETRIC_REPRESENTATION_CONTEXT ( 3 ) GLOBAL_UNCERTAINTY_ASSIGNED_CONTEXT ( ( #130 ) ) GLOBAL_UNIT_ASSIGNED_CONTEXT ( ( #235, #80, #174 ) ) REPRESENTATION_CONTEXT ( 'NONE', 'WORKASPACE' ) );
#230 = PRODUCT_CONTEXT ( 'NONE', #56, 'mechanical' ) ;
#231 =( GEOMETRIC_REPRESENTATION_CONTEXT ( 3 ) GLOBAL_UNCERTAINTY_ASSIGNED_CONTEXT ( ( #219 ) ) GLOBAL_UNIT_ASSIGNED_CONTEXT ( ( #50, #271, #11 ) ) REPRESENTATION_CONTEXT ( 'NONE', 'WORKASPACE' ) );
#232 = VERTEX_POINT ( 'NONE', #249 ) ;
#233 = FILL_AREA_STYLE ('',( #3 ) ) ;
#234 = MECHANICAL_DESIGN_GEOMETRIC_PRESENTATION_REPRESENTATION (  '', ( #153 ), #168 ) ;
#235 =( LENGTH_UNIT ( ) NAMED_UNIT ( * ) SI_UNIT ( .MILLI., .METRE. ) );
#236 = CARTESIAN_POINT ( 'NONE',  ( 0.000000000000000000, 0.000000000000000000, -12.50000000000000000 ) ) ;
#237 = AXIS2_PLACEMENT_3D ( 'NONE', #17, #111, #182 ) ;
#238 =( LENGTH_UNIT ( ) NAMED_UNIT ( * ) SI_UNIT ( .MILLI., .METRE. ) );
#239 = SURFACE_SIDE_STYLE ('',( #83 ) ) ;
#240 = EDGE_CURVE ( 'NONE', #232, #109, #260, .T. ) ;
#241 = AXIS2_PLACEMENT_3D ( 'NONE', #218, #90, #196 ) ;
#242 = UNCERTAINTY_MEASURE_WITH_UNIT (LENGTH_MEASURE( 1.000000000000000082E-05 ), #199, 'distance_accuracy_value', 'NONE');
#243 = AXIS2_PLACEMENT_3D ( 'NONE', #173, #216, #193 ) ;
#244 = EDGE_CURVE ( 'NONE', #67, #116, #72, .T. ) ;
#245 = ORIENTED_EDGE ( 'NONE', *, *, #220, .F. ) ;
#246 = SURFACE_STYLE_FILL_AREA ( #221 ) ;
#247 = AXIS2_PLACEMENT_3D ( 'NONE', #248, #49, #132 ) ;
#248 = CARTESIAN_POINT ( 'NONE',  ( 0.000000000000000000, 50.00000000000000000, 0.000000000000000000 ) ) ;
#249 = CARTESIAN_POINT ( 'NONE',  ( 1.530808498934191521E-15, 0.000000000000000000, 12.50000000000000000 ) ) ;
#250 = DIRECTION ( 'NONE',  ( -1.000000000000000000, -4.082155997157840121E-17, 0.000000000000000000 ) ) ;
#251 = CARTESIAN_POINT ( 'NONE',  ( -3.061616997868379493E-15, 124.9999999999999858, 0.000000000000000000 ) ) ;
#252 = FACE_OUTER_BOUND ( 'NONE', #137, .T. ) ;
#253 = AXIS2_PLACEMENT_3D ( 'NONE', #278, #164, #135 ) ;
#254 = CARTESIAN_POINT ( 'NONE',  ( 0.000000000000000000, 0.000000000000000000, 0.000000000000000000 ) ) ;
#255 = MECHANICAL_DESIGN_GEOMETRIC_PRESENTATION_REPRESENTATION (  '', ( #264 ), #229 ) ;
#256 = FILL_AREA_STYLE ('',( #57 ) ) ;
#257 = COLOUR_RGB ( '',1.000000000000000000, 0.000000000000000000, 0.000000000000000000 ) ;
#258 = DIRECTION ( 'NONE',  ( 0.000000000000000000, -0.000000000000000000, 1.000000000000000000 ) ) ;
#259 = FILL_AREA_STYLE ('',( #217 ) ) ;
#260 = CIRCLE ( 'NONE', #223, 12.50000000000000000 ) ;
#261 = SURFACE_STYLE_FILL_AREA ( #124 ) ;
#262 = UNCERTAINTY_MEASURE_WITH_UNIT (LENGTH_MEASURE( 1.000000000000000082E-05 ), #211, 'distance_accuracy_value', 'NONE');
#263 = SURFACE_STYLE_USAGE ( .BOTH. , #62 ) ;
#264 = STYLED_ITEM ( 'NONE', ( #84 ), #170 ) ;
#265 = AXIS2_PLACEMENT_3D ( 'NONE', #98, #213, #258 ) ;
#266 = DIRECTION ( 'NONE',  ( -1.000000000000000000, 0.000000000000000000, 0.000000000000000000 ) ) ;
#267 = EDGE_LOOP ( 'NONE', ( #75, #156 ) ) ;
#268 = DIRECTION ( 'NONE',  ( -0.000000000000000000, -1.000000000000000000, -0.000000000000000000 ) ) ;
#269 = VERTEX_POINT ( 'NONE', #136 ) ;
#270 = ADVANCED_FACE ( 'NONE', ( #28 ), #226, .T. ) ;
#271 =( NAMED_UNIT ( * ) PLANE_ANGLE_UNIT ( ) SI_UNIT ( $, .RADIAN. ) );
#272 = ORIENTED_EDGE ( 'NONE', *, *, #100, .F. ) ;
#273 = PLANE ( 'NONE',  #215 ) ;
#274 = EDGE_CURVE ( 'NONE', #116, #45, #120, .T. ) ;
#275 = COLOUR_RGB ( '',1.000000000000000000, 0.000000000000000000, 0.000000000000000000 ) ;
#276 = CARTESIAN_POINT ( 'NONE',  ( 12.50000000000000000, 50.00000000000000000, 1.530808498934191719E-15 ) ) ;
#277 = ORIENTED_EDGE ( 'NONE', *, *, #71, .T. ) ;
#278 = CARTESIAN_POINT ( 'NONE',  ( 0.000000000000000000, 50.00000000000000000, 0.000000000000000000 ) ) ;
#279 =( NAMED_UNIT ( * ) SI_UNIT ( $, .STERADIAN. ) SOLID_ANGLE_UNIT ( ) );
#280 = CIRCLE ( 'NONE', #127, 12.50000000000000000 ) ;
#281 = DIRECTION ( 'NONE',  ( 1.000000000000000000, 0.000000000000000000, 0.000000000000000000 ) ) ;
#282 = PLANE ( 'NONE',  #241 ) ;
#283 =( GEOMETRIC_REPRESENTATION_CONTEXT ( 3 ) GLOBAL_UNCERTAINTY_ASSIGNED_CONTEXT ( ( #242 ) ) GLOBAL_UNIT_ASSIGNED_CONTEXT ( ( #199, #20, #224 ) ) REPRESENTATION_CONTEXT ( 'NONE', 'WORKASPACE' ) );
#284 = PRESENTATION_STYLE_ASSIGNMENT (( #19 ) ) ;
#285 = CARTESIAN_POINT ( 'NONE',  ( -3.061616997868379493E-15, 124.9999999999999858, 0.000000000000000000 ) ) ;
#286 = ORIENTED_EDGE ( 'NONE', *, *, #244, .T. ) ;
#287 = EDGE_CURVE ( 'NONE', #109, #232, #197, .T. ) ;
#288 = ORIENTED_EDGE ( 'NONE', *, *, #189, .T. ) ;
ENDSEC;
END-ISO-10303-21;
