ISO-10303-21;
HEADER;
FILE_DESCRIPTION (( 'STEP AP214' ),
    '1' );
FILE_NAME ('Micro_MMBM-008-5X.STEP',
    '2021-09-03T16:24:58',
    ( '' ),
    ( '' ),
    'SwSTEP 2.0',
    'SolidWorks 2020',
    '' );
FILE_SCHEMA (( 'AUTOMOTIVE_DESIGN' ));
ENDSEC;

DATA;
#1 = AXIS2_PLACEMENT_3D ( 'NONE', #72, #247, #195 ) ;
#2 = ORIENTED_EDGE ( 'NONE', *, *, #119, .F. ) ;
#3 = CIRCLE ( 'NONE', #318, 0.01535450000000002438 ) ;
#4 = DIRECTION ( 'NONE',  ( 0.0000000000000000000, 0.0000000000000000000, 1.000000000000000000 ) ) ;
#5 = VERTEX_POINT ( 'NONE', #294 ) ;
#6 = CARTESIAN_POINT ( 'NONE',  ( 0.01535450000000000530, 1.904382424835063555E-18, 0.03371871826141004808 ) ) ;
#7 = ORIENTED_EDGE ( 'NONE', *, *, #350, .T. ) ;
#8 = CARTESIAN_POINT ( 'NONE',  ( 0.01574642520000000753, 1.928380921919323089E-18, 0.03149600000000000316 ) ) ;
#9 = AXIS2_PLACEMENT_3D ( 'NONE', #24, #145, #25 ) ;
#10 = FACE_BOUND ( 'NONE', #190, .T. ) ;
#11 = FACE_OUTER_BOUND ( 'NONE', #373, .T. ) ;
#12 = CARTESIAN_POINT ( 'NONE',  ( 0.0000000000000000000, 0.0000000000000000000, 0.03371871826141004808 ) ) ;
#13 = CARTESIAN_POINT ( 'NONE',  ( 0.07874000000000001831, 9.642868896486260050E-18, 1.968503999999999809 ) ) ;
#14 = ADVANCED_FACE ( 'NONE', ( #179 ), #31, .T. ) ;
#15 = DIRECTION ( 'NONE',  ( -0.0000000000000000000, -0.0000000000000000000, -1.000000000000000000 ) ) ;
#16 = CARTESIAN_POINT ( 'NONE',  ( -0.01574642520000000753, 0.0000000000000000000, 0.03149600000000000316 ) ) ;
#17 = CYLINDRICAL_SURFACE ( 'NONE', #117, 0.01535450000000001224 ) ;
#18 = EDGE_CURVE ( 'NONE', #58, #229, #235, .T. ) ;
#19 = ORIENTED_EDGE ( 'NONE', *, *, #149, .T. ) ;
#20 = EDGE_CURVE ( 'NONE', #250, #207, #108, .T. ) ;
#21 = FILL_AREA_STYLE_COLOUR ( '', #128 ) ;
#22 = DIRECTION ( 'NONE',  ( 1.000000000000000000, 0.0000000000000000000, 0.0000000000000000000 ) ) ;
#23 =( LENGTH_UNIT ( ) NAMED_UNIT ( * ) SI_UNIT ( $, .METRE. ) );
#24 = CARTESIAN_POINT ( 'NONE',  ( 0.0000000000000000000, 0.0000000000000000000, 0.0000000000000000000 ) ) ;
#25 = DIRECTION ( 'NONE',  ( 1.000000000000000000, 0.0000000000000000000, 0.0000000000000000000 ) ) ;
#26 = MECHANICAL_DESIGN_GEOMETRIC_PRESENTATION_REPRESENTATION (  '', ( #183 ), #267 ) ;
#27 = EDGE_CURVE ( 'NONE', #184, #253, #105, .T. ) ;
#28 = AXIS2_PLACEMENT_3D ( 'NONE', #164, #301, #132 ) ;
#29 = EDGE_CURVE ( 'NONE', #70, #253, #285, .T. ) ;
#30 = PRODUCT_RELATED_PRODUCT_CATEGORY ( 'part', '', ( #113 ) ) ;
#31 = CYLINDRICAL_SURFACE ( 'NONE', #348, 0.07874000000000001831 ) ;
#32 = DIRECTION ( 'NONE',  ( -1.000000000000000000, 0.0000000000000000000, 0.0000000000000000000 ) ) ;
#33 = CIRCLE ( 'NONE', #289, 0.01535450000000000530 ) ;
#34 = ORIENTED_EDGE ( 'NONE', *, *, #180, .F. ) ;
#35 = DIRECTION ( 'NONE',  ( -0.0000000000000000000, -0.0000000000000000000, -1.000000000000000000 ) ) ;
#36 = EDGE_LOOP ( 'NONE', ( #133, #90, #62, #347 ) ) ;
#37 = DIRECTION ( 'NONE',  ( -1.000000000000000000, 0.0000000000000000000, 0.0000000000000000000 ) ) ;
#38 = ORIENTED_EDGE ( 'NONE', *, *, #29, .T. ) ;
#39 = DIRECTION ( 'NONE',  ( 0.0000000000000000000, 0.0000000000000000000, -1.000000000000000000 ) ) ;
#40 = EDGE_CURVE ( 'NONE', #213, #229, #114, .T. ) ;
#41 = PLANE ( 'NONE',  #268 ) ;
#42 = PLANE ( 'NONE',  #311 ) ;
#43 = ORIENTED_EDGE ( 'NONE', *, *, #349, .T. ) ;
#44 = DIRECTION ( 'NONE',  ( -1.000000000000000000, 0.0000000000000000000, 0.0000000000000000000 ) ) ;
#45 = CARTESIAN_POINT ( 'NONE',  ( 0.0000000000000000000, 0.0000000000000000000, 0.1968500000000000250 ) ) ;
#46 = DIRECTION ( 'NONE',  ( -0.0000000000000000000, -0.0000000000000000000, -1.000000000000000000 ) ) ;
#47 = SURFACE_STYLE_FILL_AREA ( #227 ) ;
#48 =( NAMED_UNIT ( * ) SI_UNIT ( $, .STERADIAN. ) SOLID_ANGLE_UNIT ( ) );
#49 = CARTESIAN_POINT ( 'NONE',  ( 0.01535450000000002438, 1.880383927750806332E-18, 0.1968500000000000250 ) ) ;
#50 =( LENGTH_UNIT ( ) NAMED_UNIT ( * ) SI_UNIT ( $, .METRE. ) );
#51 = DIRECTION ( 'NONE',  ( -0.0000000000000000000, -0.0000000000000000000, -1.000000000000000000 ) ) ;
#52 = DIRECTION ( 'NONE',  ( -1.000000000000000000, 0.0000000000000000000, 0.0000000000000000000 ) ) ;
#53 = EDGE_CURVE ( 'NONE', #248, #70, #69, .T. ) ;
#54 = AXIS2_PLACEMENT_3D ( 'NONE', #73, #216, #137 ) ;
#55 = MANIFOLD_SOLID_BREP ( 'Cut-Revolve1', #356 ) ;
#56 = APPLICATION_CONTEXT ( 'automotive_design' ) ;
#57 = EDGE_CURVE ( 'NONE', #91, #208, #3, .T. ) ;
#58 = VERTEX_POINT ( 'NONE', #16 ) ;
#59 = ORIENTED_EDGE ( 'NONE', *, *, #57, .T. ) ;
#60 = EDGE_LOOP ( 'NONE', ( #162, #127, #7, #158 ) ) ;
#61 = VECTOR ( 'NONE', #71, 39.37007874015748143 ) ;
#62 = ORIENTED_EDGE ( 'NONE', *, *, #210, .F. ) ;
#63 = FACE_OUTER_BOUND ( 'NONE', #167, .T. ) ;
#64 = ORIENTED_EDGE ( 'NONE', *, *, #315, .F. ) ;
#65 = ORIENTED_EDGE ( 'NONE', *, *, #291, .F. ) ;
#66 = FACE_OUTER_BOUND ( 'NONE', #272, .T. ) ;
#67 = DIRECTION ( 'NONE',  ( -0.0000000000000000000, -0.0000000000000000000, -1.000000000000000000 ) ) ;
#68 = PRODUCT_DEFINITION_SHAPE ( 'NONE', 'NONE',  #379 ) ;
#69 = CIRCLE ( 'NONE', #201, 0.07874000000000001831 ) ;
#70 = VERTEX_POINT ( 'NONE', #103 ) ;
#71 = DIRECTION ( 'NONE',  ( -0.0000000000000000000, -0.0000000000000000000, -1.000000000000000000 ) ) ;
#72 = CARTESIAN_POINT ( 'NONE',  ( 0.0000000000000000000, 0.0000000000000000000, 0.0000000000000000000 ) ) ;
#73 = CARTESIAN_POINT ( 'NONE',  ( 0.0000000000000000000, 0.0000000000000000000, 0.03149600000000000316 ) ) ;
#74 = DIRECTION ( 'NONE',  ( -1.000000000000000000, 0.0000000000000000000, 0.0000000000000000000 ) ) ;
#75 = EDGE_LOOP ( 'NONE', ( #206, #297, #106, #65 ) ) ;
#76 = DIRECTION ( 'NONE',  ( 1.000000000000000000, 0.0000000000000000000, 0.0000000000000000000 ) ) ;
#77 = SURFACE_SIDE_STYLE ('',( #173 ) ) ;
#78 = AXIS2_PLACEMENT_3D ( 'NONE', #115, #51, #52 ) ;
#79 = DIRECTION ( 'NONE',  ( -0.0000000000000000000, 0.0000000000000000000, -1.000000000000000000 ) ) ;
#80 = CARTESIAN_POINT ( 'NONE',  ( 0.06374000000000018540, 7.805898697765251255E-18, 1.968503999999999809 ) ) ;
#81 = APPLICATION_CONTEXT ( 'automotive_design' ) ;
#82 = CARTESIAN_POINT ( 'NONE',  ( 0.0000000000000000000, 0.0000000000000000000, 0.1968500000000000250 ) ) ;
#83 = CARTESIAN_POINT ( 'NONE',  ( 0.0000000000000000000, 0.0000000000000000000, 0.03149600000000000316 ) ) ;
#84 = EDGE_CURVE ( 'NONE', #250, #248, #313, .T. ) ;
#85 = VECTOR ( 'NONE', #332, 39.37007874015748143 ) ;
#86 = AXIS2_PLACEMENT_3D ( 'NONE', #142, #111, #333 ) ;
#87 = PRESENTATION_STYLE_ASSIGNMENT (( #345 ) ) ;
#88 = AXIS2_PLACEMENT_3D ( 'NONE', #320, #79, #120 ) ;
#89 = EDGE_LOOP ( 'NONE', ( #192, #351 ) ) ;
#90 = ORIENTED_EDGE ( 'NONE', *, *, #315, .T. ) ;
#91 = VERTEX_POINT ( 'NONE', #49 ) ;
#92 = ORIENTED_EDGE ( 'NONE', *, *, #286, .T. ) ;
#93 = VECTOR ( 'NONE', #193, 39.37007874015748143 ) ;
#94 = CARTESIAN_POINT ( 'NONE',  ( 0.0000000000000000000, 0.0000000000000000000, 0.0000000000000000000 ) ) ;
#95 = ORIENTED_EDGE ( 'NONE', *, *, #57, .F. ) ;
#96 = EDGE_CURVE ( 'NONE', #5, #58, #168, .T. ) ;
#97 = CARTESIAN_POINT ( 'NONE',  ( -0.07874000000000001831, 0.0000000000000000000, 1.953504000000000129 ) ) ;
#98 = ADVANCED_FACE ( 'NONE', ( #110 ), #288, .T. ) ;
#99 = LINE ( 'NONE', #141, #85 ) ;
#100 = CARTESIAN_POINT ( 'NONE',  ( 0.0000000000000000000, 0.0000000000000000000, 0.0000000000000000000 ) ) ;
#101 = ADVANCED_FACE ( 'NONE', ( #11 ), #223, .T. ) ;
#102 = ORIENTED_EDGE ( 'NONE', *, *, #53, .T. ) ;
#103 = CARTESIAN_POINT ( 'NONE',  ( 0.07874000000000001831, 9.642868896486260050E-18, 1.953504000000000129 ) ) ;
#104 = DIRECTION ( 'NONE',  ( -0.0000000000000000000, -0.0000000000000000000, -1.000000000000000000 ) ) ;
#105 = CIRCLE ( 'NONE', #123, 0.07874000000000001831 ) ;
#106 = ORIENTED_EDGE ( 'NONE', *, *, #84, .T. ) ;
#107 = AXIS2_PLACEMENT_3D ( 'NONE', #372, #39, #159 ) ;
#108 = CIRCLE ( 'NONE', #182, 0.06374000000000018540 ) ;
#109 = CARTESIAN_POINT ( 'NONE',  ( 0.0000000000000000000, 0.0000000000000000000, 0.0000000000000000000 ) ) ;
#110 = FACE_OUTER_BOUND ( 'NONE', #188, .T. ) ;
#111 = DIRECTION ( 'NONE',  ( -0.0000000000000000000, -0.0000000000000000000, -1.000000000000000000 ) ) ;
#112 = ORIENTED_EDGE ( 'NONE', *, *, #204, .T. ) ;
#113 = PRODUCT ( 'Micro_MMBM-008-5X', 'Micro_MMBM-008-5X', '', ( #118 ) ) ;
#114 = LINE ( 'NONE', #230, #368 ) ;
#115 = CARTESIAN_POINT ( 'NONE',  ( 0.0000000000000000000, 0.0000000000000000000, 0.1968500000000001082 ) ) ;
#116 = DIRECTION ( 'NONE',  ( -1.000000000000000000, 0.0000000000000000000, 0.0000000000000000000 ) ) ;
#117 = AXIS2_PLACEMENT_3D ( 'NONE', #94, #104, #212 ) ;
#118 = PRODUCT_CONTEXT ( 'NONE', #56, 'mechanical' ) ;
#119 = EDGE_CURVE ( 'NONE', #208, #5, #99, .T. ) ;
#120 = DIRECTION ( 'NONE',  ( -1.000000000000000000, 0.0000000000000000000, 0.0000000000000000000 ) ) ;
#121 = DIRECTION ( 'NONE',  ( -0.0000000000000000000, -0.0000000000000000000, -1.000000000000000000 ) ) ;
#122 = APPLICATION_PROTOCOL_DEFINITION ( 'draft international standard', 'automotive_design', 1998, #81 ) ;
#123 = AXIS2_PLACEMENT_3D ( 'NONE', #130, #156, #375 ) ;
#124 = CONICAL_SURFACE ( 'NONE', #200, 0.06374000000000018540, 0.7853981633974528309 ) ;
#125 = EDGE_LOOP ( 'NONE', ( #246, #112, #330, #325 ) ) ;
#126 = CIRCLE ( 'NONE', #86, 0.01574642520000000753 ) ;
#127 = ORIENTED_EDGE ( 'NONE', *, *, #291, .T. ) ;
#128 = COLOUR_RGB ( '',0.7921568627450980005, 0.8196078431372548767, 0.9333333333333333481 ) ;
#129 = ADVANCED_FACE ( 'NONE', ( #66 ), #41, .T. ) ;
#130 = CARTESIAN_POINT ( 'NONE',  ( 0.0000000000000000000, 0.0000000000000000000, 0.1968500000000001082 ) ) ;
#131 = ORIENTED_EDGE ( 'NONE', *, *, #269, .T. ) ;
#132 = DIRECTION ( 'NONE',  ( -1.000000000000000000, 0.0000000000000000000, 0.0000000000000000000 ) ) ;
#133 = ORIENTED_EDGE ( 'NONE', *, *, #18, .T. ) ;
#134 = CIRCLE ( 'NONE', #78, 0.07874000000000001831 ) ;
#135 = DIRECTION ( 'NONE',  ( -0.0000000000000000000, -0.0000000000000000000, -1.000000000000000000 ) ) ;
#136 = FACE_OUTER_BOUND ( 'NONE', #89, .T. ) ;
#137 = DIRECTION ( 'NONE',  ( -1.000000000000000000, 0.0000000000000000000, 0.0000000000000000000 ) ) ;
#138 = DIRECTION ( 'NONE',  ( -1.000000000000000000, 0.0000000000000000000, 0.0000000000000000000 ) ) ;
#139 =( NAMED_UNIT ( * ) SI_UNIT ( $, .STERADIAN. ) SOLID_ANGLE_UNIT ( ) );
#140 = FACE_OUTER_BOUND ( 'NONE', #60, .T. ) ;
#141 = CARTESIAN_POINT ( 'NONE',  ( -0.01535450000000001224, 0.0000000000000000000, 0.0000000000000000000 ) ) ;
#142 = CARTESIAN_POINT ( 'NONE',  ( 0.0000000000000000000, 0.0000000000000000000, 0.0000000000000000000 ) ) ;
#143 = ORIENTED_EDGE ( 'NONE', *, *, #226, .T. ) ;
#144 = CARTESIAN_POINT ( 'NONE',  ( 0.01535450000000001224, 1.880383927750805176E-18, 0.0000000000000000000 ) ) ;
#145 = DIRECTION ( 'NONE',  ( 0.0000000000000000000, 0.0000000000000000000, 1.000000000000000000 ) ) ;
#146 = AXIS2_PLACEMENT_3D ( 'NONE', #83, #287, #116 ) ;
#147 = DIRECTION ( 'NONE',  ( 0.0000000000000000000, 0.0000000000000000000, 1.000000000000000000 ) ) ;
#148 = DIRECTION ( 'NONE',  ( -1.000000000000000000, 0.0000000000000000000, 0.0000000000000000000 ) ) ;
#149 = EDGE_CURVE ( 'NONE', #91, #213, #196, .T. ) ;
#150 = VECTOR ( 'NONE', #166, 39.37007874015748143 ) ;
#151 = CIRCLE ( 'NONE', #28, 0.01535450000000000530 ) ;
#152 = ADVANCED_FACE ( 'NONE', ( #176 ), #292, .T. ) ;
#153 = ORIENTED_EDGE ( 'NONE', *, *, #269, .F. ) ;
#154 = CARTESIAN_POINT ( 'NONE',  ( 0.0000000000000000000, 0.0000000000000000000, 1.968503999999999809 ) ) ;
#155 = VECTOR ( 'NONE', #46, 39.37007874015748143 ) ;
#156 = DIRECTION ( 'NONE',  ( -0.0000000000000000000, -0.0000000000000000000, -1.000000000000000000 ) ) ;
#157 = FACE_OUTER_BOUND ( 'NONE', #125, .T. ) ;
#158 = ORIENTED_EDGE ( 'NONE', *, *, #369, .F. ) ;
#159 = DIRECTION ( 'NONE',  ( 1.000000000000000000, 0.0000000000000000000, 0.0000000000000000000 ) ) ;
#160 = ORIENTED_EDGE ( 'NONE', *, *, #96, .T. ) ;
#161 = DIRECTION ( 'NONE',  ( 0.0000000000000000000, 0.0000000000000000000, -1.000000000000000000 ) ) ;
#162 = ORIENTED_EDGE ( 'NONE', *, *, #29, .F. ) ;
#163 = CARTESIAN_POINT ( 'NONE',  ( 0.0000000000000000000, 0.0000000000000000000, 1.968503999999999809 ) ) ;
#164 = CARTESIAN_POINT ( 'NONE',  ( 0.0000000000000000000, 0.0000000000000000000, 0.03371871826141004808 ) ) ;
#165 = DIRECTION ( 'NONE',  ( -0.0000000000000000000, -0.0000000000000000000, -1.000000000000000000 ) ) ;
#166 = DIRECTION ( 'NONE',  ( 0.7071067811865507924, 8.659560562354973534E-17, -0.7071067811865443531 ) ) ;
#167 = EDGE_LOOP ( 'NONE', ( #131, #19, #363, #2 ) ) ;
#168 = LINE ( 'NONE', #336, #309 ) ;
#169 = LINE ( 'NONE', #378, #293 ) ;
#170 = DIRECTION ( 'NONE',  ( -0.0000000000000000000, -0.0000000000000000000, -1.000000000000000000 ) ) ;
#171 = UNCERTAINTY_MEASURE_WITH_UNIT (LENGTH_MEASURE( 1.000000000000000082E-05 ), #344, 'distance_accuracy_value', 'NONE');
#172 =( CONVERSION_BASED_UNIT ( 'INCH', #283 ) LENGTH_UNIT ( ) NAMED_UNIT ( #178 ) );
#173 = SURFACE_STYLE_FILL_AREA ( #343 ) ;
#174 =( CONVERSION_BASED_UNIT ( 'INCH', #231 ) LENGTH_UNIT ( ) NAMED_UNIT ( #187 ) );
#175 = SHAPE_DEFINITION_REPRESENTATION ( #68, #374 ) ;
#176 = FACE_OUTER_BOUND ( 'NONE', #306, .T. ) ;
#177 = AXIS2_PLACEMENT_3D ( 'NONE', #273, #161, #249 ) ;
#178 = DIMENSIONAL_EXPONENTS ( 1.000000000000000000, 0.0000000000000000000, 0.0000000000000000000, 0.0000000000000000000, 0.0000000000000000000, 0.0000000000000000000, 0.0000000000000000000 ) ;
#179 = FACE_OUTER_BOUND ( 'NONE', #322, .T. ) ;
#180 = EDGE_CURVE ( 'NONE', #185, #215, #371, .T. ) ;
#181 = ORIENTED_EDGE ( 'NONE', *, *, #119, .T. ) ;
#182 = AXIS2_PLACEMENT_3D ( 'NONE', #154, #4, #352 ) ;
#183 = STYLED_ITEM ( 'NONE', ( #87 ), #374 ) ;
#184 = VERTEX_POINT ( 'NONE', #225 ) ;
#185 = VERTEX_POINT ( 'NONE', #275 ) ;
#186 = DIRECTION ( 'NONE',  ( 0.0000000000000000000, 0.0000000000000000000, 1.000000000000000000 ) ) ;
#187 = DIMENSIONAL_EXPONENTS ( 1.000000000000000000, 0.0000000000000000000, 0.0000000000000000000, 0.0000000000000000000, 0.0000000000000000000, 0.0000000000000000000, 0.0000000000000000000 ) ;
#188 = EDGE_LOOP ( 'NONE', ( #242, #92, #160, #239 ) ) ;
#189 = DIRECTION ( 'NONE',  ( -0.0000000000000000000, -0.0000000000000000000, -1.000000000000000000 ) ) ;
#190 = EDGE_LOOP ( 'NONE', ( #153, #95 ) ) ;
#191 = CARTESIAN_POINT ( 'NONE',  ( -0.01574642520000000753, 0.0000000000000000000, 0.0000000000000000000 ) ) ;
#192 = ORIENTED_EDGE ( 'NONE', *, *, #27, .T. ) ;
#193 = DIRECTION ( 'NONE',  ( -0.7071067811865507924, 0.0000000000000000000, -0.7071067811865443531 ) ) ;
#194 = ADVANCED_FACE ( 'NONE', ( #10, #136 ), #360, .T. ) ;
#195 = DIRECTION ( 'NONE',  ( -1.000000000000000000, 0.0000000000000000000, 0.0000000000000000000 ) ) ;
#196 = LINE ( 'NONE', #144, #155 ) ;
#197 = CARTESIAN_POINT ( 'NONE',  ( 0.06374000000000018540, 8.724383797125754882E-18, 1.968503999999999809 ) ) ;
#198 = ORIENTED_EDGE ( 'NONE', *, *, #20, .T. ) ;
#199 = DIRECTION ( 'NONE',  ( 0.0000000000000000000, 0.0000000000000000000, -1.000000000000000000 ) ) ;
#200 = AXIS2_PLACEMENT_3D ( 'NONE', #228, #354, #138 ) ;
#201 = AXIS2_PLACEMENT_3D ( 'NONE', #370, #199, #76 ) ;
#202 = CIRCLE ( 'NONE', #303, 0.01535450000000002438 ) ;
#203 = AXIS2_PLACEMENT_3D ( 'NONE', #262, #121, #148 ) ;
#204 = EDGE_CURVE ( 'NONE', #207, #70, #317, .T. ) ;
#205 = VECTOR ( 'NONE', #135, 39.37007874015748143 ) ;
#206 = ORIENTED_EDGE ( 'NONE', *, *, #204, .F. ) ;
#207 = VERTEX_POINT ( 'NONE', #197 ) ;
#208 = VERTEX_POINT ( 'NONE', #308 ) ;
#209 = CONICAL_SURFACE ( 'NONE', #177, 0.06374000000000018540, 0.7853981633974528309 ) ;
#210 = EDGE_CURVE ( 'NONE', #215, #185, #126, .T. ) ;
#211 = ORIENTED_EDGE ( 'NONE', *, *, #18, .F. ) ;
#212 = DIRECTION ( 'NONE',  ( -1.000000000000000000, 0.0000000000000000000, 0.0000000000000000000 ) ) ;
#213 = VERTEX_POINT ( 'NONE', #6 ) ;
#214 = FACE_OUTER_BOUND ( 'NONE', #75, .T. ) ;
#215 = VERTEX_POINT ( 'NONE', #191 ) ;
#216 = DIRECTION ( 'NONE',  ( -0.0000000000000000000, -0.0000000000000000000, -1.000000000000000000 ) ) ;
#217 = CYLINDRICAL_SURFACE ( 'NONE', #221, 0.07874000000000001831 ) ;
#218 = ORIENTED_EDGE ( 'NONE', *, *, #40, .T. ) ;
#219 = ADVANCED_FACE ( 'NONE', ( #214 ), #124, .T. ) ;
#220 = CARTESIAN_POINT ( 'NONE',  ( -0.06374000000000018540, 0.0000000000000000000, 1.968503999999999809 ) ) ;
#221 = AXIS2_PLACEMENT_3D ( 'NONE', #257, #189, #37 ) ;
#222 = FACE_OUTER_BOUND ( 'NONE', #36, .T. ) ;
#223 = CONICAL_SURFACE ( 'NONE', #54, 0.01574642520000000753, 0.1745329251994333919 ) ;
#224 = EDGE_CURVE ( 'NONE', #5, #213, #33, .T. ) ;
#225 = CARTESIAN_POINT ( 'NONE',  ( -0.07874000000000001831, 0.0000000000000000000, 0.1968500000000001082 ) ) ;
#226 = EDGE_CURVE ( 'NONE', #58, #215, #340, .T. ) ;
#227 = FILL_AREA_STYLE ('',( #21 ) ) ;
#228 = CARTESIAN_POINT ( 'NONE',  ( 0.0000000000000000000, 0.0000000000000000000, 1.968503999999999809 ) ) ;
#229 = VERTEX_POINT ( 'NONE', #8 ) ;
#230 = CARTESIAN_POINT ( 'NONE',  ( 0.01574642520000000753, 1.928380921919323089E-18, 0.03149600000000000316 ) ) ;
#231 = LENGTH_MEASURE_WITH_UNIT ( LENGTH_MEASURE( 0.02539999999999999897 ), #260 );
#232 = DIRECTION ( 'NONE',  ( -1.000000000000000000, 0.0000000000000000000, 0.0000000000000000000 ) ) ;
#233 =( NAMED_UNIT ( * ) PLANE_ANGLE_UNIT ( ) SI_UNIT ( $, .RADIAN. ) );
#234 = PRODUCT_DEFINITION_FORMATION_WITH_SPECIFIED_SOURCE ( 'ANY', '', #113, .NOT_KNOWN. ) ;
#235 = CIRCLE ( 'NONE', #290, 0.01574642520000000753 ) ;
#236 = LENGTH_MEASURE_WITH_UNIT ( LENGTH_MEASURE( 0.02539999999999999897 ), #50 );
#237 = ADVANCED_FACE ( 'NONE', ( #63 ), #271, .T. ) ;
#238 = ADVANCED_FACE ( 'NONE', ( #329 ), #42, .F. ) ;
#239 = ORIENTED_EDGE ( 'NONE', *, *, #349, .F. ) ;
#240 = ADVANCED_FACE ( 'NONE', ( #140 ), #217, .T. ) ;
#241 = DIRECTION ( 'NONE',  ( -0.0000000000000000000, -0.0000000000000000000, -1.000000000000000000 ) ) ;
#242 = ORIENTED_EDGE ( 'NONE', *, *, #40, .F. ) ;
#243 = DIRECTION ( 'NONE',  ( -0.0000000000000000000, -0.0000000000000000000, -1.000000000000000000 ) ) ;
#244 = CARTESIAN_POINT ( 'NONE',  ( 0.01574642520000000753, 1.928380921919323089E-18, 0.0000000000000000000 ) ) ;
#245 = CIRCLE ( 'NONE', #107, 0.07874000000000001831 ) ;
#246 = ORIENTED_EDGE ( 'NONE', *, *, #359, .F. ) ;
#247 = DIRECTION ( 'NONE',  ( -0.0000000000000000000, -0.0000000000000000000, -1.000000000000000000 ) ) ;
#248 = VERTEX_POINT ( 'NONE', #97 ) ;
#249 = DIRECTION ( 'NONE',  ( -1.000000000000000000, 0.0000000000000000000, 0.0000000000000000000 ) ) ;
#250 = VERTEX_POINT ( 'NONE', #331 ) ;
#251 = SURFACE_STYLE_USAGE ( .BOTH. , #280 ) ;
#252 = LINE ( 'NONE', #244, #205 ) ;
#253 = VERTEX_POINT ( 'NONE', #299 ) ;
#254 = UNCERTAINTY_MEASURE_WITH_UNIT (LENGTH_MEASURE( 1.000000000000000082E-05 ), #174, 'distance_accuracy_value', 'NONE');
#255 = DIRECTION ( 'NONE',  ( 1.000000000000000000, 0.0000000000000000000, -0.0000000000000000000 ) ) ;
#256 = CIRCLE ( 'NONE', #355, 0.06374000000000018540 ) ;
#257 = CARTESIAN_POINT ( 'NONE',  ( 0.0000000000000000000, 0.0000000000000000000, 1.968503999999999809 ) ) ;
#258 = ORIENTED_EDGE ( 'NONE', *, *, #210, .T. ) ;
#259 = AXIS2_PLACEMENT_3D ( 'NONE', #109, #170, #232 ) ;
#260 =( LENGTH_UNIT ( ) NAMED_UNIT ( * ) SI_UNIT ( $, .METRE. ) );
#261 =( NAMED_UNIT ( * ) PLANE_ANGLE_UNIT ( ) SI_UNIT ( $, .RADIAN. ) );
#262 = CARTESIAN_POINT ( 'NONE',  ( 0.0000000000000000000, 0.0000000000000000000, 0.0000000000000000000 ) ) ;
#263 = UNCERTAINTY_MEASURE_WITH_UNIT (LENGTH_MEASURE( 1.000000000000000082E-05 ), #172, 'distance_accuracy_value', 'NONE');
#264 = PRESENTATION_LAYER_ASSIGNMENT (  '', '', ( #326 ) ) ;
#265 = DIMENSIONAL_EXPONENTS ( 1.000000000000000000, 0.0000000000000000000, 0.0000000000000000000, 0.0000000000000000000, 0.0000000000000000000, 0.0000000000000000000, 0.0000000000000000000 ) ;
#266 = CARTESIAN_POINT ( 'NONE',  ( 0.0000000000000000000, 0.0000000000000000000, 1.968503999999999809 ) ) ;
#267 =( GEOMETRIC_REPRESENTATION_CONTEXT ( 3 ) GLOBAL_UNCERTAINTY_ASSIGNED_CONTEXT ( ( #171 ) ) GLOBAL_UNIT_ASSIGNED_CONTEXT ( ( #344, #312, #48 ) ) REPRESENTATION_CONTEXT ( 'NONE', 'WORKASPACE' ) );
#268 = AXIS2_PLACEMENT_3D ( 'NONE', #163, #365, #255 ) ;
#269 = EDGE_CURVE ( 'NONE', #208, #91, #202, .T. ) ;
#270 = CARTESIAN_POINT ( 'NONE',  ( 0.0000000000000000000, 0.0000000000000000000, 0.03149600000000000316 ) ) ;
#271 = CYLINDRICAL_SURFACE ( 'NONE', #274, 0.01535450000000001224 ) ;
#272 = EDGE_LOOP ( 'NONE', ( #198, #334 ) ) ;
#273 = CARTESIAN_POINT ( 'NONE',  ( 0.0000000000000000000, 0.0000000000000000000, 1.968503999999999809 ) ) ;
#274 = AXIS2_PLACEMENT_3D ( 'NONE', #100, #305, #74 ) ;
#275 = CARTESIAN_POINT ( 'NONE',  ( 0.01574642520000000753, 1.928380921919323089E-18, 0.0000000000000000000 ) ) ;
#276 = EDGE_LOOP ( 'NONE', ( #258, #367 ) ) ;
#277 = DIRECTION ( 'NONE',  ( 1.000000000000000000, 0.0000000000000000000, -0.0000000000000000000 ) ) ;
#278 = EDGE_LOOP ( 'NONE', ( #328, #59, #181, #357 ) ) ;
#279 = DIRECTION ( 'NONE',  ( -1.000000000000000000, 0.0000000000000000000, 0.0000000000000000000 ) ) ;
#280 = SURFACE_SIDE_STYLE ('',( #47 ) ) ;
#281 = DIRECTION ( 'NONE',  ( -1.000000000000000000, 0.0000000000000000000, 0.0000000000000000000 ) ) ;
#282 =( GEOMETRIC_REPRESENTATION_CONTEXT ( 3 ) GLOBAL_UNCERTAINTY_ASSIGNED_CONTEXT ( ( #263 ) ) GLOBAL_UNIT_ASSIGNED_CONTEXT ( ( #172, #261, #139 ) ) REPRESENTATION_CONTEXT ( 'NONE', 'WORKASPACE' ) );
#283 = LENGTH_MEASURE_WITH_UNIT ( LENGTH_MEASURE( 0.02539999999999999897 ), #23 );
#284 = CARTESIAN_POINT ( 'NONE',  ( 0.0000000000000000000, 0.0000000000000000000, 1.968503999999999809 ) ) ;
#285 = LINE ( 'NONE', #13, #61 ) ;
#286 = EDGE_CURVE ( 'NONE', #213, #5, #151, .T. ) ;
#287 = DIRECTION ( 'NONE',  ( -0.0000000000000000000, -0.0000000000000000000, -1.000000000000000000 ) ) ;
#288 = CONICAL_SURFACE ( 'NONE', #319, 0.01574642520000000753, 0.1745329251994333919 ) ;
#289 = AXIS2_PLACEMENT_3D ( 'NONE', #12, #67, #279 ) ;
#290 = AXIS2_PLACEMENT_3D ( 'NONE', #270, #243, #32 ) ;
#291 = EDGE_CURVE ( 'NONE', #70, #248, #245, .T. ) ;
#292 = CYLINDRICAL_SURFACE ( 'NONE', #203, 0.01574642520000000753 ) ;
#293 = VECTOR ( 'NONE', #376, 39.37007874015748143 ) ;
#294 = CARTESIAN_POINT ( 'NONE',  ( -0.01535450000000000530, 0.0000000000000000000, 0.03371871826141004808 ) ) ;
#295 = DIRECTION ( 'NONE',  ( -1.000000000000000000, 0.0000000000000000000, 0.0000000000000000000 ) ) ;
#296 = CIRCLE ( 'NONE', #146, 0.01574642520000000753 ) ;
#297 = ORIENTED_EDGE ( 'NONE', *, *, #20, .F. ) ;
#298 = ORIENTED_EDGE ( 'NONE', *, *, #224, .T. ) ;
#299 = CARTESIAN_POINT ( 'NONE',  ( 0.07874000000000001831, 9.642868896486260050E-18, 0.1968500000000001082 ) ) ;
#300 = ORIENTED_EDGE ( 'NONE', *, *, #96, .F. ) ;
#301 = DIRECTION ( 'NONE',  ( -0.0000000000000000000, -0.0000000000000000000, -1.000000000000000000 ) ) ;
#302 = ADVANCED_FACE ( 'NONE', ( #157 ), #209, .T. ) ;
#303 = AXIS2_PLACEMENT_3D ( 'NONE', #45, #35, #281 ) ;
#304 = DIRECTION ( 'NONE',  ( -1.000000000000000000, 0.0000000000000000000, 0.0000000000000000000 ) ) ;
#305 = DIRECTION ( 'NONE',  ( -0.0000000000000000000, -0.0000000000000000000, -1.000000000000000000 ) ) ;
#306 = EDGE_LOOP ( 'NONE', ( #64, #43, #143, #34 ) ) ;
#307 = DIRECTION ( 'NONE',  ( -0.1736481776669307475, 0.0000000000000000000, -0.9848077530122077983 ) ) ;
#308 = CARTESIAN_POINT ( 'NONE',  ( -0.01535450000000002438, 0.0000000000000000000, 0.1968500000000000250 ) ) ;
#309 = VECTOR ( 'NONE', #307, 39.37007874015748854 ) ;
#310 = DIRECTION ( 'NONE',  ( -0.0000000000000000000, -0.0000000000000000000, -1.000000000000000000 ) ) ;
#311 = AXIS2_PLACEMENT_3D ( 'NONE', #358, #186, #277 ) ;
#312 =( NAMED_UNIT ( * ) PLANE_ANGLE_UNIT ( ) SI_UNIT ( $, .RADIAN. ) );
#313 = LINE ( 'NONE', #220, #93 ) ;
#314 = FILL_AREA_STYLE_COLOUR ( '', #342 ) ;
#315 = EDGE_CURVE ( 'NONE', #229, #185, #252, .T. ) ;
#316 =( NAMED_UNIT ( * ) SI_UNIT ( $, .STERADIAN. ) SOLID_ANGLE_UNIT ( ) );
#317 = LINE ( 'NONE', #80, #150 ) ;
#318 = AXIS2_PLACEMENT_3D ( 'NONE', #82, #165, #304 ) ;
#319 = AXIS2_PLACEMENT_3D ( 'NONE', #361, #310, #44 ) ;
#320 = CARTESIAN_POINT ( 'NONE',  ( 0.01535450000000002438, 0.0000000000000000000, 0.1968500000000000250 ) ) ;
#321 = VECTOR ( 'NONE', #15, 39.37007874015748143 ) ;
#322 = EDGE_LOOP ( 'NONE', ( #102, #38, #353, #323 ) ) ;
#323 = ORIENTED_EDGE ( 'NONE', *, *, #350, .F. ) ;
#324 = ADVANCED_FACE ( 'NONE', ( #366 ), #17, .T. ) ;
#325 = ORIENTED_EDGE ( 'NONE', *, *, #84, .F. ) ;
#326 = STYLED_ITEM ( 'NONE', ( #339 ), #55 ) ;
#327 = PRESENTATION_LAYER_ASSIGNMENT (  '', '', ( #183 ) ) ;
#328 = ORIENTED_EDGE ( 'NONE', *, *, #149, .F. ) ;
#329 = FACE_OUTER_BOUND ( 'NONE', #276, .T. ) ;
#330 = ORIENTED_EDGE ( 'NONE', *, *, #53, .F. ) ;
#331 = CARTESIAN_POINT ( 'NONE',  ( -0.06374000000000018540, 0.0000000000000000000, 1.968503999999999809 ) ) ;
#332 = DIRECTION ( 'NONE',  ( -0.0000000000000000000, -0.0000000000000000000, -1.000000000000000000 ) ) ;
#333 = DIRECTION ( 'NONE',  ( -1.000000000000000000, 0.0000000000000000000, 0.0000000000000000000 ) ) ;
#334 = ORIENTED_EDGE ( 'NONE', *, *, #359, .T. ) ;
#335 = ADVANCED_FACE ( 'NONE', ( #222 ), #338, .T. ) ;
#336 = CARTESIAN_POINT ( 'NONE',  ( -0.01574642520000000753, 0.0000000000000000000, 0.03149600000000000316 ) ) ;
#337 = MECHANICAL_DESIGN_GEOMETRIC_PRESENTATION_REPRESENTATION (  '', ( #326 ), #282 ) ;
#338 = CYLINDRICAL_SURFACE ( 'NONE', #1, 0.01574642520000000753 ) ;
#339 = PRESENTATION_STYLE_ASSIGNMENT (( #251 ) ) ;
#340 = LINE ( 'NONE', #362, #321 ) ;
#341 = DIRECTION ( 'NONE',  ( 0.1736481776669307475, 2.126576849575776537E-17, -0.9848077530122077983 ) ) ;
#342 = COLOUR_RGB ( '',0.7921568627450980005, 0.8196078431372548767, 0.9333333333333333481 ) ;
#343 = FILL_AREA_STYLE ('',( #314 ) ) ;
#344 =( CONVERSION_BASED_UNIT ( 'INCH', #236 ) LENGTH_UNIT ( ) NAMED_UNIT ( #265 ) );
#345 = SURFACE_STYLE_USAGE ( .BOTH. , #77 ) ;
#346 =( GEOMETRIC_REPRESENTATION_CONTEXT ( 3 ) GLOBAL_UNCERTAINTY_ASSIGNED_CONTEXT ( ( #254 ) ) GLOBAL_UNIT_ASSIGNED_CONTEXT ( ( #174, #233, #316 ) ) REPRESENTATION_CONTEXT ( 'NONE', 'WORKASPACE' ) );
#347 = ORIENTED_EDGE ( 'NONE', *, *, #226, .F. ) ;
#348 = AXIS2_PLACEMENT_3D ( 'NONE', #266, #241, #295 ) ;
#349 = EDGE_CURVE ( 'NONE', #229, #58, #296, .T. ) ;
#350 = EDGE_CURVE ( 'NONE', #248, #184, #169, .T. ) ;
#351 = ORIENTED_EDGE ( 'NONE', *, *, #369, .T. ) ;
#352 = DIRECTION ( 'NONE',  ( 1.000000000000000000, 0.0000000000000000000, 0.0000000000000000000 ) ) ;
#353 = ORIENTED_EDGE ( 'NONE', *, *, #27, .F. ) ;
#354 = DIRECTION ( 'NONE',  ( 0.0000000000000000000, 0.0000000000000000000, -1.000000000000000000 ) ) ;
#355 = AXIS2_PLACEMENT_3D ( 'NONE', #284, #147, #22 ) ;
#356 = CLOSED_SHELL ( 'NONE', ( #335, #237, #101, #302, #14, #240, #129, #219, #194, #98, #324, #152, #238 ) ) ;
#357 = ORIENTED_EDGE ( 'NONE', *, *, #286, .F. ) ;
#358 = CARTESIAN_POINT ( 'NONE',  ( 0.0000000000000000000, 0.0000000000000000000, 0.0000000000000000000 ) ) ;
#359 = EDGE_CURVE ( 'NONE', #207, #250, #256, .T. ) ;
#360 = PLANE ( 'NONE',  #88 ) ;
#361 = CARTESIAN_POINT ( 'NONE',  ( 0.0000000000000000000, 0.0000000000000000000, 0.03149600000000000316 ) ) ;
#362 = CARTESIAN_POINT ( 'NONE',  ( -0.01574642520000000753, 0.0000000000000000000, 0.0000000000000000000 ) ) ;
#363 = ORIENTED_EDGE ( 'NONE', *, *, #224, .F. ) ;
#364 = PRODUCT_DEFINITION_CONTEXT ( 'detailed design', #81, 'design' ) ;
#365 = DIRECTION ( 'NONE',  ( 0.0000000000000000000, 0.0000000000000000000, 1.000000000000000000 ) ) ;
#366 = FACE_OUTER_BOUND ( 'NONE', #278, .T. ) ;
#367 = ORIENTED_EDGE ( 'NONE', *, *, #180, .T. ) ;
#368 = VECTOR ( 'NONE', #341, 39.37007874015748854 ) ;
#369 = EDGE_CURVE ( 'NONE', #253, #184, #134, .T. ) ;
#370 = CARTESIAN_POINT ( 'NONE',  ( 0.0000000000000000000, 0.0000000000000000000, 1.953504000000000129 ) ) ;
#371 = CIRCLE ( 'NONE', #259, 0.01574642520000000753 ) ;
#372 = CARTESIAN_POINT ( 'NONE',  ( 0.0000000000000000000, 0.0000000000000000000, 1.953504000000000129 ) ) ;
#373 = EDGE_LOOP ( 'NONE', ( #298, #218, #211, #300 ) ) ;
#374 = ADVANCED_BREP_SHAPE_REPRESENTATION ( 'Micro_MMBM-008-5X', ( #55, #9 ), #346 ) ;
#375 = DIRECTION ( 'NONE',  ( -1.000000000000000000, 0.0000000000000000000, 0.0000000000000000000 ) ) ;
#376 = DIRECTION ( 'NONE',  ( -0.0000000000000000000, -0.0000000000000000000, -1.000000000000000000 ) ) ;
#377 = APPLICATION_PROTOCOL_DEFINITION ( 'draft international standard', 'automotive_design', 1998, #56 ) ;
#378 = CARTESIAN_POINT ( 'NONE',  ( -0.07874000000000001831, 0.0000000000000000000, 1.968503999999999809 ) ) ;
#379 = PRODUCT_DEFINITION ( 'UNKNOWN', '', #234, #364 ) ;
ENDSEC;
END-ISO-10303-21;
