ISO-10303-21;
HEADER;
FILE_DESCRIPTION (( 'STEP AP214' ),
    '1' );
FILE_NAME ('83854.STEP',
    '2023-07-05T16:20:26',
    ( '' ),
    ( '' ),
    'SwSTEP 2.0',
    'SolidWorks 2023',
    '' );
FILE_SCHEMA (( 'AUTOMOTIVE_DESIGN' ));
ENDSEC;

DATA;
#1 =( NAMED_UNIT ( * ) PLANE_ANGLE_UNIT ( ) SI_UNIT ( $, .RADIAN. ) );
#2 = SURFACE_STYLE_FILL_AREA ( #156 ) ;
#3 = EDGE_CURVE ( 'NONE', #255, #12, #153, .T. ) ;
#4 = DIRECTION ( 'NONE',  ( 6.296165443231977236E-18, 1.000000000000000000, 0.000000000000000000 ) ) ;
#5 = DIRECTION ( 'NONE',  ( 1.000000000000000000, 1.216062324813796344E-16, 0.000000000000000000 ) ) ;
#6 = MANIFOLD_SOLID_BREP ( 'Revolve - Cutting Edge', #226 ) ;
#7 = UNCERTAINTY_MEASURE_WITH_UNIT (LENGTH_MEASURE( 1.000000000000000082E-05 ), #97, 'distance_accuracy_value', 'NONE');
#8 =( GEOMETRIC_REPRESENTATION_CONTEXT ( 3 ) GLOBAL_UNCERTAINTY_ASSIGNED_CONTEXT ( ( #45 ) ) GLOBAL_UNIT_ASSIGNED_CONTEXT ( ( #141, #32, #143 ) ) REPRESENTATION_CONTEXT ( 'NONE', 'WORKASPACE' ) );
#9 = FILL_AREA_STYLE ('',( #180 ) ) ;
#10 = ORIENTED_EDGE ( 'NONE', *, *, #147, .T. ) ;
#11 = DIRECTION ( 'NONE',  ( 1.000000000000000000, 0.000000000000000000, 0.000000000000000000 ) ) ;
#12 = VERTEX_POINT ( 'NONE', #164 ) ;
#13 =( GEOMETRIC_REPRESENTATION_CONTEXT ( 3 ) GLOBAL_UNCERTAINTY_ASSIGNED_CONTEXT ( ( #25 ) ) GLOBAL_UNIT_ASSIGNED_CONTEXT ( ( #98, #250, #105 ) ) REPRESENTATION_CONTEXT ( 'NONE', 'WORKASPACE' ) );
#14 = DIRECTION ( 'NONE',  ( 6.296165443231977236E-18, 1.000000000000000000, 0.000000000000000000 ) ) ;
#15 = AXIS2_PLACEMENT_3D ( 'NONE', #75, #51, #5 ) ;
#16 = FILL_AREA_STYLE_COLOUR ( '', #254 ) ;
#17 = ORIENTED_EDGE ( 'NONE', *, *, #58, .F. ) ;
#18 = EDGE_CURVE ( 'NONE', #12, #255, #241, .T. ) ;
#19 = CARTESIAN_POINT ( 'NONE',  ( 2.731847993664263711E-16, 0.2499999999999992506, 0.000000000000000000 ) ) ;
#20 =( LENGTH_UNIT ( ) NAMED_UNIT ( * ) SI_UNIT ( $, .METRE. ) );
#21 = FACE_OUTER_BOUND ( 'NONE', #60, .T. ) ;
#22 = AXIS2_PLACEMENT_3D ( 'NONE', #56, #125, #139 ) ;
#23 = CLOSED_SHELL ( 'NONE', ( #120, #230, #260, #148 ) ) ;
#24 =( GEOMETRIC_REPRESENTATION_CONTEXT ( 3 ) GLOBAL_UNCERTAINTY_ASSIGNED_CONTEXT ( ( #7 ) ) GLOBAL_UNIT_ASSIGNED_CONTEXT ( ( #97, #1, #227 ) ) REPRESENTATION_CONTEXT ( 'NONE', 'WORKASPACE' ) );
#25 = UNCERTAINTY_MEASURE_WITH_UNIT (LENGTH_MEASURE( 1.000000000000000082E-05 ), #98, 'distance_accuracy_value', 'NONE');
#26 = EDGE_CURVE ( 'NONE', #54, #255, #197, .T. ) ;
#27 = CONICAL_SURFACE ( 'NONE', #65, 39.37007874015762354, 0.7853981633974500554 ) ;
#28 = SURFACE_SIDE_STYLE ('',( #2 ) ) ;
#29 = SURFACE_STYLE_USAGE ( .BOTH. , #228 ) ;
#30 = LENGTH_MEASURE_WITH_UNIT ( LENGTH_MEASURE( 0.02539999999999999897 ), #160 );
#31 =( LENGTH_UNIT ( ) NAMED_UNIT ( * ) SI_UNIT ( $, .METRE. ) );
#32 =( NAMED_UNIT ( * ) PLANE_ANGLE_UNIT ( ) SI_UNIT ( $, .RADIAN. ) );
#33 = CARTESIAN_POINT ( 'NONE',  ( 0.2499999999999999722, 0.2499999999999991118, 3.061616997868383018E-17 ) ) ;
#34 = EDGE_CURVE ( 'NONE', #79, #234, #150, .T. ) ;
#35 = ORIENTED_EDGE ( 'NONE', *, *, #73, .T. ) ;
#36 = FILL_AREA_STYLE ('',( #16 ) ) ;
#37 = STYLED_ITEM ( 'NONE', ( #238 ), #107 ) ;
#38 = MECHANICAL_DESIGN_GEOMETRIC_PRESENTATION_REPRESENTATION (  '', ( #77 ), #24 ) ;
#39 = VERTEX_POINT ( 'NONE', #169 ) ;
#40 = DIRECTION ( 'NONE',  ( -1.216062324813796344E-16, 1.000000000000000000, -0.000000000000000000 ) ) ;
#41 = CARTESIAN_POINT ( 'NONE',  ( -0.2499999999999994171, 0.2499999999999992228, 0.000000000000000000 ) ) ;
#42 = DIRECTION ( 'NONE',  ( -1.216062324813796344E-16, 1.000000000000000000, -0.000000000000000000 ) ) ;
#43 = APPLICATION_PROTOCOL_DEFINITION ( 'draft international standard', 'automotive_design', 1998, #252 ) ;
#44 = DIRECTION ( 'NONE',  ( -1.000000000000000000, 0.000000000000000000, 0.000000000000000000 ) ) ;
#45 = UNCERTAINTY_MEASURE_WITH_UNIT (LENGTH_MEASURE( 1.000000000000000082E-05 ), #141, 'distance_accuracy_value', 'NONE');
#46 = DIRECTION ( 'NONE',  ( -1.216062324813796344E-16, 1.000000000000000000, -0.000000000000000000 ) ) ;
#47 =( LENGTH_UNIT ( ) NAMED_UNIT ( * ) SI_UNIT ( $, .METRE. ) );
#48 = CIRCLE ( 'NONE', #223, 0.2499999999999996947 ) ;
#49 = DIRECTION ( 'NONE',  ( -1.216062324813796344E-16, 1.000000000000000000, -0.000000000000000000 ) ) ;
#50 = FACE_OUTER_BOUND ( 'NONE', #161, .T. ) ;
#51 = DIRECTION ( 'NONE',  ( 1.216062324813796344E-16, -1.000000000000000000, 0.000000000000000000 ) ) ;
#52 = CONICAL_SURFACE ( 'NONE', #210, 39.37007874015762354, 0.7853981633974500554 ) ;
#53 = FILL_AREA_STYLE ('',( #155 ) ) ;
#54 = VERTEX_POINT ( 'NONE', #69 ) ;
#55 = DIMENSIONAL_EXPONENTS ( 1.000000000000000000, 0.000000000000000000, 0.000000000000000000, 0.000000000000000000, 0.000000000000000000, 0.000000000000000000, 0.000000000000000000 ) ;
#56 = CARTESIAN_POINT ( 'NONE',  ( -6.123233995736772199E-17, 3.000000000000000444, 0.000000000000000000 ) ) ;
#57 = DIRECTION ( 'NONE',  ( -6.296165443231977236E-18, -1.000000000000000000, -0.000000000000000000 ) ) ;
#58 = EDGE_CURVE ( 'NONE', #79, #198, #183, .T. ) ;
#59 = CARTESIAN_POINT ( 'NONE',  ( 0.000000000000000000, 0.000000000000000000, 0.000000000000000000 ) ) ;
#60 = EDGE_LOOP ( 'NONE', ( #174, #193, #106 ) ) ;
#61 = DIRECTION ( 'NONE',  ( -1.000000000000000000, -1.216062324813796344E-16, 0.000000000000000000 ) ) ;
#62 = ORIENTED_EDGE ( 'NONE', *, *, #26, .F. ) ;
#63 = FACE_OUTER_BOUND ( 'NONE', #257, .T. ) ;
#64 = ORIENTED_EDGE ( 'NONE', *, *, #199, .T. ) ;
#65 = AXIS2_PLACEMENT_3D ( 'NONE', #134, #4, #206 ) ;
#66 = UNCERTAINTY_MEASURE_WITH_UNIT (LENGTH_MEASURE( 1.000000000000000082E-05 ), #190, 'distance_accuracy_value', 'NONE');
#67 = LENGTH_MEASURE_WITH_UNIT ( LENGTH_MEASURE( 0.02539999999999999897 ), #20 );
#68 =( NAMED_UNIT ( * ) PLANE_ANGLE_UNIT ( ) SI_UNIT ( $, .RADIAN. ) );
#69 = CARTESIAN_POINT ( 'NONE',  ( 0.000000000000000000, 0.000000000000000000, 0.000000000000000000 ) ) ;
#70 = AXIS2_PLACEMENT_3D ( 'NONE', #204, #46, #172 ) ;
#71 = DIRECTION ( 'NONE',  ( -1.216062324813796344E-16, 1.000000000000000000, -0.000000000000000000 ) ) ;
#72 = SURFACE_STYLE_FILL_AREA ( #53 ) ;
#73 = EDGE_CURVE ( 'NONE', #198, #39, #123, .T. ) ;
#74 = LENGTH_MEASURE_WITH_UNIT ( LENGTH_MEASURE( 0.02539999999999999897 ), #136 );
#75 = CARTESIAN_POINT ( 'NONE',  ( 0.2499999999999999722, 3.000000000000000444, 0.000000000000000000 ) ) ;
#76 = DIRECTION ( 'NONE',  ( -1.000000000000000000, 6.296165443231976466E-18, 0.000000000000000000 ) ) ;
#77 = STYLED_ITEM ( 'NONE', ( #207 ), #154 ) ;
#78 = PRESENTATION_LAYER_ASSIGNMENT (  '', '', ( #186 ) ) ;
#79 = VERTEX_POINT ( 'NONE', #41 ) ;
#80 = CARTESIAN_POINT ( 'NONE',  ( 2.731847993664263218E-16, 0.2499999999999991118, 0.000000000000000000 ) ) ;
#81 = ORIENTED_EDGE ( 'NONE', *, *, #128, .T. ) ;
#82 = DIRECTION ( 'NONE',  ( -1.000000000000000000, 0.000000000000000000, 0.000000000000000000 ) ) ;
#83 = DIMENSIONAL_EXPONENTS ( 1.000000000000000000, 0.000000000000000000, 0.000000000000000000, 0.000000000000000000, 0.000000000000000000, 0.000000000000000000, 0.000000000000000000 ) ;
#84 = VECTOR ( 'NONE', #201, 39.37007874015748854 ) ;
#85 = PRESENTATION_STYLE_ASSIGNMENT (( #251 ) ) ;
#86 = PRODUCT_RELATED_PRODUCT_CATEGORY ( 'part', '', ( #91 ) ) ;
#87 = EDGE_LOOP ( 'NONE', ( #248, #81, #178, #17 ) ) ;
#88 =( GEOMETRIC_REPRESENTATION_CONTEXT ( 3 ) GLOBAL_UNCERTAINTY_ASSIGNED_CONTEXT ( ( #66 ) ) GLOBAL_UNIT_ASSIGNED_CONTEXT ( ( #190, #243, #173 ) ) REPRESENTATION_CONTEXT ( 'NONE', 'WORKASPACE' ) );
#89 = AXIS2_PLACEMENT_3D ( 'NONE', #214, #175, #124 ) ;
#90 = DIRECTION ( 'NONE',  ( -1.000000000000000000, 0.000000000000000000, 0.000000000000000000 ) ) ;
#91 = PRODUCT ( '83854', '83854', '', ( #211 ) ) ;
#92 = MECHANICAL_DESIGN_GEOMETRIC_PRESENTATION_REPRESENTATION (  '', ( #242 ), #13 ) ;
#93 = CARTESIAN_POINT ( 'NONE',  ( 0.000000000000000000, 0.000000000000000000, 0.000000000000000000 ) ) ;
#94 =( GEOMETRIC_REPRESENTATION_CONTEXT ( 3 ) GLOBAL_UNCERTAINTY_ASSIGNED_CONTEXT ( ( #265 ) ) GLOBAL_UNIT_ASSIGNED_CONTEXT ( ( #222, #68, #182 ) ) REPRESENTATION_CONTEXT ( 'NONE', 'WORKASPACE' ) );
#95 = CARTESIAN_POINT ( 'NONE',  ( -0.2500000000000001110, 3.000000000000000444, 0.000000000000000000 ) ) ;
#96 = SURFACE_SIDE_STYLE ('',( #72 ) ) ;
#97 =( CONVERSION_BASED_UNIT ( 'INCH', #74 ) LENGTH_UNIT ( ) NAMED_UNIT ( #83 ) );
#98 =( CONVERSION_BASED_UNIT ( 'INCH', #119 ) LENGTH_UNIT ( ) NAMED_UNIT ( #109 ) );
#99 = MECHANICAL_DESIGN_GEOMETRIC_PRESENTATION_REPRESENTATION (  '', ( #115 ), #8 ) ;
#100 = EDGE_LOOP ( 'NONE', ( #127, #145 ) ) ;
#101 = ORIENTED_EDGE ( 'NONE', *, *, #18, .T. ) ;
#102 = APPLICATION_PROTOCOL_DEFINITION ( 'draft international standard', 'automotive_design', 1998, #165 ) ;
#103 = SURFACE_STYLE_FILL_AREA ( #36 ) ;
#104 = AXIS2_PLACEMENT_3D ( 'NONE', #59, #142, #11 ) ;
#105 =( NAMED_UNIT ( * ) SI_UNIT ( $, .STERADIAN. ) SOLID_ANGLE_UNIT ( ) );
#106 = ORIENTED_EDGE ( 'NONE', *, *, #3, .T. ) ;
#107 = MANIFOLD_SOLID_BREP ( 'Revolve - Tool Body (Pointed)', #23 ) ;
#108 = DIRECTION ( 'NONE',  ( -1.000000000000000000, -1.365923996832133335E-16, 0.000000000000000000 ) ) ;
#109 = DIMENSIONAL_EXPONENTS ( 1.000000000000000000, 0.000000000000000000, 0.000000000000000000, 0.000000000000000000, 0.000000000000000000, 0.000000000000000000, 0.000000000000000000 ) ;
#110 = SHAPE_DEFINITION_REPRESENTATION ( #236, #221 ) ;
#111 = DIRECTION ( 'NONE',  ( -1.216062324813796344E-16, 1.000000000000000000, -0.000000000000000000 ) ) ;
#112 = CARTESIAN_POINT ( 'NONE',  ( 0.2499999999999998057, 3.000000000000000444, 3.061616997868381785E-17 ) ) ;
#113 =( GEOMETRIC_REPRESENTATION_CONTEXT ( 3 ) GLOBAL_UNCERTAINTY_ASSIGNED_CONTEXT ( ( #159 ) ) GLOBAL_UNIT_ASSIGNED_CONTEXT ( ( #121, #215, #191 ) ) REPRESENTATION_CONTEXT ( 'NONE', 'WORKASPACE' ) );
#114 = FILL_AREA_STYLE_COLOUR ( '', #259 ) ;
#115 = STYLED_ITEM ( 'NONE', ( #85 ), #6 ) ;
#116 = LENGTH_MEASURE_WITH_UNIT ( LENGTH_MEASURE( 0.02539999999999999897 ), #47 );
#117 = SURFACE_STYLE_USAGE ( .BOTH. , #28 ) ;
#118 = MECHANICAL_DESIGN_GEOMETRIC_PRESENTATION_REPRESENTATION (  '', ( #186 ), #88 ) ;
#119 = LENGTH_MEASURE_WITH_UNIT ( LENGTH_MEASURE( 0.02539999999999999897 ), #177 );
#120 = ADVANCED_FACE ( 'NONE', ( #219 ), #184, .T. ) ;
#121 =( CONVERSION_BASED_UNIT ( 'INCH', #30 ) LENGTH_UNIT ( ) NAMED_UNIT ( #149 ) );
#122 = AXIS2_PLACEMENT_3D ( 'NONE', #152, #157, #76 ) ;
#123 = CIRCLE ( 'NONE', #137, 0.2500000000000000555 ) ;
#124 = DIRECTION ( 'NONE',  ( 1.000000000000000000, 0.000000000000000000, 0.000000000000000000 ) ) ;
#125 = DIRECTION ( 'NONE',  ( -1.216062324813796344E-16, 1.000000000000000000, -0.000000000000000000 ) ) ;
#126 = VECTOR ( 'NONE', #253, 39.37007874015748854 ) ;
#127 = ORIENTED_EDGE ( 'NONE', *, *, #34, .F. ) ;
#128 = EDGE_CURVE ( 'NONE', #234, #39, #130, .T. ) ;
#129 = SURFACE_SIDE_STYLE ('',( #237 ) ) ;
#130 = LINE ( 'NONE', #112, #171 ) ;
#131 = DIRECTION ( 'NONE',  ( -1.216062324813796344E-16, 1.000000000000000000, -0.000000000000000000 ) ) ;
#132 = CARTESIAN_POINT ( 'NONE',  ( -6.123233995736772199E-17, 3.000000000000000444, 0.000000000000000000 ) ) ;
#133 = AXIS2_PLACEMENT_3D ( 'NONE', #229, #57, #213 ) ;
#134 = CARTESIAN_POINT ( 'NONE',  ( 2.478805292611014523E-16, 39.37007874015748143, 0.000000000000000000 ) ) ;
#135 = PRESENTATION_LAYER_ASSIGNMENT (  '', '', ( #77 ) ) ;
#136 =( LENGTH_UNIT ( ) NAMED_UNIT ( * ) SI_UNIT ( $, .METRE. ) );
#137 = AXIS2_PLACEMENT_3D ( 'NONE', #239, #40, #90 ) ;
#138 = PRODUCT_DEFINITION_CONTEXT ( 'detailed design', #252, 'design' ) ;
#139 = DIRECTION ( 'NONE',  ( -1.000000000000000000, 0.000000000000000000, 0.000000000000000000 ) ) ;
#140 = ORIENTED_EDGE ( 'NONE', *, *, #58, .T. ) ;
#141 =( CONVERSION_BASED_UNIT ( 'INCH', #144 ) LENGTH_UNIT ( ) NAMED_UNIT ( #249 ) );
#142 = DIRECTION ( 'NONE',  ( 0.000000000000000000, 0.000000000000000000, 1.000000000000000000 ) ) ;
#143 =( NAMED_UNIT ( * ) SI_UNIT ( $, .STERADIAN. ) SOLID_ANGLE_UNIT ( ) );
#144 = LENGTH_MEASURE_WITH_UNIT ( LENGTH_MEASURE( 0.02539999999999999897 ), #31 );
#145 = ORIENTED_EDGE ( 'NONE', *, *, #147, .F. ) ;
#146 = FILL_AREA_STYLE_COLOUR ( '', #192 ) ;
#147 = EDGE_CURVE ( 'NONE', #234, #79, #48, .T. ) ;
#148 = ADVANCED_FACE ( 'NONE', ( #225 ), #244, .F. ) ;
#149 = DIMENSIONAL_EXPONENTS ( 1.000000000000000000, 0.000000000000000000, 0.000000000000000000, 0.000000000000000000, 0.000000000000000000, 0.000000000000000000, 0.000000000000000000 ) ;
#150 = CIRCLE ( 'NONE', #70, 0.2499999999999996947 ) ;
#151 = CARTESIAN_POINT ( 'NONE',  ( -6.123233995736772199E-17, 3.000000000000000444, 0.000000000000000000 ) ) ;
#152 = CARTESIAN_POINT ( 'NONE',  ( 1.574041360807988724E-18, 0.2499999999999991118, 0.000000000000000000 ) ) ;
#153 = CIRCLE ( 'NONE', #133, 0.2499999999999999722 ) ;
#154 = ADVANCED_FACE ( 'NONE', ( #209 ), #224, .T. ) ;
#155 = FILL_AREA_STYLE_COLOUR ( '', #263 ) ;
#156 = FILL_AREA_STYLE ('',( #114 ) ) ;
#157 = DIRECTION ( 'NONE',  ( 6.296165443231976466E-18, 1.000000000000000000, 0.000000000000000000 ) ) ;
#158 = AXIS2_PLACEMENT_3D ( 'NONE', #80, #162, #61 ) ;
#159 = UNCERTAINTY_MEASURE_WITH_UNIT (LENGTH_MEASURE( 1.000000000000000082E-05 ), #121, 'distance_accuracy_value', 'NONE');
#160 =( LENGTH_UNIT ( ) NAMED_UNIT ( * ) SI_UNIT ( $, .METRE. ) );
#161 = EDGE_LOOP ( 'NONE', ( #62, #216, #101 ) ) ;
#162 = DIRECTION ( 'NONE',  ( -1.216062324813796344E-16, 1.000000000000000000, 0.000000000000000000 ) ) ;
#163 = SURFACE_SIDE_STYLE ('',( #103 ) ) ;
#164 = CARTESIAN_POINT ( 'NONE',  ( -0.2499999999999999722, 0.2499999999999991118, 0.000000000000000000 ) ) ;
#165 = APPLICATION_CONTEXT ( 'automotive_design' ) ;
#166 = ORIENTED_EDGE ( 'NONE', *, *, #3, .F. ) ;
#167 = CARTESIAN_POINT ( 'NONE',  ( 0.2499999999999999722, 0.2499999999999992784, 3.061616997868383018E-17 ) ) ;
#168 = ORIENTED_EDGE ( 'NONE', *, *, #18, .F. ) ;
#169 = CARTESIAN_POINT ( 'NONE',  ( 0.2499999999999999722, 3.000000000000000444, 3.061616997868383018E-17 ) ) ;
#170 = AXIS2_PLACEMENT_3D ( 'NONE', #151, #42, #44 ) ;
#171 = VECTOR ( 'NONE', #131, 39.37007874015748143 ) ;
#172 = DIRECTION ( 'NONE',  ( -1.000000000000000000, -1.365923996832133335E-16, 0.000000000000000000 ) ) ;
#173 =( NAMED_UNIT ( * ) SI_UNIT ( $, .STERADIAN. ) SOLID_ANGLE_UNIT ( ) );
#174 = ORIENTED_EDGE ( 'NONE', *, *, #247, .F. ) ;
#175 = DIRECTION ( 'NONE',  ( -6.296165443231977236E-18, -1.000000000000000000, -0.000000000000000000 ) ) ;
#176 = EDGE_LOOP ( 'NONE', ( #35, #64 ) ) ;
#177 =( LENGTH_UNIT ( ) NAMED_UNIT ( * ) SI_UNIT ( $, .METRE. ) );
#178 = ORIENTED_EDGE ( 'NONE', *, *, #73, .F. ) ;
#179 = AXIS2_PLACEMENT_3D ( 'NONE', #132, #49, #188 ) ;
#180 = FILL_AREA_STYLE_COLOUR ( '', #240 ) ;
#181 = EDGE_LOOP ( 'NONE', ( #168, #166 ) ) ;
#182 =( NAMED_UNIT ( * ) SI_UNIT ( $, .STERADIAN. ) SOLID_ANGLE_UNIT ( ) );
#183 = LINE ( 'NONE', #202, #208 ) ;
#184 = CYLINDRICAL_SURFACE ( 'NONE', #170, 0.2499999999999998612 ) ;
#185 = PRESENTATION_LAYER_ASSIGNMENT (  '', '', ( #37 ) ) ;
#186 = STYLED_ITEM ( 'NONE', ( #187 ), #195 ) ;
#187 = PRESENTATION_STYLE_ASSIGNMENT (( #117 ) ) ;
#188 = DIRECTION ( 'NONE',  ( -1.000000000000000000, 0.000000000000000000, 0.000000000000000000 ) ) ;
#189 = CARTESIAN_POINT ( 'NONE',  ( 2.478805292611014523E-16, 39.37007874015748143, 0.000000000000000000 ) ) ;
#190 =( CONVERSION_BASED_UNIT ( 'INCH', #116 ) LENGTH_UNIT ( ) NAMED_UNIT ( #258 ) );
#191 =( NAMED_UNIT ( * ) SI_UNIT ( $, .STERADIAN. ) SOLID_ANGLE_UNIT ( ) );
#192 = COLOUR_RGB ( '',0.7921568627450980005, 0.8196078431372548767, 0.9333333333333333481 ) ;
#193 = ORIENTED_EDGE ( 'NONE', *, *, #26, .T. ) ;
#194 = CYLINDRICAL_SURFACE ( 'NONE', #22, 0.2499999999999998612 ) ;
#195 = ADVANCED_FACE ( 'NONE', ( #21 ), #27, .T. ) ;
#196 = FACE_OUTER_BOUND ( 'NONE', #100, .T. ) ;
#197 = LINE ( 'NONE', #93, #84 ) ;
#198 = VERTEX_POINT ( 'NONE', #95 ) ;
#199 = EDGE_CURVE ( 'NONE', #39, #198, #218, .T. ) ;
#200 = ORIENTED_EDGE ( 'NONE', *, *, #128, .F. ) ;
#201 = DIRECTION ( 'NONE',  ( 0.7071067811865486830, 0.7071067811865462405, 8.659560562354947649E-17 ) ) ;
#202 = CARTESIAN_POINT ( 'NONE',  ( -0.2499999999999999167, 3.000000000000000444, 0.000000000000000000 ) ) ;
#203 = PRODUCT_DEFINITION ( 'UNKNOWN', '', #205, #138 ) ;
#204 = CARTESIAN_POINT ( 'NONE',  ( 2.731847993664263711E-16, 0.2499999999999992506, 0.000000000000000000 ) ) ;
#205 = PRODUCT_DEFINITION_FORMATION_WITH_SPECIFIED_SOURCE ( 'ANY', '', #91, .NOT_KNOWN. ) ;
#206 = DIRECTION ( 'NONE',  ( -1.000000000000000000, 0.000000000000000000, 0.000000000000000000 ) ) ;
#207 = PRESENTATION_STYLE_ASSIGNMENT (( #245 ) ) ;
#208 = VECTOR ( 'NONE', #71, 39.37007874015748143 ) ;
#209 = FACE_OUTER_BOUND ( 'NONE', #181, .T. ) ;
#210 = AXIS2_PLACEMENT_3D ( 'NONE', #189, #14, #82 ) ;
#211 = PRODUCT_CONTEXT ( 'NONE', #165, 'mechanical' ) ;
#212 = LINE ( 'NONE', #233, #126 ) ;
#213 = DIRECTION ( 'NONE',  ( 1.000000000000000000, 0.000000000000000000, 0.000000000000000000 ) ) ;
#214 = CARTESIAN_POINT ( 'NONE',  ( 1.574041360807988724E-18, 0.2499999999999991118, 0.000000000000000000 ) ) ;
#215 =( NAMED_UNIT ( * ) PLANE_ANGLE_UNIT ( ) SI_UNIT ( $, .RADIAN. ) );
#216 = ORIENTED_EDGE ( 'NONE', *, *, #247, .T. ) ;
#217 = ORIENTED_EDGE ( 'NONE', *, *, #199, .F. ) ;
#218 = CIRCLE ( 'NONE', #179, 0.2500000000000000555 ) ;
#219 = FACE_OUTER_BOUND ( 'NONE', #87, .T. ) ;
#220 = ADVANCED_FACE ( 'NONE', ( #50 ), #52, .T. ) ;
#221 = ADVANCED_BREP_SHAPE_REPRESENTATION ( '83854', ( #6, #107, #104 ), #113 ) ;
#222 =( CONVERSION_BASED_UNIT ( 'INCH', #67 ) LENGTH_UNIT ( ) NAMED_UNIT ( #55 ) );
#223 = AXIS2_PLACEMENT_3D ( 'NONE', #19, #111, #108 ) ;
#224 = PLANE ( 'NONE',  #122 ) ;
#225 = FACE_OUTER_BOUND ( 'NONE', #176, .T. ) ;
#226 = CLOSED_SHELL ( 'NONE', ( #195, #154, #220 ) ) ;
#227 =( NAMED_UNIT ( * ) SI_UNIT ( $, .STERADIAN. ) SOLID_ANGLE_UNIT ( ) );
#228 = SURFACE_SIDE_STYLE ('',( #256 ) ) ;
#229 = CARTESIAN_POINT ( 'NONE',  ( 1.574041360807988724E-18, 0.2499999999999991118, 0.000000000000000000 ) ) ;
#230 = ADVANCED_FACE ( 'NONE', ( #196 ), #246, .F. ) ;
#231 = PRESENTATION_STYLE_ASSIGNMENT (( #29 ) ) ;
#232 = PRESENTATION_LAYER_ASSIGNMENT (  '', '', ( #115 ) ) ;
#233 = CARTESIAN_POINT ( 'NONE',  ( 0.000000000000000000, 0.000000000000000000, 0.000000000000000000 ) ) ;
#234 = VERTEX_POINT ( 'NONE', #167 ) ;
#235 = FILL_AREA_STYLE ('',( #146 ) ) ;
#236 = PRODUCT_DEFINITION_SHAPE ( 'NONE', 'NONE',  #203 ) ;
#237 = SURFACE_STYLE_FILL_AREA ( #235 ) ;
#238 = PRESENTATION_STYLE_ASSIGNMENT (( #262 ) ) ;
#239 = CARTESIAN_POINT ( 'NONE',  ( -6.123233995736772199E-17, 3.000000000000000444, 0.000000000000000000 ) ) ;
#240 = COLOUR_RGB ( '',1.000000000000000000, 0.000000000000000000, 0.000000000000000000 ) ;
#241 = CIRCLE ( 'NONE', #89, 0.2499999999999999722 ) ;
#242 = STYLED_ITEM ( 'NONE', ( #231 ), #220 ) ;
#243 =( NAMED_UNIT ( * ) PLANE_ANGLE_UNIT ( ) SI_UNIT ( $, .RADIAN. ) );
#244 = PLANE ( 'NONE',  #15 ) ;
#245 = SURFACE_STYLE_USAGE ( .BOTH. , #96 ) ;
#246 = PLANE ( 'NONE',  #158 ) ;
#247 = EDGE_CURVE ( 'NONE', #54, #12, #212, .T. ) ;
#248 = ORIENTED_EDGE ( 'NONE', *, *, #34, .T. ) ;
#249 = DIMENSIONAL_EXPONENTS ( 1.000000000000000000, 0.000000000000000000, 0.000000000000000000, 0.000000000000000000, 0.000000000000000000, 0.000000000000000000, 0.000000000000000000 ) ;
#250 =( NAMED_UNIT ( * ) PLANE_ANGLE_UNIT ( ) SI_UNIT ( $, .RADIAN. ) );
#251 = SURFACE_STYLE_USAGE ( .BOTH. , #163 ) ;
#252 = APPLICATION_CONTEXT ( 'automotive_design' ) ;
#253 = DIRECTION ( 'NONE',  ( -0.7071067811865486830, 0.7071067811865462405, 0.000000000000000000 ) ) ;
#254 = COLOUR_RGB ( '',0.7921568627450980005, 0.8196078431372548767, 0.9333333333333333481 ) ;
#255 = VERTEX_POINT ( 'NONE', #33 ) ;
#256 = SURFACE_STYLE_FILL_AREA ( #9 ) ;
#257 = EDGE_LOOP ( 'NONE', ( #200, #10, #140, #217 ) ) ;
#258 = DIMENSIONAL_EXPONENTS ( 1.000000000000000000, 0.000000000000000000, 0.000000000000000000, 0.000000000000000000, 0.000000000000000000, 0.000000000000000000, 0.000000000000000000 ) ;
#259 = COLOUR_RGB ( '',1.000000000000000000, 0.000000000000000000, 0.000000000000000000 ) ;
#260 = ADVANCED_FACE ( 'NONE', ( #63 ), #194, .T. ) ;
#261 = MECHANICAL_DESIGN_GEOMETRIC_PRESENTATION_REPRESENTATION (  '', ( #37 ), #94 ) ;
#262 = SURFACE_STYLE_USAGE ( .BOTH. , #129 ) ;
#263 = COLOUR_RGB ( '',1.000000000000000000, 0.000000000000000000, 0.000000000000000000 ) ;
#264 = PRESENTATION_LAYER_ASSIGNMENT (  '', '', ( #242 ) ) ;
#265 = UNCERTAINTY_MEASURE_WITH_UNIT (LENGTH_MEASURE( 1.000000000000000082E-05 ), #222, 'distance_accuracy_value', 'NONE');
ENDSEC;
END-ISO-10303-21;
