ISO-10303-21;
HEADER;
FILE_DESCRIPTION (( 'STEP AP214' ),
    '1' );
FILE_NAME ('82592.STEP',
    '2023-06-30T22:47:27',
    ( '' ),
    ( '' ),
    'SwSTEP 2.0',
    'SolidWorks 2023',
    '' );
FILE_SCHEMA (( 'AUTOMOTIVE_DESIGN' ));
ENDSEC;

DATA;
#1 = DIRECTION ( 'NONE',  ( -1.224646799147352714E-16, 1.000000000000000000, -0.000000000000000000 ) ) ;
#2 =( GEOMETRIC_REPRESENTATION_CONTEXT ( 3 ) GLOBAL_UNCERTAINTY_ASSIGNED_CONTEXT ( ( #373 ) ) GLOBAL_UNIT_ASSIGNED_CONTEXT ( ( #215, #31, #249 ) ) REPRESENTATION_CONTEXT ( 'NONE', 'WORKASPACE' ) );
#3 = FILL_AREA_STYLE ('',( #327 ) ) ;
#4 = DIRECTION ( 'NONE',  ( 1.000000000000000000, 0.000000000000000000, 0.000000000000000000 ) ) ;
#5 = CARTESIAN_POINT ( 'NONE',  ( -2.296212748401287726E-17, 0.1875000000000000278, 0.000000000000000000 ) ) ;
#6 = CARTESIAN_POINT ( 'NONE',  ( 0.000000000000000000, 0.1875000000000000555, 0.000000000000000000 ) ) ;
#7 = AXIS2_PLACEMENT_3D ( 'NONE', #136, #260, #107 ) ;
#8 = MECHANICAL_DESIGN_GEOMETRIC_PRESENTATION_REPRESENTATION (  '', ( #96 ), #122 ) ;
#9 = CARTESIAN_POINT ( 'NONE',  ( 2.755455298081544778E-16, 0.7499999999999998890, 0.000000000000000000 ) ) ;
#10 = SURFACE_STYLE_USAGE ( .BOTH. , #334 ) ;
#11 = PRODUCT_DEFINITION ( 'UNKNOWN', '', #358, #237 ) ;
#12 =( NAMED_UNIT ( * ) PLANE_ANGLE_UNIT ( ) SI_UNIT ( $, .RADIAN. ) );
#13 = CYLINDRICAL_SURFACE ( 'NONE', #280, 0.1874999999999999722 ) ;
#14 = CIRCLE ( 'NONE', #7, 0.1875000000000000555 ) ;
#15 = DIRECTION ( 'NONE',  ( 0.000000000000000000, 0.000000000000000000, -1.000000000000000000 ) ) ;
#16 =( NAMED_UNIT ( * ) SI_UNIT ( $, .STERADIAN. ) SOLID_ANGLE_UNIT ( ) );
#17 = ORIENTED_EDGE ( 'NONE', *, *, #53, .F. ) ;
#18 = DIRECTION ( 'NONE',  ( 0.000000000000000000, -0.000000000000000000, 1.000000000000000000 ) ) ;
#19 = ORIENTED_EDGE ( 'NONE', *, *, #211, .T. ) ;
#20 = EDGE_CURVE ( 'NONE', #281, #230, #61, .T. ) ;
#21 = ORIENTED_EDGE ( 'NONE', *, *, #183, .T. ) ;
#22 =( NAMED_UNIT ( * ) PLANE_ANGLE_UNIT ( ) SI_UNIT ( $, .RADIAN. ) );
#23 = ORIENTED_EDGE ( 'NONE', *, *, #20, .F. ) ;
#24 = FACE_OUTER_BOUND ( 'NONE', #101, .T. ) ;
#25 = ORIENTED_EDGE ( 'NONE', *, *, #346, .T. ) ;
#26 = AXIS2_PLACEMENT_3D ( 'NONE', #158, #127, #250 ) ;
#27 = DIRECTION ( 'NONE',  ( -0.000000000000000000, -1.000000000000000000, -0.000000000000000000 ) ) ;
#28 = UNCERTAINTY_MEASURE_WITH_UNIT (LENGTH_MEASURE( 1.000000000000000082E-05 ), #366, 'distance_accuracy_value', 'NONE');
#29 = DIRECTION ( 'NONE',  ( -1.000000000000000000, -1.224646799147352714E-16, 0.000000000000000000 ) ) ;
#30 = LENGTH_MEASURE_WITH_UNIT ( LENGTH_MEASURE( 0.02539999999999999897 ), #95 );
#31 =( NAMED_UNIT ( * ) PLANE_ANGLE_UNIT ( ) SI_UNIT ( $, .RADIAN. ) );
#32 = PRESENTATION_LAYER_ASSIGNMENT (  '', '', ( #320 ) ) ;
#33 = FILL_AREA_STYLE_COLOUR ( '', #268 ) ;
#34 = PRESENTATION_STYLE_ASSIGNMENT (( #293 ) ) ;
#35 = CARTESIAN_POINT ( 'NONE',  ( 2.296212748401288034E-17, 0.1875000000000000555, 0.1875000000000000555 ) ) ;
#36 = AXIS2_PLACEMENT_3D ( 'NONE', #356, #117, #94 ) ;
#37 = FILL_AREA_STYLE ('',( #33 ) ) ;
#38 = FILL_AREA_STYLE ('',( #223 ) ) ;
#39 = ORIENTED_EDGE ( 'NONE', *, *, #264, .F. ) ;
#40 =( NAMED_UNIT ( * ) SI_UNIT ( $, .STERADIAN. ) SOLID_ANGLE_UNIT ( ) );
#41 = FACE_OUTER_BOUND ( 'NONE', #340, .T. ) ;
#42 =( NAMED_UNIT ( * ) PLANE_ANGLE_UNIT ( ) SI_UNIT ( $, .RADIAN. ) );
#43 = DIRECTION ( 'NONE',  ( -0.000000000000000000, -1.000000000000000000, -0.000000000000000000 ) ) ;
#44 = DIRECTION ( 'NONE',  ( 0.000000000000000000, 1.000000000000000000, 0.000000000000000000 ) ) ;
#45 = DIRECTION ( 'NONE',  ( -1.224646799147352714E-16, 1.000000000000000000, -0.000000000000000000 ) ) ;
#46 = ORIENTED_EDGE ( 'NONE', *, *, #282, .T. ) ;
#47 = EDGE_CURVE ( 'NONE', #365, #52, #77, .T. ) ;
#48 = VERTEX_POINT ( 'NONE', #76 ) ;
#49 = AXIS2_PLACEMENT_3D ( 'NONE', #338, #45, #347 ) ;
#50 = MECHANICAL_DESIGN_GEOMETRIC_PRESENTATION_REPRESENTATION (  '', ( #234 ), #73 ) ;
#51 = ORIENTED_EDGE ( 'NONE', *, *, #47, .T. ) ;
#52 = VERTEX_POINT ( 'NONE', #342 ) ;
#53 = EDGE_CURVE ( 'NONE', #52, #369, #14, .T. ) ;
#54 = PRESENTATION_STYLE_ASSIGNMENT (( #341 ) ) ;
#55 = STYLED_ITEM ( 'NONE', ( #310 ), #142 ) ;
#56 = VECTOR ( 'NONE', #357, 39.37007874015748143 ) ;
#57 =( NAMED_UNIT ( * ) PLANE_ANGLE_UNIT ( ) SI_UNIT ( $, .RADIAN. ) );
#58 = DIMENSIONAL_EXPONENTS ( 1.000000000000000000, 0.000000000000000000, 0.000000000000000000, 0.000000000000000000, 0.000000000000000000, 0.000000000000000000, 0.000000000000000000 ) ;
#59 = DIRECTION ( 'NONE',  ( 1.224646799147352714E-16, -1.000000000000000000, 0.000000000000000000 ) ) ;
#60 = FACE_OUTER_BOUND ( 'NONE', #226, .T. ) ;
#61 = CIRCLE ( 'NONE', #49, 0.1874999999999998890 ) ;
#62 = AXIS2_PLACEMENT_3D ( 'NONE', #276, #323, #297 ) ;
#63 = CARTESIAN_POINT ( 'NONE',  ( 6.123233995736772199E-17, 2.500000000000000000, 0.000000000000000000 ) ) ;
#64 =( NAMED_UNIT ( * ) PLANE_ANGLE_UNIT ( ) SI_UNIT ( $, .RADIAN. ) );
#65 = CARTESIAN_POINT ( 'NONE',  ( 0.000000000000000000, 0.1875000000000000555, 0.000000000000000000 ) ) ;
#66 = AXIS2_PLACEMENT_3D ( 'NONE', #157, #364, #104 ) ;
#67 = SURFACE_STYLE_USAGE ( .BOTH. , #306 ) ;
#68 = DIRECTION ( 'NONE',  ( -0.000000000000000000, -1.000000000000000000, -0.000000000000000000 ) ) ;
#69 = CARTESIAN_POINT ( 'NONE',  ( 0.000000000000000000, 0.7500000000000001110, -0.1874999999999999445 ) ) ;
#70 = UNCERTAINTY_MEASURE_WITH_UNIT (LENGTH_MEASURE( 1.000000000000000082E-05 ), #192, 'distance_accuracy_value', 'NONE');
#71 =( GEOMETRIC_REPRESENTATION_CONTEXT ( 3 ) GLOBAL_UNCERTAINTY_ASSIGNED_CONTEXT ( ( #75 ) ) GLOBAL_UNIT_ASSIGNED_CONTEXT ( ( #204, #57, #345 ) ) REPRESENTATION_CONTEXT ( 'NONE', 'WORKASPACE' ) );
#72 = PRODUCT_RELATED_PRODUCT_CATEGORY ( 'part', '', ( #360 ) ) ;
#73 =( GEOMETRIC_REPRESENTATION_CONTEXT ( 3 ) GLOBAL_UNCERTAINTY_ASSIGNED_CONTEXT ( ( #312 ) ) GLOBAL_UNIT_ASSIGNED_CONTEXT ( ( #186, #42, #40 ) ) REPRESENTATION_CONTEXT ( 'NONE', 'WORKASPACE' ) );
#74 = ORIENTED_EDGE ( 'NONE', *, *, #238, .T. ) ;
#75 = UNCERTAINTY_MEASURE_WITH_UNIT (LENGTH_MEASURE( 1.000000000000000082E-05 ), #204, 'distance_accuracy_value', 'NONE');
#76 = CARTESIAN_POINT ( 'NONE',  ( -1.148106374200643555E-17, -3.414809992080329023E-17, 0.000000000000000000 ) ) ;
#77 = LINE ( 'NONE', #164, #175 ) ;
#78 =( LENGTH_UNIT ( ) NAMED_UNIT ( * ) SI_UNIT ( $, .METRE. ) );
#79 = EDGE_LOOP ( 'NONE', ( #162, #166, #261, #46 ) ) ;
#80 =( GEOMETRIC_REPRESENTATION_CONTEXT ( 3 ) GLOBAL_UNCERTAINTY_ASSIGNED_CONTEXT ( ( #176 ) ) GLOBAL_UNIT_ASSIGNED_CONTEXT ( ( #291, #112, #114 ) ) REPRESENTATION_CONTEXT ( 'NONE', 'WORKASPACE' ) );
#81 = PRESENTATION_LAYER_ASSIGNMENT (  '', '', ( #190 ) ) ;
#82 = CARTESIAN_POINT ( 'NONE',  ( -2.296212748401287726E-17, 0.1875000000000000278, 0.000000000000000000 ) ) ;
#83 = DIRECTION ( 'NONE',  ( 0.000000000000000000, 0.000000000000000000, -1.000000000000000000 ) ) ;
#84 = CARTESIAN_POINT ( 'NONE',  ( -0.1874999999999996947, 2.500000000000000000, 0.000000000000000000 ) ) ;
#85 =( GEOMETRIC_REPRESENTATION_CONTEXT ( 3 ) GLOBAL_UNCERTAINTY_ASSIGNED_CONTEXT ( ( #339 ) ) GLOBAL_UNIT_ASSIGNED_CONTEXT ( ( #274, #64, #217 ) ) REPRESENTATION_CONTEXT ( 'NONE', 'WORKASPACE' ) );
#86 = SURFACE_STYLE_FILL_AREA ( #231 ) ;
#87 = PLANE ( 'NONE',  #110 ) ;
#88 = DIRECTION ( 'NONE',  ( -1.000000000000000000, 0.000000000000000000, 0.000000000000000000 ) ) ;
#89 = DIRECTION ( 'NONE',  ( 0.000000000000000000, 0.000000000000000000, -1.000000000000000000 ) ) ;
#90 = EDGE_CURVE ( 'NONE', #369, #48, #205, .T. ) ;
#91 = PLANE ( 'NONE',  #370 ) ;
#92 = CIRCLE ( 'NONE', #26, 0.1875000000000000555 ) ;
#93 = SURFACE_STYLE_FILL_AREA ( #236 ) ;
#94 = DIRECTION ( 'NONE',  ( -1.000000000000000000, 0.000000000000000000, 0.000000000000000000 ) ) ;
#95 =( LENGTH_UNIT ( ) NAMED_UNIT ( * ) SI_UNIT ( $, .METRE. ) );
#96 = STYLED_ITEM ( 'NONE', ( #124 ), #362 ) ;
#97 = SURFACE_STYLE_FILL_AREA ( #361 ) ;
#98 =( NAMED_UNIT ( * ) SI_UNIT ( $, .STERADIAN. ) SOLID_ANGLE_UNIT ( ) );
#99 = SURFACE_SIDE_STYLE ('',( #97 ) ) ;
#100 = CARTESIAN_POINT ( 'NONE',  ( 0.1875000000000000555, 0.1875000000000000555, 0.000000000000000000 ) ) ;
#101 = EDGE_LOOP ( 'NONE', ( #21, #229, #252, #335 ) ) ;
#102 = CARTESIAN_POINT ( 'NONE',  ( 0.1874999999999999445, 2.500000000000000000, 2.296212748401284952E-17 ) ) ;
#103 = AXIS2_PLACEMENT_3D ( 'NONE', #5, #147, #178 ) ;
#104 = DIRECTION ( 'NONE',  ( 1.000000000000000000, 0.000000000000000000, 0.000000000000000000 ) ) ;
#105 = EDGE_LOOP ( 'NONE', ( #168, #185 ) ) ;
#106 = ORIENTED_EDGE ( 'NONE', *, *, #20, .T. ) ;
#107 = DIRECTION ( 'NONE',  ( 0.000000000000000000, 0.000000000000000000, -1.000000000000000000 ) ) ;
#108 = EDGE_LOOP ( 'NONE', ( #25, #106 ) ) ;
#109 = MECHANICAL_DESIGN_GEOMETRIC_PRESENTATION_REPRESENTATION (  '', ( #55 ), #71 ) ;
#110 = AXIS2_PLACEMENT_3D ( 'NONE', #292, #149, #29 ) ;
#111 = FILL_AREA_STYLE_COLOUR ( '', #256 ) ;
#112 =( NAMED_UNIT ( * ) PLANE_ANGLE_UNIT ( ) SI_UNIT ( $, .RADIAN. ) );
#113 = MANIFOLD_SOLID_BREP ( 'Revolve - Tool Body (Straight Shanked)', #314 ) ;
#114 =( NAMED_UNIT ( * ) SI_UNIT ( $, .STERADIAN. ) SOLID_ANGLE_UNIT ( ) );
#115 = AXIS2_PLACEMENT_3D ( 'NONE', #349, #138, #372 ) ;
#116 = MECHANICAL_DESIGN_GEOMETRIC_PRESENTATION_REPRESENTATION (  '', ( #190 ), #2 ) ;
#117 = DIRECTION ( 'NONE',  ( -1.224646799147352714E-16, 1.000000000000000000, -0.000000000000000000 ) ) ;
#118 = DIRECTION ( 'NONE',  ( -0.000000000000000000, -1.000000000000000000, -0.000000000000000000 ) ) ;
#119 = EDGE_CURVE ( 'NONE', #137, #197, #129, .T. ) ;
#120 = DIRECTION ( 'NONE',  ( -1.000000000000000000, 0.000000000000000000, 0.000000000000000000 ) ) ;
#121 = CIRCLE ( 'NONE', #198, 0.1875000000000000555 ) ;
#122 =( GEOMETRIC_REPRESENTATION_CONTEXT ( 3 ) GLOBAL_UNCERTAINTY_ASSIGNED_CONTEXT ( ( #70 ) ) GLOBAL_UNIT_ASSIGNED_CONTEXT ( ( #192, #152, #98 ) ) REPRESENTATION_CONTEXT ( 'NONE', 'WORKASPACE' ) );
#123 = SURFACE_SIDE_STYLE ('',( #93 ) ) ;
#124 = PRESENTATION_STYLE_ASSIGNMENT (( #244 ) ) ;
#125 = PRESENTATION_STYLE_ASSIGNMENT (( #10 ) ) ;
#126 = APPLICATION_PROTOCOL_DEFINITION ( 'draft international standard', 'automotive_design', 1998, #289 ) ;
#127 = DIRECTION ( 'NONE',  ( 1.224646799147353207E-16, -0.000000000000000000, 1.000000000000000000 ) ) ;
#128 = MECHANICAL_DESIGN_GEOMETRIC_PRESENTATION_REPRESENTATION (  '', ( #354 ), #80 ) ;
#129 = LINE ( 'NONE', #196, #189 ) ;
#130 = CARTESIAN_POINT ( 'NONE',  ( -0.1875000000000000555, 0.1875000000000000555, 2.296212748401287726E-17 ) ) ;
#131 =( LENGTH_UNIT ( ) NAMED_UNIT ( * ) SI_UNIT ( $, .METRE. ) );
#132 = ORIENTED_EDGE ( 'NONE', *, *, #53, .T. ) ;
#133 = AXIS2_PLACEMENT_3D ( 'NONE', #135, #27, #83 ) ;
#134 = ORIENTED_EDGE ( 'NONE', *, *, #187, .F. ) ;
#135 = CARTESIAN_POINT ( 'NONE',  ( 0.000000000000000000, 0.000000000000000000, 0.000000000000000000 ) ) ;
#136 = CARTESIAN_POINT ( 'NONE',  ( 0.000000000000000000, 0.1875000000000000555, 0.000000000000000000 ) ) ;
#137 = VERTEX_POINT ( 'NONE', #199 ) ;
#138 = DIRECTION ( 'NONE',  ( -1.224646799147352714E-16, 1.000000000000000000, -0.000000000000000000 ) ) ;
#139 = ORIENTED_EDGE ( 'NONE', *, *, #225, .T. ) ;
#140 = AXIS2_PLACEMENT_3D ( 'NONE', #82, #195, #232 ) ;
#141 = DIMENSIONAL_EXPONENTS ( 1.000000000000000000, 0.000000000000000000, 0.000000000000000000, 0.000000000000000000, 0.000000000000000000, 0.000000000000000000, 0.000000000000000000 ) ;
#142 = ADVANCED_FACE ( 'NONE', ( #41 ), #222, .T. ) ;
#143 =( NAMED_UNIT ( * ) SI_UNIT ( $, .STERADIAN. ) SOLID_ANGLE_UNIT ( ) );
#144 = DIMENSIONAL_EXPONENTS ( 1.000000000000000000, 0.000000000000000000, 0.000000000000000000, 0.000000000000000000, 0.000000000000000000, 0.000000000000000000, 0.000000000000000000 ) ;
#145 = DIRECTION ( 'NONE',  ( 0.000000000000000000, 0.000000000000000000, 1.000000000000000000 ) ) ;
#146 = COLOUR_RGB ( '',1.000000000000000000, 0.000000000000000000, 0.000000000000000000 ) ;
#147 = DIRECTION ( 'NONE',  ( 0.000000000000000000, 0.000000000000000000, 1.000000000000000000 ) ) ;
#148 =( LENGTH_UNIT ( ) NAMED_UNIT ( * ) SI_UNIT ( $, .METRE. ) );
#149 = DIRECTION ( 'NONE',  ( -1.224646799147352714E-16, 1.000000000000000000, 0.000000000000000000 ) ) ;
#150 = AXIS2_PLACEMENT_3D ( 'NONE', #305, #68, #253 ) ;
#151 = FACE_OUTER_BOUND ( 'NONE', #367, .T. ) ;
#152 =( NAMED_UNIT ( * ) PLANE_ANGLE_UNIT ( ) SI_UNIT ( $, .RADIAN. ) );
#153 = EDGE_CURVE ( 'NONE', #286, #230, #167, .T. ) ;
#154 = DIRECTION ( 'NONE',  ( -0.000000000000000000, -1.000000000000000000, -0.000000000000000000 ) ) ;
#155 = AXIS2_PLACEMENT_3D ( 'NONE', #202, #270, #120 ) ;
#156 = PRESENTATION_LAYER_ASSIGNMENT (  '', '', ( #96 ) ) ;
#157 = CARTESIAN_POINT ( 'NONE',  ( 0.000000000000000000, 0.000000000000000000, 0.000000000000000000 ) ) ;
#158 = CARTESIAN_POINT ( 'NONE',  ( -2.296212748401287726E-17, 0.1875000000000000278, 0.000000000000000000 ) ) ;
#159 = ORIENTED_EDGE ( 'NONE', *, *, #225, .F. ) ;
#160 = UNCERTAINTY_MEASURE_WITH_UNIT (LENGTH_MEASURE( 1.000000000000000082E-05 ), #265, 'distance_accuracy_value', 'NONE');
#161 = DIRECTION ( 'NONE',  ( -0.000000000000000000, -1.000000000000000000, -0.000000000000000000 ) ) ;
#162 = ORIENTED_EDGE ( 'NONE', *, *, #264, .T. ) ;
#163 = AXIS2_PLACEMENT_3D ( 'NONE', #329, #266, #89 ) ;
#164 = CARTESIAN_POINT ( 'NONE',  ( 0.000000000000000000, 0.000000000000000000, -0.1874999999999999722 ) ) ;
#165 = ADVANCED_FACE ( 'NONE', ( #24 ), #318, .T. ) ;
#166 = ORIENTED_EDGE ( 'NONE', *, *, #277, .T. ) ;
#167 = LINE ( 'NONE', #84, #267 ) ;
#168 = ORIENTED_EDGE ( 'NONE', *, *, #183, .F. ) ;
#169 = ADVANCED_FACE ( 'NONE', ( #371 ), #241, .T. ) ;
#170 = LENGTH_MEASURE_WITH_UNIT ( LENGTH_MEASURE( 0.02539999999999999897 ), #78 );
#171 = DIMENSIONAL_EXPONENTS ( 1.000000000000000000, 0.000000000000000000, 0.000000000000000000, 0.000000000000000000, 0.000000000000000000, 0.000000000000000000, 0.000000000000000000 ) ;
#172 = FACE_OUTER_BOUND ( 'NONE', #105, .T. ) ;
#173 = CARTESIAN_POINT ( 'NONE',  ( -0.1874999999999998057, 2.500000000000000000, 0.000000000000000000 ) ) ;
#174 = PLANE ( 'NONE',  #294 ) ;
#175 = VECTOR ( 'NONE', #285, 39.37007874015748143 ) ;
#176 = UNCERTAINTY_MEASURE_WITH_UNIT (LENGTH_MEASURE( 1.000000000000000082E-05 ), #291, 'distance_accuracy_value', 'NONE');
#177 = SURFACE_STYLE_FILL_AREA ( #3 ) ;
#178 = DIRECTION ( 'NONE',  ( 1.000000000000000000, 0.000000000000000000, 0.000000000000000000 ) ) ;
#179 = FACE_OUTER_BOUND ( 'NONE', #201, .T. ) ;
#180 = STYLED_ITEM ( 'NONE', ( #54 ), #169 ) ;
#181 = CARTESIAN_POINT ( 'NONE',  ( -0.1874999999999993894, 0.7499999999999998890, 0.000000000000000000 ) ) ;
#182 = CIRCLE ( 'NONE', #150, 0.1875000000000000555 ) ;
#183 = EDGE_CURVE ( 'NONE', #286, #317, #290, .T. ) ;
#184 = APPLICATION_PROTOCOL_DEFINITION ( 'draft international standard', 'automotive_design', 1998, #352 ) ;
#185 = ORIENTED_EDGE ( 'NONE', *, *, #238, .F. ) ;
#186 =( CONVERSION_BASED_UNIT ( 'INCH', #331 ) LENGTH_UNIT ( ) NAMED_UNIT ( #271 ) );
#187 = EDGE_CURVE ( 'NONE', #365, #137, #330, .T. ) ;
#188 = CARTESIAN_POINT ( 'NONE',  ( 0.000000000000000000, 0.000000000000000000, 0.000000000000000000 ) ) ;
#189 = VECTOR ( 'NONE', #161, 39.37007874015748143 ) ;
#190 = STYLED_ITEM ( 'NONE', ( #34 ), #247 ) ;
#191 = ADVANCED_BREP_SHAPE_REPRESENTATION ( '82592', ( #247, #113, #66 ), #240 ) ;
#192 =( CONVERSION_BASED_UNIT ( 'INCH', #355 ) LENGTH_UNIT ( ) NAMED_UNIT ( #141 ) );
#193 = ORIENTED_EDGE ( 'NONE', *, *, #211, .F. ) ;
#194 = FILL_AREA_STYLE ('',( #332 ) ) ;
#195 = DIRECTION ( 'NONE',  ( 0.000000000000000000, 0.000000000000000000, -1.000000000000000000 ) ) ;
#196 = CARTESIAN_POINT ( 'NONE',  ( 2.296212748401286801E-17, 0.000000000000000000, 0.1874999999999999722 ) ) ;
#197 = VERTEX_POINT ( 'NONE', #35 ) ;
#198 = AXIS2_PLACEMENT_3D ( 'NONE', #6, #118, #353 ) ;
#199 = CARTESIAN_POINT ( 'NONE',  ( 2.296212748401286493E-17, 0.7500000000000001110, 0.1874999999999999445 ) ) ;
#200 = DIMENSIONAL_EXPONENTS ( 1.000000000000000000, 0.000000000000000000, 0.000000000000000000, 0.000000000000000000, 0.000000000000000000, 0.000000000000000000, 0.000000000000000000 ) ;
#201 = EDGE_LOOP ( 'NONE', ( #134, #159 ) ) ;
#202 = CARTESIAN_POINT ( 'NONE',  ( 2.755455298081544778E-16, 0.7499999999999998890, 0.000000000000000000 ) ) ;
#203 = PRESENTATION_STYLE_ASSIGNMENT (( #216 ) ) ;
#204 =( CONVERSION_BASED_UNIT ( 'INCH', #348 ) LENGTH_UNIT ( ) NAMED_UNIT ( #171 ) );
#205 = CIRCLE ( 'NONE', #140, 0.1875000000000000555 ) ;
#206 = AXIS2_PLACEMENT_3D ( 'NONE', #9, #1, #208 ) ;
#207 = SURFACE_SIDE_STYLE ('',( #86 ) ) ;
#208 = DIRECTION ( 'NONE',  ( -1.000000000000000000, 0.000000000000000000, 0.000000000000000000 ) ) ;
#209 = CARTESIAN_POINT ( 'NONE',  ( -2.296212748401287726E-17, 0.1875000000000000278, 0.000000000000000000 ) ) ;
#210 = DIRECTION ( 'NONE',  ( 1.000000000000000000, 1.224646799147352714E-16, 0.000000000000000000 ) ) ;
#211 = EDGE_CURVE ( 'NONE', #283, #52, #121, .T. ) ;
#212 = CIRCLE ( 'NONE', #62, 0.1874999999999999445 ) ;
#213 = AXIS2_PLACEMENT_3D ( 'NONE', #63, #295, #88 ) ;
#214 = CYLINDRICAL_SURFACE ( 'NONE', #36, 0.1874999999999997780 ) ;
#215 =( CONVERSION_BASED_UNIT ( 'INCH', #272 ) LENGTH_UNIT ( ) NAMED_UNIT ( #144 ) );
#216 = SURFACE_STYLE_USAGE ( .BOTH. , #123 ) ;
#217 =( NAMED_UNIT ( * ) SI_UNIT ( $, .STERADIAN. ) SOLID_ANGLE_UNIT ( ) );
#218 = ADVANCED_FACE ( 'NONE', ( #351 ), #91, .F. ) ;
#219 = FACE_OUTER_BOUND ( 'NONE', #311, .T. ) ;
#220 = CLOSED_SHELL ( 'NONE', ( #169, #142, #362, #263, #321 ) ) ;
#221 = PRESENTATION_LAYER_ASSIGNMENT (  '', '', ( #234 ) ) ;
#222 = CYLINDRICAL_SURFACE ( 'NONE', #133, 0.1874999999999999722 ) ;
#223 = FILL_AREA_STYLE_COLOUR ( '', #315 ) ;
#224 = SURFACE_STYLE_USAGE ( .BOTH. , #99 ) ;
#225 = EDGE_CURVE ( 'NONE', #137, #365, #212, .T. ) ;
#226 = EDGE_LOOP ( 'NONE', ( #259, #74, #313, #23 ) ) ;
#227 = FILL_AREA_STYLE_COLOUR ( '', #350 ) ;
#228 = AXIS2_PLACEMENT_3D ( 'NONE', #65, #154, #15 ) ;
#229 = ORIENTED_EDGE ( 'NONE', *, *, #328, .T. ) ;
#230 = VERTEX_POINT ( 'NONE', #173 ) ;
#231 = FILL_AREA_STYLE ('',( #111 ) ) ;
#232 = DIRECTION ( 'NONE',  ( -1.000000000000000000, 0.000000000000000000, 0.000000000000000000 ) ) ;
#233 = PRODUCT_DEFINITION_SHAPE ( 'NONE', 'NONE',  #11 ) ;
#234 = STYLED_ITEM ( 'NONE', ( #251 ), #263 ) ;
#235 = DIMENSIONAL_EXPONENTS ( 1.000000000000000000, 0.000000000000000000, 0.000000000000000000, 0.000000000000000000, 0.000000000000000000, 0.000000000000000000, 0.000000000000000000 ) ;
#236 = FILL_AREA_STYLE ('',( #316 ) ) ;
#237 = PRODUCT_DEFINITION_CONTEXT ( 'detailed design', #289, 'design' ) ;
#238 = EDGE_CURVE ( 'NONE', #317, #286, #308, .T. ) ;
#239 = PRESENTATION_LAYER_ASSIGNMENT (  '', '', ( #354 ) ) ;
#240 =( GEOMETRIC_REPRESENTATION_CONTEXT ( 3 ) GLOBAL_UNCERTAINTY_ASSIGNED_CONTEXT ( ( #28 ) ) GLOBAL_UNIT_ASSIGNED_CONTEXT ( ( #366, #12, #16 ) ) REPRESENTATION_CONTEXT ( 'NONE', 'WORKASPACE' ) );
#241 = SPHERICAL_SURFACE ( 'NONE', #103, 0.1875000000000000555 ) ;
#242 = ADVANCED_FACE ( 'NONE', ( #60 ), #214, .T. ) ;
#243 = SURFACE_SIDE_STYLE ('',( #269 ) ) ;
#244 = SURFACE_STYLE_USAGE ( .BOTH. , #243 ) ;
#245 = PRESENTATION_LAYER_ASSIGNMENT (  '', '', ( #55 ) ) ;
#246 = MECHANICAL_DESIGN_GEOMETRIC_PRESENTATION_REPRESENTATION (  '', ( #320 ), #85 ) ;
#247 = MANIFOLD_SOLID_BREP ( 'Revolve - Cutting Edge', #220 ) ;
#248 = CARTESIAN_POINT ( 'NONE',  ( 0.1874999999999999445, 2.500000000000000000, 0.000000000000000000 ) ) ;
#249 =( NAMED_UNIT ( * ) SI_UNIT ( $, .STERADIAN. ) SOLID_ANGLE_UNIT ( ) );
#250 = DIRECTION ( 'NONE',  ( 1.000000000000000000, 0.000000000000000000, -1.224646799147353207E-16 ) ) ;
#251 = PRESENTATION_STYLE_ASSIGNMENT (( #224 ) ) ;
#252 = ORIENTED_EDGE ( 'NONE', *, *, #346, .F. ) ;
#253 = DIRECTION ( 'NONE',  ( 0.000000000000000000, 0.000000000000000000, -1.000000000000000000 ) ) ;
#254 =( LENGTH_UNIT ( ) NAMED_UNIT ( * ) SI_UNIT ( $, .METRE. ) );
#255 = ORIENTED_EDGE ( 'NONE', *, *, #90, .T. ) ;
#256 = COLOUR_RGB ( '',1.000000000000000000, 0.000000000000000000, 0.000000000000000000 ) ;
#257 = CIRCLE ( 'NONE', #228, 0.1875000000000000555 ) ;
#258 = ADVANCED_FACE ( 'NONE', ( #172 ), #87, .F. ) ;
#259 = ORIENTED_EDGE ( 'NONE', *, *, #328, .F. ) ;
#260 = DIRECTION ( 'NONE',  ( -0.000000000000000000, -1.000000000000000000, -0.000000000000000000 ) ) ;
#261 = ORIENTED_EDGE ( 'NONE', *, *, #90, .F. ) ;
#262 = DIMENSIONAL_EXPONENTS ( 1.000000000000000000, 0.000000000000000000, 0.000000000000000000, 0.000000000000000000, 0.000000000000000000, 0.000000000000000000, 0.000000000000000000 ) ;
#263 = ADVANCED_FACE ( 'NONE', ( #219 ), #13, .T. ) ;
#264 = EDGE_CURVE ( 'NONE', #197, #283, #182, .T. ) ;
#265 =( CONVERSION_BASED_UNIT ( 'INCH', #170 ) LENGTH_UNIT ( ) NAMED_UNIT ( #58 ) );
#266 = DIRECTION ( 'NONE',  ( -0.000000000000000000, -1.000000000000000000, -0.000000000000000000 ) ) ;
#267 = VECTOR ( 'NONE', #287, 39.37007874015748143 ) ;
#268 = COLOUR_RGB ( '',1.000000000000000000, 0.000000000000000000, 0.000000000000000000 ) ;
#269 = SURFACE_STYLE_FILL_AREA ( #37 ) ;
#270 = DIRECTION ( 'NONE',  ( -1.224646799147352714E-16, 1.000000000000000000, -0.000000000000000000 ) ) ;
#271 = DIMENSIONAL_EXPONENTS ( 1.000000000000000000, 0.000000000000000000, 0.000000000000000000, 0.000000000000000000, 0.000000000000000000, 0.000000000000000000, 0.000000000000000000 ) ;
#272 = LENGTH_MEASURE_WITH_UNIT ( LENGTH_MEASURE( 0.02539999999999999897 ), #296 );
#273 =( GEOMETRIC_REPRESENTATION_CONTEXT ( 3 ) GLOBAL_UNCERTAINTY_ASSIGNED_CONTEXT ( ( #160 ) ) GLOBAL_UNIT_ASSIGNED_CONTEXT ( ( #265, #22, #143 ) ) REPRESENTATION_CONTEXT ( 'NONE', 'WORKASPACE' ) );
#274 =( CONVERSION_BASED_UNIT ( 'INCH', #30 ) LENGTH_UNIT ( ) NAMED_UNIT ( #235 ) );
#275 = COLOUR_RGB ( '',0.7921568627450980005, 0.8196078431372548767, 0.9333333333333333481 ) ;
#276 = CARTESIAN_POINT ( 'NONE',  ( 0.000000000000000000, 0.7500000000000001110, 0.000000000000000000 ) ) ;
#277 = EDGE_CURVE ( 'NONE', #283, #48, #92, .T. ) ;
#278 = SURFACE_STYLE_FILL_AREA ( #38 ) ;
#279 = CARTESIAN_POINT ( 'NONE',  ( 0.000000000000000000, 0.7500000000000001110, 0.000000000000000000 ) ) ;
#280 = AXIS2_PLACEMENT_3D ( 'NONE', #188, #43, #307 ) ;
#281 = VERTEX_POINT ( 'NONE', #102 ) ;
#282 = EDGE_CURVE ( 'NONE', #369, #197, #257, .T. ) ;
#283 = VERTEX_POINT ( 'NONE', #130 ) ;
#284 = AXIS2_PLACEMENT_3D ( 'NONE', #209, #145, #4 ) ;
#285 = DIRECTION ( 'NONE',  ( -0.000000000000000000, -1.000000000000000000, -0.000000000000000000 ) ) ;
#286 = VERTEX_POINT ( 'NONE', #181 ) ;
#287 = DIRECTION ( 'NONE',  ( -1.224646799147352714E-16, 1.000000000000000000, -0.000000000000000000 ) ) ;
#288 = ORIENTED_EDGE ( 'NONE', *, *, #277, .F. ) ;
#289 = APPLICATION_CONTEXT ( 'automotive_design' ) ;
#290 = CIRCLE ( 'NONE', #155, 0.1874999999999996669 ) ;
#291 =( CONVERSION_BASED_UNIT ( 'INCH', #322 ) LENGTH_UNIT ( ) NAMED_UNIT ( #200 ) );
#292 = CARTESIAN_POINT ( 'NONE',  ( 2.755455298081544778E-16, 0.7500000000000001110, 0.000000000000000000 ) ) ;
#293 = SURFACE_STYLE_USAGE ( .BOTH. , #325 ) ;
#294 = AXIS2_PLACEMENT_3D ( 'NONE', #279, #44, #18 ) ;
#295 = DIRECTION ( 'NONE',  ( -1.224646799147352714E-16, 1.000000000000000000, -0.000000000000000000 ) ) ;
#296 =( LENGTH_UNIT ( ) NAMED_UNIT ( * ) SI_UNIT ( $, .METRE. ) );
#297 = DIRECTION ( 'NONE',  ( 0.000000000000000000, 0.000000000000000000, -1.000000000000000000 ) ) ;
#298 = CIRCLE ( 'NONE', #213, 0.1874999999999998890 ) ;
#299 = ORIENTED_EDGE ( 'NONE', *, *, #47, .F. ) ;
#300 = LINE ( 'NONE', #326, #56 ) ;
#301 =( LENGTH_UNIT ( ) NAMED_UNIT ( * ) SI_UNIT ( $, .METRE. ) );
#302 = PRODUCT_CONTEXT ( 'NONE', #352, 'mechanical' ) ;
#303 = SHAPE_DEFINITION_REPRESENTATION ( #233, #191 ) ;
#304 = ORIENTED_EDGE ( 'NONE', *, *, #187, .T. ) ;
#305 = CARTESIAN_POINT ( 'NONE',  ( 0.000000000000000000, 0.1875000000000000555, 0.000000000000000000 ) ) ;
#306 = SURFACE_SIDE_STYLE ('',( #337 ) ) ;
#307 = DIRECTION ( 'NONE',  ( 0.000000000000000000, 0.000000000000000000, -1.000000000000000000 ) ) ;
#308 = CIRCLE ( 'NONE', #206, 0.1874999999999996669 ) ;
#309 = ORIENTED_EDGE ( 'NONE', *, *, #119, .T. ) ;
#310 = PRESENTATION_STYLE_ASSIGNMENT (( #67 ) ) ;
#311 = EDGE_LOOP ( 'NONE', ( #363, #139, #51, #193, #39 ) ) ;
#312 = UNCERTAINTY_MEASURE_WITH_UNIT (LENGTH_MEASURE( 1.000000000000000082E-05 ), #186, 'distance_accuracy_value', 'NONE');
#313 = ORIENTED_EDGE ( 'NONE', *, *, #153, .T. ) ;
#314 = CLOSED_SHELL ( 'NONE', ( #165, #258, #242, #218 ) ) ;
#315 = COLOUR_RGB ( '',1.000000000000000000, 0.000000000000000000, 0.000000000000000000 ) ;
#316 = FILL_AREA_STYLE_COLOUR ( '', #275 ) ;
#317 = VERTEX_POINT ( 'NONE', #359 ) ;
#318 = CYLINDRICAL_SURFACE ( 'NONE', #115, 0.1874999999999997780 ) ;
#319 = MECHANICAL_DESIGN_GEOMETRIC_PRESENTATION_REPRESENTATION (  '', ( #180 ), #273 ) ;
#320 = STYLED_ITEM ( 'NONE', ( #125 ), #321 ) ;
#321 = ADVANCED_FACE ( 'NONE', ( #151 ), #324, .T. ) ;
#322 = LENGTH_MEASURE_WITH_UNIT ( LENGTH_MEASURE( 0.02539999999999999897 ), #301 );
#323 = DIRECTION ( 'NONE',  ( -0.000000000000000000, -1.000000000000000000, -0.000000000000000000 ) ) ;
#324 = SPHERICAL_SURFACE ( 'NONE', #284, 0.1875000000000000555 ) ;
#325 = SURFACE_SIDE_STYLE ('',( #177 ) ) ;
#326 = CARTESIAN_POINT ( 'NONE',  ( 0.1874999999999998335, 2.500000000000000000, 2.296212748401284644E-17 ) ) ;
#327 = FILL_AREA_STYLE_COLOUR ( '', #344 ) ;
#328 = EDGE_CURVE ( 'NONE', #317, #281, #300, .T. ) ;
#329 = CARTESIAN_POINT ( 'NONE',  ( 0.000000000000000000, 0.7500000000000001110, 0.000000000000000000 ) ) ;
#330 = CIRCLE ( 'NONE', #163, 0.1874999999999999445 ) ;
#331 = LENGTH_MEASURE_WITH_UNIT ( LENGTH_MEASURE( 0.02539999999999999897 ), #336 );
#332 = FILL_AREA_STYLE_COLOUR ( '', #146 ) ;
#333 = LENGTH_MEASURE_WITH_UNIT ( LENGTH_MEASURE( 0.02539999999999999897 ), #131 );
#334 = SURFACE_SIDE_STYLE ('',( #278 ) ) ;
#335 = ORIENTED_EDGE ( 'NONE', *, *, #153, .F. ) ;
#336 =( LENGTH_UNIT ( ) NAMED_UNIT ( * ) SI_UNIT ( $, .METRE. ) );
#337 = SURFACE_STYLE_FILL_AREA ( #194 ) ;
#338 = CARTESIAN_POINT ( 'NONE',  ( 6.123233995736772199E-17, 2.500000000000000000, 0.000000000000000000 ) ) ;
#339 = UNCERTAINTY_MEASURE_WITH_UNIT (LENGTH_MEASURE( 1.000000000000000082E-05 ), #274, 'distance_accuracy_value', 'NONE');
#340 = EDGE_LOOP ( 'NONE', ( #304, #309, #368, #17, #299 ) ) ;
#341 = SURFACE_STYLE_USAGE ( .BOTH. , #207 ) ;
#342 = CARTESIAN_POINT ( 'NONE',  ( 0.000000000000000000, 0.1875000000000000555, -0.1875000000000000555 ) ) ;
#343 = PRESENTATION_LAYER_ASSIGNMENT (  '', '', ( #180 ) ) ;
#344 = COLOUR_RGB ( '',0.7921568627450980005, 0.8196078431372548767, 0.9333333333333333481 ) ;
#345 =( NAMED_UNIT ( * ) SI_UNIT ( $, .STERADIAN. ) SOLID_ANGLE_UNIT ( ) );
#346 = EDGE_CURVE ( 'NONE', #230, #281, #298, .T. ) ;
#347 = DIRECTION ( 'NONE',  ( -1.000000000000000000, 0.000000000000000000, 0.000000000000000000 ) ) ;
#348 = LENGTH_MEASURE_WITH_UNIT ( LENGTH_MEASURE( 0.02539999999999999897 ), #254 );
#349 = CARTESIAN_POINT ( 'NONE',  ( 6.123233995736772199E-17, 2.500000000000000000, 0.000000000000000000 ) ) ;
#350 = COLOUR_RGB ( '',1.000000000000000000, 0.000000000000000000, 0.000000000000000000 ) ;
#351 = FACE_OUTER_BOUND ( 'NONE', #108, .T. ) ;
#352 = APPLICATION_CONTEXT ( 'automotive_design' ) ;
#353 = DIRECTION ( 'NONE',  ( 0.000000000000000000, 0.000000000000000000, -1.000000000000000000 ) ) ;
#354 = STYLED_ITEM ( 'NONE', ( #203 ), #113 ) ;
#355 = LENGTH_MEASURE_WITH_UNIT ( LENGTH_MEASURE( 0.02539999999999999897 ), #148 );
#356 = CARTESIAN_POINT ( 'NONE',  ( 6.123233995736772199E-17, 2.500000000000000000, 0.000000000000000000 ) ) ;
#357 = DIRECTION ( 'NONE',  ( -1.224646799147352714E-16, 1.000000000000000000, -0.000000000000000000 ) ) ;
#358 = PRODUCT_DEFINITION_FORMATION_WITH_SPECIFIED_SOURCE ( 'ANY', '', #360, .NOT_KNOWN. ) ;
#359 = CARTESIAN_POINT ( 'NONE',  ( 0.1874999999999999445, 0.7499999999999998890, 2.296212748401284952E-17 ) ) ;
#360 = PRODUCT ( '82592', '82592', '', ( #302 ) ) ;
#361 = FILL_AREA_STYLE ('',( #227 ) ) ;
#362 = ADVANCED_FACE ( 'NONE', ( #179 ), #174, .T. ) ;
#363 = ORIENTED_EDGE ( 'NONE', *, *, #119, .F. ) ;
#364 = DIRECTION ( 'NONE',  ( 0.000000000000000000, 0.000000000000000000, 1.000000000000000000 ) ) ;
#365 = VERTEX_POINT ( 'NONE', #69 ) ;
#366 =( CONVERSION_BASED_UNIT ( 'INCH', #333 ) LENGTH_UNIT ( ) NAMED_UNIT ( #262 ) );
#367 = EDGE_LOOP ( 'NONE', ( #288, #19, #132, #255 ) ) ;
#368 = ORIENTED_EDGE ( 'NONE', *, *, #282, .F. ) ;
#369 = VERTEX_POINT ( 'NONE', #100 ) ;
#370 = AXIS2_PLACEMENT_3D ( 'NONE', #248, #59, #210 ) ;
#371 = FACE_OUTER_BOUND ( 'NONE', #79, .T. ) ;
#372 = DIRECTION ( 'NONE',  ( -1.000000000000000000, 0.000000000000000000, 0.000000000000000000 ) ) ;
#373 = UNCERTAINTY_MEASURE_WITH_UNIT (LENGTH_MEASURE( 1.000000000000000082E-05 ), #215, 'distance_accuracy_value', 'NONE');
ENDSEC;
END-ISO-10303-21;
