ISO-10303-21;
HEADER;
FILE_DESCRIPTION (( 'STEP AP214' ),
    '1' );
FILE_NAME ('84417.STEP',
    '2023-06-23T13:03:46',
    ( '' ),
    ( '' ),
    'SwSTEP 2.0',
    'SolidWorks 2023',
    '' );
FILE_SCHEMA (( 'AUTOMOTIVE_DESIGN' ));
ENDSEC;

DATA;
#1 = VECTOR ( 'NONE', #193, 39.37007874015748143 ) ;
#2 = ADVANCED_FACE ( 'NONE', ( #227 ), #68, .T. ) ;
#3 = CARTESIAN_POINT ( 'NONE',  ( 7.654042494670957545E-18, 0.6250000000000000000, 0.06250000000000000000 ) ) ;
#4 = ADVANCED_BREP_SHAPE_REPRESENTATION ( '84417', ( #128, #39, #284 ), #27 ) ;
#5 =( NAMED_UNIT ( * ) SI_UNIT ( $, .STERADIAN. ) SOLID_ANGLE_UNIT ( ) );
#6 = CIRCLE ( 'NONE', #119, 0.06250000000000005551 ) ;
#7 = EDGE_LOOP ( 'NONE', ( #225, #221, #302, #46 ) ) ;
#8 = STYLED_ITEM ( 'NONE', ( #264 ), #128 ) ;
#9 = CARTESIAN_POINT ( 'NONE',  ( 0.06250000000000000000, 2.500000000000000000, 7.654042494670963708E-18 ) ) ;
#10 = EDGE_LOOP ( 'NONE', ( #36, #122, #97, #192 ) ) ;
#11 = LINE ( 'NONE', #101, #206 ) ;
#12 = ADVANCED_FACE ( 'NONE', ( #199 ), #308, .T. ) ;
#13 =( GEOMETRIC_REPRESENTATION_CONTEXT ( 3 ) GLOBAL_UNCERTAINTY_ASSIGNED_CONTEXT ( ( #245 ) ) GLOBAL_UNIT_ASSIGNED_CONTEXT ( ( #215, #239, #76 ) ) REPRESENTATION_CONTEXT ( 'NONE', 'WORKASPACE' ) );
#14 = CYLINDRICAL_SURFACE ( 'NONE', #112, 0.06250000000000000000 ) ;
#15 = SURFACE_STYLE_FILL_AREA ( #40 ) ;
#16 = SURFACE_STYLE_USAGE ( .BOTH. , #79 ) ;
#17 = PRODUCT ( '84417', '84417', '', ( #51 ) ) ;
#18 = DIRECTION ( 'NONE',  ( 0.000000000000000000, 0.000000000000000000, -1.000000000000000000 ) ) ;
#19 = SURFACE_STYLE_FILL_AREA ( #179 ) ;
#20 = ORIENTED_EDGE ( 'NONE', *, *, #275, .F. ) ;
#21 = CIRCLE ( 'NONE', #149, 0.06250000000000000000 ) ;
#22 = DIRECTION ( 'NONE',  ( 0.000000000000000000, -1.000000000000000000, -0.000000000000000000 ) ) ;
#23 = FILL_AREA_STYLE ('',( #230 ) ) ;
#24 = PRESENTATION_STYLE_ASSIGNMENT (( #80 ) ) ;
#25 = MECHANICAL_DESIGN_GEOMETRIC_PRESENTATION_REPRESENTATION (  '', ( #293 ), #238 ) ;
#26 = MECHANICAL_DESIGN_GEOMETRIC_PRESENTATION_REPRESENTATION (  '', ( #183 ), #178 ) ;
#27 =( GEOMETRIC_REPRESENTATION_CONTEXT ( 3 ) GLOBAL_UNCERTAINTY_ASSIGNED_CONTEXT ( ( #258 ) ) GLOBAL_UNIT_ASSIGNED_CONTEXT ( ( #191, #54, #222 ) ) REPRESENTATION_CONTEXT ( 'NONE', 'WORKASPACE' ) );
#28 = SURFACE_STYLE_FILL_AREA ( #23 ) ;
#29 =( NAMED_UNIT ( * ) SI_UNIT ( $, .STERADIAN. ) SOLID_ANGLE_UNIT ( ) );
#30 = AXIS2_PLACEMENT_3D ( 'NONE', #297, #96, #94 ) ;
#31 = LINE ( 'NONE', #268, #1 ) ;
#32 =( LENGTH_UNIT ( ) NAMED_UNIT ( * ) SI_UNIT ( $, .METRE. ) );
#33 = FILL_AREA_STYLE_COLOUR ( '', #272 ) ;
#34 = COLOUR_RGB ( '',1.000000000000000000, 0.000000000000000000, 0.000000000000000000 ) ;
#35 = DIRECTION ( 'NONE',  ( 0.000000000000000000, 0.000000000000000000, -1.000000000000000000 ) ) ;
#36 = ORIENTED_EDGE ( 'NONE', *, *, #157, .F. ) ;
#37 = CARTESIAN_POINT ( 'NONE',  ( -6.123233995736766036E-17, 2.500000000000000000, 0.000000000000000000 ) ) ;
#38 = VERTEX_POINT ( 'NONE', #61 ) ;
#39 = MANIFOLD_SOLID_BREP ( 'Revolve - Tool Body (Straight Shanked)', #237 ) ;
#40 = FILL_AREA_STYLE ('',( #228 ) ) ;
#41 = APPLICATION_CONTEXT ( 'automotive_design' ) ;
#42 = AXIS2_PLACEMENT_3D ( 'NONE', #98, #55, #95 ) ;
#43 = UNCERTAINTY_MEASURE_WITH_UNIT (LENGTH_MEASURE( 1.000000000000000082E-05 ), #236, 'distance_accuracy_value', 'NONE');
#44 = DIRECTION ( 'NONE',  ( -3.265724797726275178E-17, 1.000000000000000000, -0.000000000000000000 ) ) ;
#45 = VERTEX_POINT ( 'NONE', #161 ) ;
#46 = ORIENTED_EDGE ( 'NONE', *, *, #240, .F. ) ;
#47 = VECTOR ( 'NONE', #267, 39.37007874015748143 ) ;
#48 =( NAMED_UNIT ( * ) SI_UNIT ( $, .STERADIAN. ) SOLID_ANGLE_UNIT ( ) );
#49 =( NAMED_UNIT ( * ) PLANE_ANGLE_UNIT ( ) SI_UNIT ( $, .RADIAN. ) );
#50 = AXIS2_PLACEMENT_3D ( 'NONE', #263, #140, #235 ) ;
#51 = PRODUCT_CONTEXT ( 'NONE', #41, 'mechanical' ) ;
#52 = EDGE_CURVE ( 'NONE', #64, #130, #102, .T. ) ;
#53 = LENGTH_MEASURE_WITH_UNIT ( LENGTH_MEASURE( 0.02539999999999999897 ), #205 );
#54 =( NAMED_UNIT ( * ) PLANE_ANGLE_UNIT ( ) SI_UNIT ( $, .RADIAN. ) );
#55 = DIRECTION ( 'NONE',  ( -0.000000000000000000, -1.000000000000000000, -0.000000000000000000 ) ) ;
#56 = DIRECTION ( 'NONE',  ( 0.000000000000000000, 0.000000000000000000, -1.000000000000000000 ) ) ;
#57 = DIRECTION ( 'NONE',  ( -3.265724797726275178E-17, 1.000000000000000000, 0.000000000000000000 ) ) ;
#58 = APPLICATION_PROTOCOL_DEFINITION ( 'draft international standard', 'automotive_design', 1998, #41 ) ;
#59 =( GEOMETRIC_REPRESENTATION_CONTEXT ( 3 ) GLOBAL_UNCERTAINTY_ASSIGNED_CONTEXT ( ( #226 ) ) GLOBAL_UNIT_ASSIGNED_CONTEXT ( ( #175, #282, #246 ) ) REPRESENTATION_CONTEXT ( 'NONE', 'WORKASPACE' ) );
#60 = DIRECTION ( 'NONE',  ( 0.000000000000000000, 0.000000000000000000, 1.000000000000000000 ) ) ;
#61 = CARTESIAN_POINT ( 'NONE',  ( 7.654042494670957545E-18, 0.000000000000000000, 0.06250000000000000000 ) ) ;
#62 = PRESENTATION_LAYER_ASSIGNMENT (  '', '', ( #183 ) ) ;
#63 = CARTESIAN_POINT ( 'NONE',  ( 0.000000000000000000, 0.000000000000000000, 0.000000000000000000 ) ) ;
#64 = VERTEX_POINT ( 'NONE', #3 ) ;
#65 = VERTEX_POINT ( 'NONE', #135 ) ;
#66 = DIMENSIONAL_EXPONENTS ( 1.000000000000000000, 0.000000000000000000, 0.000000000000000000, 0.000000000000000000, 0.000000000000000000, 0.000000000000000000, 0.000000000000000000 ) ;
#67 = DIRECTION ( 'NONE',  ( -3.265724797726275178E-17, 1.000000000000000000, -0.000000000000000000 ) ) ;
#68 = PLANE ( 'NONE',  #148 ) ;
#69 = ADVANCED_FACE ( 'NONE', ( #188 ), #158, .T. ) ;
#70 = SURFACE_STYLE_USAGE ( .BOTH. , #159 ) ;
#71 = SURFACE_SIDE_STYLE ('',( #118 ) ) ;
#72 = PRESENTATION_STYLE_ASSIGNMENT (( #109 ) ) ;
#73 = AXIS2_PLACEMENT_3D ( 'NONE', #234, #187, #207 ) ;
#74 = PRODUCT_DEFINITION ( 'UNKNOWN', '', #137, #145 ) ;
#75 =( CONVERSION_BASED_UNIT ( 'INCH', #86 ) LENGTH_UNIT ( ) NAMED_UNIT ( #251 ) );
#76 =( NAMED_UNIT ( * ) SI_UNIT ( $, .STERADIAN. ) SOLID_ANGLE_UNIT ( ) );
#77 = ORIENTED_EDGE ( 'NONE', *, *, #244, .F. ) ;
#78 = VECTOR ( 'NONE', #211, 39.37007874015748143 ) ;
#79 = SURFACE_SIDE_STYLE ('',( #19 ) ) ;
#80 = SURFACE_STYLE_USAGE ( .BOTH. , #121 ) ;
#81 = UNCERTAINTY_MEASURE_WITH_UNIT (LENGTH_MEASURE( 1.000000000000000082E-05 ), #75, 'distance_accuracy_value', 'NONE');
#82 =( NAMED_UNIT ( * ) SI_UNIT ( $, .STERADIAN. ) SOLID_ANGLE_UNIT ( ) );
#83 = VERTEX_POINT ( 'NONE', #181 ) ;
#84 = ORIENTED_EDGE ( 'NONE', *, *, #52, .F. ) ;
#85 = ADVANCED_FACE ( 'NONE', ( #292 ), #259, .T. ) ;
#86 = LENGTH_MEASURE_WITH_UNIT ( LENGTH_MEASURE( 0.02539999999999999897 ), #138 );
#87 = PRESENTATION_LAYER_ASSIGNMENT (  '', '', ( #223 ) ) ;
#88 = COLOUR_RGB ( '',0.7921568627450980005, 0.8196078431372548767, 0.9333333333333333481 ) ;
#89 = CYLINDRICAL_SURFACE ( 'NONE', #266, 0.06250000000000002776 ) ;
#90 = FILL_AREA_STYLE ('',( #111 ) ) ;
#91 = EDGE_CURVE ( 'NONE', #45, #38, #243, .T. ) ;
#92 = LENGTH_MEASURE_WITH_UNIT ( LENGTH_MEASURE( 0.02539999999999999897 ), #115 );
#93 = AXIS2_PLACEMENT_3D ( 'NONE', #37, #173, #220 ) ;
#94 = DIRECTION ( 'NONE',  ( 1.000000000000000000, 3.265724797726275178E-17, 0.000000000000000000 ) ) ;
#95 = DIRECTION ( 'NONE',  ( 0.000000000000000000, 0.000000000000000000, -1.000000000000000000 ) ) ;
#96 = DIRECTION ( 'NONE',  ( 3.265724797726275178E-17, -1.000000000000000000, 0.000000000000000000 ) ) ;
#97 = ORIENTED_EDGE ( 'NONE', *, *, #290, .T. ) ;
#98 = CARTESIAN_POINT ( 'NONE',  ( 0.000000000000000000, 0.000000000000000000, 0.000000000000000000 ) ) ;
#99 = PRESENTATION_LAYER_ASSIGNMENT (  '', '', ( #8 ) ) ;
#100 = FACE_OUTER_BOUND ( 'NONE', #255, .T. ) ;
#101 = CARTESIAN_POINT ( 'NONE',  ( -0.06250000000000009714, 2.500000000000000000, 0.000000000000000000 ) ) ;
#102 = CIRCLE ( 'NONE', #288, 0.06250000000000000000 ) ;
#103 = DIRECTION ( 'NONE',  ( -0.000000000000000000, -1.000000000000000000, -0.000000000000000000 ) ) ;
#104 = SURFACE_SIDE_STYLE ('',( #15 ) ) ;
#105 = ORIENTED_EDGE ( 'NONE', *, *, #240, .T. ) ;
#106 =( LENGTH_UNIT ( ) NAMED_UNIT ( * ) SI_UNIT ( $, .METRE. ) );
#107 = CLOSED_SHELL ( 'NONE', ( #168, #69, #85, #2 ) ) ;
#108 = VERTEX_POINT ( 'NONE', #9 ) ;
#109 = SURFACE_STYLE_USAGE ( .BOTH. , #114 ) ;
#110 = FACE_OUTER_BOUND ( 'NONE', #253, .T. ) ;
#111 = FILL_AREA_STYLE_COLOUR ( '', #34 ) ;
#112 = AXIS2_PLACEMENT_3D ( 'NONE', #63, #150, #18 ) ;
#113 = ADVANCED_FACE ( 'NONE', ( #100 ), #213, .F. ) ;
#114 = SURFACE_SIDE_STYLE ('',( #28 ) ) ;
#115 =( LENGTH_UNIT ( ) NAMED_UNIT ( * ) SI_UNIT ( $, .METRE. ) );
#116 = APPLICATION_PROTOCOL_DEFINITION ( 'draft international standard', 'automotive_design', 1998, #265 ) ;
#117 = DIRECTION ( 'NONE',  ( -3.265724797726275178E-17, 1.000000000000000000, -0.000000000000000000 ) ) ;
#118 = SURFACE_STYLE_FILL_AREA ( #90 ) ;
#119 = AXIS2_PLACEMENT_3D ( 'NONE', #169, #117, #165 ) ;
#120 =( NAMED_UNIT ( * ) PLANE_ANGLE_UNIT ( ) SI_UNIT ( $, .RADIAN. ) );
#121 = SURFACE_SIDE_STYLE ('',( #160 ) ) ;
#122 = ORIENTED_EDGE ( 'NONE', *, *, #52, .T. ) ;
#123 = STYLED_ITEM ( 'NONE', ( #24 ), #168 ) ;
#124 = EDGE_CURVE ( 'NONE', #65, #198, #277, .T. ) ;
#125 = FILL_AREA_STYLE_COLOUR ( '', #134 ) ;
#126 = UNCERTAINTY_MEASURE_WITH_UNIT (LENGTH_MEASURE( 1.000000000000000082E-05 ), #185, 'distance_accuracy_value', 'NONE');
#127 = EDGE_LOOP ( 'NONE', ( #216, #84 ) ) ;
#128 = MANIFOLD_SOLID_BREP ( 'Revolve - Cutting Edge', #107 ) ;
#129 = AXIS2_PLACEMENT_3D ( 'NONE', #260, #67, #296 ) ;
#130 = VERTEX_POINT ( 'NONE', #231 ) ;
#131 = DIMENSIONAL_EXPONENTS ( 1.000000000000000000, 0.000000000000000000, 0.000000000000000000, 0.000000000000000000, 0.000000000000000000, 0.000000000000000000, 0.000000000000000000 ) ;
#132 =( NAMED_UNIT ( * ) PLANE_ANGLE_UNIT ( ) SI_UNIT ( $, .RADIAN. ) );
#133 = DIRECTION ( 'NONE',  ( -3.265724797726275178E-17, 1.000000000000000000, -0.000000000000000000 ) ) ;
#134 = COLOUR_RGB ( '',1.000000000000000000, 0.000000000000000000, 0.000000000000000000 ) ;
#135 = CARTESIAN_POINT ( 'NONE',  ( 0.06250000000000000000, 0.6250000000000000000, 7.654042494670963708E-18 ) ) ;
#136 = STYLED_ITEM ( 'NONE', ( #72 ), #85 ) ;
#137 = PRODUCT_DEFINITION_FORMATION_WITH_SPECIFIED_SOURCE ( 'ANY', '', #17, .NOT_KNOWN. ) ;
#138 =( LENGTH_UNIT ( ) NAMED_UNIT ( * ) SI_UNIT ( $, .METRE. ) );
#139 = SURFACE_STYLE_FILL_AREA ( #295 ) ;
#140 = DIRECTION ( 'NONE',  ( 0.000000000000000000, 1.000000000000000000, 0.000000000000000000 ) ) ;
#141 = LENGTH_MEASURE_WITH_UNIT ( LENGTH_MEASURE( 0.02539999999999999897 ), #184 );
#142 = FACE_OUTER_BOUND ( 'NONE', #154, .T. ) ;
#143 = ORIENTED_EDGE ( 'NONE', *, *, #281, .T. ) ;
#144 = DIRECTION ( 'NONE',  ( -1.000000000000000000, -3.265724797726275178E-17, 0.000000000000000000 ) ) ;
#145 = PRODUCT_DEFINITION_CONTEXT ( 'detailed design', #265, 'design' ) ;
#146 = LINE ( 'NONE', #248, #47 ) ;
#147 = ORIENTED_EDGE ( 'NONE', *, *, #157, .T. ) ;
#148 = AXIS2_PLACEMENT_3D ( 'NONE', #176, #22, #172 ) ;
#149 = AXIS2_PLACEMENT_3D ( 'NONE', #200, #103, #307 ) ;
#150 = DIRECTION ( 'NONE',  ( -0.000000000000000000, -1.000000000000000000, -0.000000000000000000 ) ) ;
#151 = ORIENTED_EDGE ( 'NONE', *, *, #91, .F. ) ;
#152 = ORIENTED_EDGE ( 'NONE', *, *, #290, .F. ) ;
#153 = ADVANCED_FACE ( 'NONE', ( #110 ), #89, .T. ) ;
#154 = EDGE_LOOP ( 'NONE', ( #143, #147, #151, #152 ) ) ;
#155 = PRESENTATION_LAYER_ASSIGNMENT (  '', '', ( #136 ) ) ;
#156 = PRESENTATION_STYLE_ASSIGNMENT (( #186 ) ) ;
#157 = EDGE_CURVE ( 'NONE', #64, #38, #146, .T. ) ;
#158 = PLANE ( 'NONE',  #50 ) ;
#159 = SURFACE_SIDE_STYLE ('',( #139 ) ) ;
#160 = SURFACE_STYLE_FILL_AREA ( #306 ) ;
#161 = CARTESIAN_POINT ( 'NONE',  ( 0.000000000000000000, 0.000000000000000000, -0.06250000000000000000 ) ) ;
#162 = PRESENTATION_LAYER_ASSIGNMENT (  '', '', ( #123 ) ) ;
#163 = DIRECTION ( 'NONE',  ( -1.000000000000000000, 0.000000000000000000, 0.000000000000000000 ) ) ;
#164 = DIRECTION ( 'NONE',  ( 0.000000000000000000, 0.000000000000000000, -1.000000000000000000 ) ) ;
#165 = DIRECTION ( 'NONE',  ( -1.000000000000000000, 0.000000000000000000, 0.000000000000000000 ) ) ;
#166 = DIRECTION ( 'NONE',  ( -0.000000000000000000, -1.000000000000000000, -0.000000000000000000 ) ) ;
#167 = AXIS2_PLACEMENT_3D ( 'NONE', #241, #274, #56 ) ;
#168 = ADVANCED_FACE ( 'NONE', ( #142 ), #14, .T. ) ;
#169 = CARTESIAN_POINT ( 'NONE',  ( -6.123233995736766036E-17, 2.500000000000000000, 0.000000000000000000 ) ) ;
#170 = ORIENTED_EDGE ( 'NONE', *, *, #124, .T. ) ;
#171 = MECHANICAL_DESIGN_GEOMETRIC_PRESENTATION_REPRESENTATION (  '', ( #8 ), #196 ) ;
#172 = DIRECTION ( 'NONE',  ( 0.000000000000000000, 0.000000000000000000, -1.000000000000000000 ) ) ;
#173 = DIRECTION ( 'NONE',  ( -3.265724797726275178E-17, 1.000000000000000000, -0.000000000000000000 ) ) ;
#174 = EDGE_LOOP ( 'NONE', ( #283, #204 ) ) ;
#175 =( CONVERSION_BASED_UNIT ( 'INCH', #53 ) LENGTH_UNIT ( ) NAMED_UNIT ( #286 ) );
#176 = CARTESIAN_POINT ( 'NONE',  ( 0.000000000000000000, 0.000000000000000000, 0.000000000000000000 ) ) ;
#177 = PRODUCT_DEFINITION_SHAPE ( 'NONE', 'NONE',  #74 ) ;
#178 =( GEOMETRIC_REPRESENTATION_CONTEXT ( 3 ) GLOBAL_UNCERTAINTY_ASSIGNED_CONTEXT ( ( #81 ) ) GLOBAL_UNIT_ASSIGNED_CONTEXT ( ( #75, #49, #29 ) ) REPRESENTATION_CONTEXT ( 'NONE', 'WORKASPACE' ) );
#179 = FILL_AREA_STYLE ('',( #125 ) ) ;
#180 = DIRECTION ( 'NONE',  ( -3.265724797726275178E-17, 1.000000000000000000, -0.000000000000000000 ) ) ;
#181 = CARTESIAN_POINT ( 'NONE',  ( -0.06250000000000012490, 2.500000000000000000, 0.000000000000000000 ) ) ;
#182 = DIRECTION ( 'NONE',  ( 1.000000000000000000, 0.000000000000000000, 0.000000000000000000 ) ) ;
#183 = STYLED_ITEM ( 'NONE', ( #156 ), #69 ) ;
#184 =( LENGTH_UNIT ( ) NAMED_UNIT ( * ) SI_UNIT ( $, .METRE. ) );
#185 =( CONVERSION_BASED_UNIT ( 'INCH', #261 ) LENGTH_UNIT ( ) NAMED_UNIT ( #249 ) );
#186 = SURFACE_STYLE_USAGE ( .BOTH. , #71 ) ;
#187 = DIRECTION ( 'NONE',  ( -3.265724797726275178E-17, 1.000000000000000000, -0.000000000000000000 ) ) ;
#188 = FACE_OUTER_BOUND ( 'NONE', #127, .T. ) ;
#189 = EDGE_CURVE ( 'NONE', #38, #45, #21, .T. ) ;
#190 = FACE_OUTER_BOUND ( 'NONE', #299, .T. ) ;
#191 =( CONVERSION_BASED_UNIT ( 'INCH', #219 ) LENGTH_UNIT ( ) NAMED_UNIT ( #66 ) );
#192 = ORIENTED_EDGE ( 'NONE', *, *, #189, .F. ) ;
#193 = DIRECTION ( 'NONE',  ( -3.265724797726275178E-17, 1.000000000000000000, -0.000000000000000000 ) ) ;
#194 = COLOUR_RGB ( '',0.7921568627450980005, 0.8196078431372548767, 0.9333333333333333481 ) ;
#195 = AXIS2_PLACEMENT_3D ( 'NONE', #269, #166, #35 ) ;
#196 =( GEOMETRIC_REPRESENTATION_CONTEXT ( 3 ) GLOBAL_UNCERTAINTY_ASSIGNED_CONTEXT ( ( #43 ) ) GLOBAL_UNIT_ASSIGNED_CONTEXT ( ( #236, #120, #48 ) ) REPRESENTATION_CONTEXT ( 'NONE', 'WORKASPACE' ) );
#197 = DIMENSIONAL_EXPONENTS ( 1.000000000000000000, 0.000000000000000000, 0.000000000000000000, 0.000000000000000000, 0.000000000000000000, 0.000000000000000000, 0.000000000000000000 ) ;
#198 = VERTEX_POINT ( 'NONE', #276 ) ;
#199 = FACE_OUTER_BOUND ( 'NONE', #7, .T. ) ;
#200 = CARTESIAN_POINT ( 'NONE',  ( 0.000000000000000000, 0.000000000000000000, 0.000000000000000000 ) ) ;
#201 =( NAMED_UNIT ( * ) PLANE_ANGLE_UNIT ( ) SI_UNIT ( $, .RADIAN. ) );
#202 =( GEOMETRIC_REPRESENTATION_CONTEXT ( 3 ) GLOBAL_UNCERTAINTY_ASSIGNED_CONTEXT ( ( #289 ) ) GLOBAL_UNIT_ASSIGNED_CONTEXT ( ( #203, #201, #82 ) ) REPRESENTATION_CONTEXT ( 'NONE', 'WORKASPACE' ) );
#203 =( CONVERSION_BASED_UNIT ( 'INCH', #280 ) LENGTH_UNIT ( ) NAMED_UNIT ( #197 ) );
#204 = ORIENTED_EDGE ( 'NONE', *, *, #189, .T. ) ;
#205 =( LENGTH_UNIT ( ) NAMED_UNIT ( * ) SI_UNIT ( $, .METRE. ) );
#206 = VECTOR ( 'NONE', #180, 39.37007874015748143 ) ;
#207 = DIRECTION ( 'NONE',  ( -1.000000000000000000, 0.000000000000000000, 0.000000000000000000 ) ) ;
#208 = SHAPE_DEFINITION_REPRESENTATION ( #177, #4 ) ;
#209 =( LENGTH_UNIT ( ) NAMED_UNIT ( * ) SI_UNIT ( $, .METRE. ) );
#210 = PRODUCT_RELATED_PRODUCT_CATEGORY ( 'part', '', ( #17 ) ) ;
#211 = DIRECTION ( 'NONE',  ( -0.000000000000000000, -1.000000000000000000, -0.000000000000000000 ) ) ;
#212 = MECHANICAL_DESIGN_GEOMETRIC_PRESENTATION_REPRESENTATION (  '', ( #223 ), #202 ) ;
#213 = PLANE ( 'NONE',  #224 ) ;
#214 = MECHANICAL_DESIGN_GEOMETRIC_PRESENTATION_REPRESENTATION (  '', ( #123 ), #59 ) ;
#215 =( CONVERSION_BASED_UNIT ( 'INCH', #141 ) LENGTH_UNIT ( ) NAMED_UNIT ( #131 ) );
#216 = ORIENTED_EDGE ( 'NONE', *, *, #281, .F. ) ;
#217 = CARTESIAN_POINT ( 'NONE',  ( 0.000000000000000000, 0.000000000000000000, -0.06250000000000000000 ) ) ;
#218 = EDGE_CURVE ( 'NONE', #83, #108, #229, .T. ) ;
#219 = LENGTH_MEASURE_WITH_UNIT ( LENGTH_MEASURE( 0.02539999999999999897 ), #32 );
#220 = DIRECTION ( 'NONE',  ( -1.000000000000000000, 0.000000000000000000, 0.000000000000000000 ) ) ;
#221 = ORIENTED_EDGE ( 'NONE', *, *, #270, .T. ) ;
#222 =( NAMED_UNIT ( * ) SI_UNIT ( $, .STERADIAN. ) SOLID_ANGLE_UNIT ( ) );
#223 = STYLED_ITEM ( 'NONE', ( #250 ), #2 ) ;
#224 = AXIS2_PLACEMENT_3D ( 'NONE', #273, #57, #144 ) ;
#225 = ORIENTED_EDGE ( 'NONE', *, *, #244, .T. ) ;
#226 = UNCERTAINTY_MEASURE_WITH_UNIT (LENGTH_MEASURE( 1.000000000000000082E-05 ), #175, 'distance_accuracy_value', 'NONE');
#227 = FACE_OUTER_BOUND ( 'NONE', #174, .T. ) ;
#228 = FILL_AREA_STYLE_COLOUR ( '', #194 ) ;
#229 = CIRCLE ( 'NONE', #93, 0.06250000000000005551 ) ;
#230 = FILL_AREA_STYLE_COLOUR ( '', #257 ) ;
#231 = CARTESIAN_POINT ( 'NONE',  ( 0.000000000000000000, 0.6250000000000000000, -0.06250000000000000000 ) ) ;
#232 = PRESENTATION_STYLE_ASSIGNMENT (( #304 ) ) ;
#233 = DIRECTION ( 'NONE',  ( -0.000000000000000000, -1.000000000000000000, -0.000000000000000000 ) ) ;
#234 = CARTESIAN_POINT ( 'NONE',  ( 0.000000000000000000, 0.6250000000000000000, 0.000000000000000000 ) ) ;
#235 = DIRECTION ( 'NONE',  ( 0.000000000000000000, -0.000000000000000000, 1.000000000000000000 ) ) ;
#236 =( CONVERSION_BASED_UNIT ( 'INCH', #92 ) LENGTH_UNIT ( ) NAMED_UNIT ( #254 ) );
#237 = CLOSED_SHELL ( 'NONE', ( #12, #113, #153, #301 ) ) ;
#238 =( GEOMETRIC_REPRESENTATION_CONTEXT ( 3 ) GLOBAL_UNCERTAINTY_ASSIGNED_CONTEXT ( ( #126 ) ) GLOBAL_UNIT_ASSIGNED_CONTEXT ( ( #185, #132, #5 ) ) REPRESENTATION_CONTEXT ( 'NONE', 'WORKASPACE' ) );
#239 =( NAMED_UNIT ( * ) PLANE_ANGLE_UNIT ( ) SI_UNIT ( $, .RADIAN. ) );
#240 = EDGE_CURVE ( 'NONE', #198, #83, #11, .T. ) ;
#241 = CARTESIAN_POINT ( 'NONE',  ( 0.000000000000000000, 0.6250000000000000000, 0.000000000000000000 ) ) ;
#242 = LINE ( 'NONE', #217, #78 ) ;
#243 = CIRCLE ( 'NONE', #195, 0.06250000000000000000 ) ;
#244 = EDGE_CURVE ( 'NONE', #198, #65, #298, .T. ) ;
#245 = UNCERTAINTY_MEASURE_WITH_UNIT (LENGTH_MEASURE( 1.000000000000000082E-05 ), #215, 'distance_accuracy_value', 'NONE');
#246 =( NAMED_UNIT ( * ) SI_UNIT ( $, .STERADIAN. ) SOLID_ANGLE_UNIT ( ) );
#247 = ORIENTED_EDGE ( 'NONE', *, *, #275, .T. ) ;
#248 = CARTESIAN_POINT ( 'NONE',  ( 7.654042494670957545E-18, 0.000000000000000000, 0.06250000000000000000 ) ) ;
#249 = DIMENSIONAL_EXPONENTS ( 1.000000000000000000, 0.000000000000000000, 0.000000000000000000, 0.000000000000000000, 0.000000000000000000, 0.000000000000000000, 0.000000000000000000 ) ;
#250 = PRESENTATION_STYLE_ASSIGNMENT (( #16 ) ) ;
#251 = DIMENSIONAL_EXPONENTS ( 1.000000000000000000, 0.000000000000000000, 0.000000000000000000, 0.000000000000000000, 0.000000000000000000, 0.000000000000000000, 0.000000000000000000 ) ;
#252 = CARTESIAN_POINT ( 'NONE',  ( -6.123233995736766036E-17, 2.500000000000000000, 0.000000000000000000 ) ) ;
#253 = EDGE_LOOP ( 'NONE', ( #300, #170, #105, #20 ) ) ;
#254 = DIMENSIONAL_EXPONENTS ( 1.000000000000000000, 0.000000000000000000, 0.000000000000000000, 0.000000000000000000, 0.000000000000000000, 0.000000000000000000, 0.000000000000000000 ) ;
#255 = EDGE_LOOP ( 'NONE', ( #77, #305 ) ) ;
#256 = PRESENTATION_LAYER_ASSIGNMENT (  '', '', ( #293 ) ) ;
#257 = COLOUR_RGB ( '',1.000000000000000000, 0.000000000000000000, 0.000000000000000000 ) ;
#258 = UNCERTAINTY_MEASURE_WITH_UNIT (LENGTH_MEASURE( 1.000000000000000082E-05 ), #191, 'distance_accuracy_value', 'NONE');
#259 = CYLINDRICAL_SURFACE ( 'NONE', #42, 0.06250000000000000000 ) ;
#260 = CARTESIAN_POINT ( 'NONE',  ( 0.000000000000000000, 0.6250000000000000000, 0.000000000000000000 ) ) ;
#261 = LENGTH_MEASURE_WITH_UNIT ( LENGTH_MEASURE( 0.02539999999999999897 ), #209 );
#262 = CARTESIAN_POINT ( 'NONE',  ( -6.123233995736766036E-17, 2.500000000000000000, 0.000000000000000000 ) ) ;
#263 = CARTESIAN_POINT ( 'NONE',  ( 0.000000000000000000, 0.6250000000000000000, 0.000000000000000000 ) ) ;
#264 = PRESENTATION_STYLE_ASSIGNMENT (( #70 ) ) ;
#265 = APPLICATION_CONTEXT ( 'automotive_design' ) ;
#266 = AXIS2_PLACEMENT_3D ( 'NONE', #262, #133, #163 ) ;
#267 = DIRECTION ( 'NONE',  ( -0.000000000000000000, -1.000000000000000000, -0.000000000000000000 ) ) ;
#268 = CARTESIAN_POINT ( 'NONE',  ( 0.06249999999999997224, 2.500000000000000000, 7.654042494670960626E-18 ) ) ;
#269 = CARTESIAN_POINT ( 'NONE',  ( 0.000000000000000000, 0.000000000000000000, 0.000000000000000000 ) ) ;
#270 = EDGE_CURVE ( 'NONE', #65, #108, #31, .T. ) ;
#271 = AXIS2_PLACEMENT_3D ( 'NONE', #252, #44, #279 ) ;
#272 = COLOUR_RGB ( '',1.000000000000000000, 0.000000000000000000, 0.000000000000000000 ) ;
#273 = CARTESIAN_POINT ( 'NONE',  ( 3.332799517026350632E-35, 0.6250000000000000000, 0.000000000000000000 ) ) ;
#274 = DIRECTION ( 'NONE',  ( -0.000000000000000000, -1.000000000000000000, -0.000000000000000000 ) ) ;
#275 = EDGE_CURVE ( 'NONE', #108, #83, #6, .T. ) ;
#276 = CARTESIAN_POINT ( 'NONE',  ( -0.06250000000000000000, 0.6250000000000000000, 0.000000000000000000 ) ) ;
#277 = CIRCLE ( 'NONE', #73, 0.06250000000000000000 ) ;
#278 = CARTESIAN_POINT ( 'NONE',  ( 0.000000000000000000, 0.000000000000000000, 0.000000000000000000 ) ) ;
#279 = DIRECTION ( 'NONE',  ( -1.000000000000000000, 0.000000000000000000, 0.000000000000000000 ) ) ;
#280 = LENGTH_MEASURE_WITH_UNIT ( LENGTH_MEASURE( 0.02539999999999999897 ), #106 );
#281 = EDGE_CURVE ( 'NONE', #130, #64, #303, .T. ) ;
#282 =( NAMED_UNIT ( * ) PLANE_ANGLE_UNIT ( ) SI_UNIT ( $, .RADIAN. ) );
#283 = ORIENTED_EDGE ( 'NONE', *, *, #91, .T. ) ;
#284 = AXIS2_PLACEMENT_3D ( 'NONE', #278, #60, #182 ) ;
#285 = CARTESIAN_POINT ( 'NONE',  ( 0.000000000000000000, 0.6250000000000000000, 0.000000000000000000 ) ) ;
#286 = DIMENSIONAL_EXPONENTS ( 1.000000000000000000, 0.000000000000000000, 0.000000000000000000, 0.000000000000000000, 0.000000000000000000, 0.000000000000000000, 0.000000000000000000 ) ;
#287 = ORIENTED_EDGE ( 'NONE', *, *, #218, .T. ) ;
#288 = AXIS2_PLACEMENT_3D ( 'NONE', #285, #233, #164 ) ;
#289 = UNCERTAINTY_MEASURE_WITH_UNIT (LENGTH_MEASURE( 1.000000000000000082E-05 ), #203, 'distance_accuracy_value', 'NONE');
#290 = EDGE_CURVE ( 'NONE', #130, #45, #242, .T. ) ;
#291 = FILL_AREA_STYLE_COLOUR ( '', #88 ) ;
#292 = FACE_OUTER_BOUND ( 'NONE', #10, .T. ) ;
#293 = STYLED_ITEM ( 'NONE', ( #232 ), #39 ) ;
#294 = PLANE ( 'NONE',  #30 ) ;
#295 = FILL_AREA_STYLE ('',( #291 ) ) ;
#296 = DIRECTION ( 'NONE',  ( -1.000000000000000000, 0.000000000000000000, 0.000000000000000000 ) ) ;
#297 = CARTESIAN_POINT ( 'NONE',  ( 0.06250000000000000000, 2.500000000000000000, 0.000000000000000000 ) ) ;
#298 = CIRCLE ( 'NONE', #129, 0.06250000000000000000 ) ;
#299 = EDGE_LOOP ( 'NONE', ( #287, #247 ) ) ;
#300 = ORIENTED_EDGE ( 'NONE', *, *, #270, .F. ) ;
#301 = ADVANCED_FACE ( 'NONE', ( #190 ), #294, .F. ) ;
#302 = ORIENTED_EDGE ( 'NONE', *, *, #218, .F. ) ;
#303 = CIRCLE ( 'NONE', #167, 0.06250000000000000000 ) ;
#304 = SURFACE_STYLE_USAGE ( .BOTH. , #104 ) ;
#305 = ORIENTED_EDGE ( 'NONE', *, *, #124, .F. ) ;
#306 = FILL_AREA_STYLE ('',( #33 ) ) ;
#307 = DIRECTION ( 'NONE',  ( 0.000000000000000000, 0.000000000000000000, -1.000000000000000000 ) ) ;
#308 = CYLINDRICAL_SURFACE ( 'NONE', #271, 0.06250000000000002776 ) ;
#309 = MECHANICAL_DESIGN_GEOMETRIC_PRESENTATION_REPRESENTATION (  '', ( #136 ), #13 ) ;
ENDSEC;
END-ISO-10303-21;
