ISO-10303-21;
HEADER;
FILE_DESCRIPTION (( 'STEP AP214' ),
    '1' );
FILE_NAME ('83812.STEP',
    '2023-07-05T16:10:17',
    ( '' ),
    ( '' ),
    'SwSTEP 2.0',
    'SolidWorks 2023',
    '' );
FILE_SCHEMA (( 'AUTOMOTIVE_DESIGN' ));
ENDSEC;

DATA;
#1 = LINE ( 'NONE', #126, #124 ) ;
#2 = AXIS2_PLACEMENT_3D ( 'NONE', #140, #99, #36 ) ;
#3 = ORIENTED_EDGE ( 'NONE', *, *, #72, .T. ) ;
#4 = ORIENTED_EDGE ( 'NONE', *, *, #25, .T. ) ;
#5 = ADVANCED_FACE ( 'NONE', ( #156 ), #185, .T. ) ;
#6 = MECHANICAL_DESIGN_GEOMETRIC_PRESENTATION_REPRESENTATION (  '', ( #172 ), #255 ) ;
#7 = ORIENTED_EDGE ( 'NONE', *, *, #113, .T. ) ;
#8 = DIMENSIONAL_EXPONENTS ( 1.000000000000000000, 0.000000000000000000, 0.000000000000000000, 0.000000000000000000, 0.000000000000000000, 0.000000000000000000, 0.000000000000000000 ) ;
#9 = UNCERTAINTY_MEASURE_WITH_UNIT (LENGTH_MEASURE( 1.000000000000000082E-05 ), #18, 'distance_accuracy_value', 'NONE');
#10 = EDGE_CURVE ( 'NONE', #152, #15, #81, .T. ) ;
#11 = CARTESIAN_POINT ( 'NONE',  ( 0.000000000000000000, 0.000000000000000000, 0.000000000000000000 ) ) ;
#12 = SURFACE_STYLE_USAGE ( .BOTH. , #14 ) ;
#13 = MANIFOLD_SOLID_BREP ( 'Revolve - Tool Body (Pointed)', #47 ) ;
#14 = SURFACE_SIDE_STYLE ('',( #34 ) ) ;
#15 = VERTEX_POINT ( 'NONE', #235 ) ;
#16 = CARTESIAN_POINT ( 'NONE',  ( -0.1875000000000001110, 2.500000000000000000, 0.000000000000000000 ) ) ;
#17 = COLOUR_RGB ( '',0.7921568627450980005, 0.8196078431372548767, 0.9333333333333333481 ) ;
#18 =( CONVERSION_BASED_UNIT ( 'INCH', #178 ) LENGTH_UNIT ( ) NAMED_UNIT ( #8 ) );
#19 = FACE_OUTER_BOUND ( 'NONE', #21, .T. ) ;
#20 = CIRCLE ( 'NONE', #92, 0.1875000000000000555 ) ;
#21 = EDGE_LOOP ( 'NONE', ( #188, #208 ) ) ;
#22 = MANIFOLD_SOLID_BREP ( 'Revolve - Cutting Edge', #44 ) ;
#23 = AXIS2_PLACEMENT_3D ( 'NONE', #105, #40, #199 ) ;
#24 = VERTEX_POINT ( 'NONE', #57 ) ;
#25 = EDGE_CURVE ( 'NONE', #152, #244, #245, .T. ) ;
#26 = EDGE_LOOP ( 'NONE', ( #131, #4, #7, #205 ) ) ;
#27 = CIRCLE ( 'NONE', #186, 0.1874999999999999722 ) ;
#28 =( NAMED_UNIT ( * ) PLANE_ANGLE_UNIT ( ) SI_UNIT ( $, .RADIAN. ) );
#29 = DIRECTION ( 'NONE',  ( 1.000000000000000000, 0.000000000000000000, 0.000000000000000000 ) ) ;
#30 = EDGE_CURVE ( 'NONE', #15, #108, #20, .T. ) ;
#31 = MECHANICAL_DESIGN_GEOMETRIC_PRESENTATION_REPRESENTATION (  '', ( #249 ), #85 ) ;
#32 = CARTESIAN_POINT ( 'NONE',  ( 0.1874999999999999722, 2.500000000000000000, 0.000000000000000000 ) ) ;
#33 = AXIS2_PLACEMENT_3D ( 'NONE', #88, #161, #127 ) ;
#34 = SURFACE_STYLE_FILL_AREA ( #115 ) ;
#35 = ORIENTED_EDGE ( 'NONE', *, *, #134, .F. ) ;
#36 = DIRECTION ( 'NONE',  ( -1.000000000000000000, 0.000000000000000000, 0.000000000000000000 ) ) ;
#37 = CARTESIAN_POINT ( 'NONE',  ( -0.1874999999999994449, 0.1874999999999992506, 0.000000000000000000 ) ) ;
#38 = STYLED_ITEM ( 'NONE', ( #207 ), #148 ) ;
#39 = SURFACE_SIDE_STYLE ('',( #213 ) ) ;
#40 = DIRECTION ( 'NONE',  ( -1.483045034828085136E-16, 1.000000000000000000, -0.000000000000000000 ) ) ;
#41 =( CONVERSION_BASED_UNIT ( 'INCH', #217 ) LENGTH_UNIT ( ) NAMED_UNIT ( #157 ) );
#42 = SURFACE_STYLE_USAGE ( .BOTH. , #39 ) ;
#43 =( LENGTH_UNIT ( ) NAMED_UNIT ( * ) SI_UNIT ( $, .METRE. ) );
#44 = CLOSED_SHELL ( 'NONE', ( #148, #53, #5 ) ) ;
#45 = CIRCLE ( 'NONE', #169, 0.1874999999999996947 ) ;
#46 = ORIENTED_EDGE ( 'NONE', *, *, #134, .T. ) ;
#47 = CLOSED_SHELL ( 'NONE', ( #251, #183, #143, #98 ) ) ;
#48 = AXIS2_PLACEMENT_3D ( 'NONE', #159, #229, #51 ) ;
#49 = EDGE_LOOP ( 'NONE', ( #35, #187 ) ) ;
#50 = DIMENSIONAL_EXPONENTS ( 1.000000000000000000, 0.000000000000000000, 0.000000000000000000, 0.000000000000000000, 0.000000000000000000, 0.000000000000000000, 0.000000000000000000 ) ;
#51 = DIRECTION ( 'NONE',  ( 1.000000000000000000, 0.000000000000000000, 0.000000000000000000 ) ) ;
#52 = DIRECTION ( 'NONE',  ( -0.7071067811865487940, 0.7071067811865462405, 0.000000000000000000 ) ) ;
#53 = ADVANCED_FACE ( 'NONE', ( #155 ), #192, .T. ) ;
#54 = PRESENTATION_LAYER_ASSIGNMENT (  '', '', ( #172 ) ) ;
#55 = VECTOR ( 'NONE', #211, 39.37007874015748143 ) ;
#56 =( NAMED_UNIT ( * ) PLANE_ANGLE_UNIT ( ) SI_UNIT ( $, .RADIAN. ) );
#57 = CARTESIAN_POINT ( 'NONE',  ( 0.1874999999999999722, 0.1874999999999993061, 2.296212748401287109E-17 ) ) ;
#58 = CARTESIAN_POINT ( 'NONE',  ( -6.123233995736764803E-17, 2.500000000000000000, 0.000000000000000000 ) ) ;
#59 = UNCERTAINTY_MEASURE_WITH_UNIT (LENGTH_MEASURE( 1.000000000000000082E-05 ), #60, 'distance_accuracy_value', 'NONE');
#60 =( CONVERSION_BASED_UNIT ( 'INCH', #82 ) LENGTH_UNIT ( ) NAMED_UNIT ( #50 ) );
#61 = PRESENTATION_STYLE_ASSIGNMENT (( #87 ) ) ;
#62 = PLANE ( 'NONE',  #33 ) ;
#63 = VERTEX_POINT ( 'NONE', #11 ) ;
#64 = DIRECTION ( 'NONE',  ( -1.000000000000000000, 0.000000000000000000, 0.000000000000000000 ) ) ;
#65 = PRODUCT_RELATED_PRODUCT_CATEGORY ( 'part', '', ( #195 ) ) ;
#66 =( GEOMETRIC_REPRESENTATION_CONTEXT ( 3 ) GLOBAL_UNCERTAINTY_ASSIGNED_CONTEXT ( ( #214 ) ) GLOBAL_UNIT_ASSIGNED_CONTEXT ( ( #243, #28, #138 ) ) REPRESENTATION_CONTEXT ( 'NONE', 'WORKASPACE' ) );
#67 = ORIENTED_EDGE ( 'NONE', *, *, #264, .T. ) ;
#68 = FILL_AREA_STYLE ('',( #171 ) ) ;
#69 = CONICAL_SURFACE ( 'NONE', #118, 39.37007874015762354, 0.7853981633974501664 ) ;
#70 = FILL_AREA_STYLE ('',( #116 ) ) ;
#71 =( NAMED_UNIT ( * ) SI_UNIT ( $, .STERADIAN. ) SOLID_ANGLE_UNIT ( ) );
#72 = EDGE_CURVE ( 'NONE', #24, #241, #27, .T. ) ;
#73 = LINE ( 'NONE', #158, #55 ) ;
#74 = DIRECTION ( 'NONE',  ( -1.000000000000000000, 0.000000000000000000, 0.000000000000000000 ) ) ;
#75 = VECTOR ( 'NONE', #198, 39.37007874015748143 ) ;
#76 = PRESENTATION_LAYER_ASSIGNMENT (  '', '', ( #38 ) ) ;
#77 = DIRECTION ( 'NONE',  ( -1.000000000000000000, 0.000000000000000000, 0.000000000000000000 ) ) ;
#78 =( GEOMETRIC_REPRESENTATION_CONTEXT ( 3 ) GLOBAL_UNCERTAINTY_ASSIGNED_CONTEXT ( ( #206 ) ) GLOBAL_UNIT_ASSIGNED_CONTEXT ( ( #125, #216, #80 ) ) REPRESENTATION_CONTEXT ( 'NONE', 'WORKASPACE' ) );
#79 = DIRECTION ( 'NONE',  ( -1.483045034828085136E-16, 1.000000000000000000, -0.000000000000000000 ) ) ;
#80 =( NAMED_UNIT ( * ) SI_UNIT ( $, .STERADIAN. ) SOLID_ANGLE_UNIT ( ) );
#81 = LINE ( 'NONE', #123, #75 ) ;
#82 = LENGTH_MEASURE_WITH_UNIT ( LENGTH_MEASURE( 0.02539999999999999897 ), #184 );
#83 = PRESENTATION_STYLE_ASSIGNMENT (( #42 ) ) ;
#84 = APPLICATION_PROTOCOL_DEFINITION ( 'draft international standard', 'automotive_design', 1998, #170 ) ;
#85 =( GEOMETRIC_REPRESENTATION_CONTEXT ( 3 ) GLOBAL_UNCERTAINTY_ASSIGNED_CONTEXT ( ( #9 ) ) GLOBAL_UNIT_ASSIGNED_CONTEXT ( ( #18, #263, #128 ) ) REPRESENTATION_CONTEXT ( 'NONE', 'WORKASPACE' ) );
#86 = COLOUR_RGB ( '',1.000000000000000000, 0.000000000000000000, 0.000000000000000000 ) ;
#87 = SURFACE_STYLE_USAGE ( .BOTH. , #261 ) ;
#88 = CARTESIAN_POINT ( 'NONE',  ( 2.817218243466271259E-16, 0.1874999999999993061, 0.000000000000000000 ) ) ;
#89 = SHAPE_DEFINITION_REPRESENTATION ( #110, #129 ) ;
#90 = COLOUR_RGB ( '',1.000000000000000000, 0.000000000000000000, 0.000000000000000000 ) ;
#91 = ORIENTED_EDGE ( 'NONE', *, *, #226, .T. ) ;
#92 = AXIS2_PLACEMENT_3D ( 'NONE', #58, #252, #77 ) ;
#93 = AXIS2_PLACEMENT_3D ( 'NONE', #32, #154, #258 ) ;
#94 = ORIENTED_EDGE ( 'NONE', *, *, #264, .F. ) ;
#95 = SURFACE_STYLE_FILL_AREA ( #68 ) ;
#96 = DIMENSIONAL_EXPONENTS ( 1.000000000000000000, 0.000000000000000000, 0.000000000000000000, 0.000000000000000000, 0.000000000000000000, 0.000000000000000000, 0.000000000000000000 ) ;
#97 = FACE_OUTER_BOUND ( 'NONE', #231, .T. ) ;
#98 = ADVANCED_FACE ( 'NONE', ( #97 ), #224, .F. ) ;
#99 = DIRECTION ( 'NONE',  ( -1.483045034828085136E-16, 1.000000000000000000, -0.000000000000000000 ) ) ;
#100 = SURFACE_STYLE_FILL_AREA ( #70 ) ;
#101 =( LENGTH_UNIT ( ) NAMED_UNIT ( * ) SI_UNIT ( $, .METRE. ) );
#102 = FILL_AREA_STYLE_COLOUR ( '', #196 ) ;
#103 = CARTESIAN_POINT ( 'NONE',  ( 0.000000000000000000, 0.000000000000000000, 0.000000000000000000 ) ) ;
#104 = CIRCLE ( 'NONE', #246, 0.1875000000000000555 ) ;
#105 = CARTESIAN_POINT ( 'NONE',  ( -6.123233995736766036E-17, 2.500000000000000000, 0.000000000000000000 ) ) ;
#106 = EDGE_LOOP ( 'NONE', ( #223, #133, #114, #248 ) ) ;
#107 = DIRECTION ( 'NONE',  ( -1.000000000000000000, 0.000000000000000000, 0.000000000000000000 ) ) ;
#108 = VERTEX_POINT ( 'NONE', #16 ) ;
#109 = MECHANICAL_DESIGN_GEOMETRIC_PRESENTATION_REPRESENTATION (  '', ( #201 ), #66 ) ;
#110 = PRODUCT_DEFINITION_SHAPE ( 'NONE', 'NONE',  #240 ) ;
#111 = ORIENTED_EDGE ( 'NONE', *, *, #132, .F. ) ;
#112 = SURFACE_SIDE_STYLE ('',( #95 ) ) ;
#113 = EDGE_CURVE ( 'NONE', #244, #108, #73, .T. ) ;
#114 = ORIENTED_EDGE ( 'NONE', *, *, #226, .F. ) ;
#115 = FILL_AREA_STYLE ('',( #177 ) ) ;
#116 = FILL_AREA_STYLE_COLOUR ( '', #86 ) ;
#117 =( GEOMETRIC_REPRESENTATION_CONTEXT ( 3 ) GLOBAL_UNCERTAINTY_ASSIGNED_CONTEXT ( ( #233 ) ) GLOBAL_UNIT_ASSIGNED_CONTEXT ( ( #41, #200, #182 ) ) REPRESENTATION_CONTEXT ( 'NONE', 'WORKASPACE' ) );
#118 = AXIS2_PLACEMENT_3D ( 'NONE', #250, #265, #107 ) ;
#119 =( CONVERSION_BASED_UNIT ( 'INCH', #191 ) LENGTH_UNIT ( ) NAMED_UNIT ( #257 ) );
#120 = LINE ( 'NONE', #209, #202 ) ;
#121 = ORIENTED_EDGE ( 'NONE', *, *, #132, .T. ) ;
#122 = CARTESIAN_POINT ( 'NONE',  ( 7.870206804039943619E-19, 0.1874999999999993061, 0.000000000000000000 ) ) ;
#123 = CARTESIAN_POINT ( 'NONE',  ( 0.1874999999999998057, 2.500000000000000000, 2.296212748401285877E-17 ) ) ;
#124 = VECTOR ( 'NONE', #212, 39.37007874015748143 ) ;
#125 =( CONVERSION_BASED_UNIT ( 'INCH', #181 ) LENGTH_UNIT ( ) NAMED_UNIT ( #96 ) );
#126 = CARTESIAN_POINT ( 'NONE',  ( 0.000000000000000000, 0.000000000000000000, 0.000000000000000000 ) ) ;
#127 = DIRECTION ( 'NONE',  ( -1.000000000000000000, -1.483045034828085136E-16, 0.000000000000000000 ) ) ;
#128 =( NAMED_UNIT ( * ) SI_UNIT ( $, .STERADIAN. ) SOLID_ANGLE_UNIT ( ) );
#129 = ADVANCED_BREP_SHAPE_REPRESENTATION ( '83812', ( #22, #13, #215 ), #78 ) ;
#130 = DIRECTION ( 'NONE',  ( 0.000000000000000000, 0.000000000000000000, 1.000000000000000000 ) ) ;
#131 = ORIENTED_EDGE ( 'NONE', *, *, #10, .F. ) ;
#132 = EDGE_CURVE ( 'NONE', #63, #241, #120, .T. ) ;
#133 = ORIENTED_EDGE ( 'NONE', *, *, #10, .T. ) ;
#134 = EDGE_CURVE ( 'NONE', #241, #24, #180, .T. ) ;
#135 = SURFACE_STYLE_USAGE ( .BOTH. , #153 ) ;
#136 = PRESENTATION_STYLE_ASSIGNMENT (( #12 ) ) ;
#137 = DIMENSIONAL_EXPONENTS ( 1.000000000000000000, 0.000000000000000000, 0.000000000000000000, 0.000000000000000000, 0.000000000000000000, 0.000000000000000000, 0.000000000000000000 ) ;
#138 =( NAMED_UNIT ( * ) SI_UNIT ( $, .STERADIAN. ) SOLID_ANGLE_UNIT ( ) );
#139 = AXIS2_PLACEMENT_3D ( 'NONE', #239, #79, #144 ) ;
#140 = CARTESIAN_POINT ( 'NONE',  ( -6.123233995736766036E-17, 2.500000000000000000, 0.000000000000000000 ) ) ;
#141 = APPLICATION_CONTEXT ( 'automotive_design' ) ;
#142 =( LENGTH_UNIT ( ) NAMED_UNIT ( * ) SI_UNIT ( $, .METRE. ) );
#143 = ADVANCED_FACE ( 'NONE', ( #232 ), #174, .T. ) ;
#144 = DIRECTION ( 'NONE',  ( -1.000000000000000000, -1.821231995776178437E-16, 0.000000000000000000 ) ) ;
#145 = UNCERTAINTY_MEASURE_WITH_UNIT (LENGTH_MEASURE( 1.000000000000000082E-05 ), #119, 'distance_accuracy_value', 'NONE');
#146 =( NAMED_UNIT ( * ) SI_UNIT ( $, .STERADIAN. ) SOLID_ANGLE_UNIT ( ) );
#147 = FILL_AREA_STYLE ('',( #164 ) ) ;
#148 = ADVANCED_FACE ( 'NONE', ( #194 ), #69, .T. ) ;
#149 = CYLINDRICAL_SURFACE ( 'NONE', #23, 0.1874999999999998890 ) ;
#150 = AXIS2_PLACEMENT_3D ( 'NONE', #122, #225, #175 ) ;
#151 = PRODUCT_DEFINITION_FORMATION_WITH_SPECIFIED_SOURCE ( 'ANY', '', #195, .NOT_KNOWN. ) ;
#152 = VERTEX_POINT ( 'NONE', #163 ) ;
#153 = SURFACE_SIDE_STYLE ('',( #100 ) ) ;
#154 = DIRECTION ( 'NONE',  ( 1.483045034828085136E-16, -1.000000000000000000, 0.000000000000000000 ) ) ;
#155 = FACE_OUTER_BOUND ( 'NONE', #49, .T. ) ;
#156 = FACE_OUTER_BOUND ( 'NONE', #204, .T. ) ;
#157 = DIMENSIONAL_EXPONENTS ( 1.000000000000000000, 0.000000000000000000, 0.000000000000000000, 0.000000000000000000, 0.000000000000000000, 0.000000000000000000, 0.000000000000000000 ) ;
#158 = CARTESIAN_POINT ( 'NONE',  ( -0.1874999999999999445, 2.500000000000000000, 0.000000000000000000 ) ) ;
#159 = CARTESIAN_POINT ( 'NONE',  ( 7.870206804039944582E-19, 0.1874999999999993061, 0.000000000000000000 ) ) ;
#160 = FILL_AREA_STYLE ('',( #102 ) ) ;
#161 = DIRECTION ( 'NONE',  ( -1.483045034828085136E-16, 1.000000000000000000, 0.000000000000000000 ) ) ;
#162 = PRODUCT_DEFINITION_CONTEXT ( 'detailed design', #141, 'design' ) ;
#163 = CARTESIAN_POINT ( 'NONE',  ( 0.1874999999999999722, 0.1874999999999993339, 2.296212748401286801E-17 ) ) ;
#164 = FILL_AREA_STYLE_COLOUR ( '', #17 ) ;
#165 = DIRECTION ( 'NONE',  ( -1.483045034828085136E-16, 1.000000000000000000, -0.000000000000000000 ) ) ;
#166 = CARTESIAN_POINT ( 'NONE',  ( -0.1874999999999999722, 0.1874999999999993061, 0.000000000000000000 ) ) ;
#167 = CARTESIAN_POINT ( 'NONE',  ( 2.817218243466271259E-16, 0.1874999999999993061, 0.000000000000000000 ) ) ;
#168 = MECHANICAL_DESIGN_GEOMETRIC_PRESENTATION_REPRESENTATION (  '', ( #179 ), #117 ) ;
#169 = AXIS2_PLACEMENT_3D ( 'NONE', #167, #165, #218 ) ;
#170 = APPLICATION_CONTEXT ( 'automotive_design' ) ;
#171 = FILL_AREA_STYLE_COLOUR ( '', #90 ) ;
#172 = STYLED_ITEM ( 'NONE', ( #136 ), #53 ) ;
#173 = SURFACE_STYLE_USAGE ( .BOTH. , #112 ) ;
#174 = CYLINDRICAL_SURFACE ( 'NONE', #2, 0.1874999999999998890 ) ;
#175 = DIRECTION ( 'NONE',  ( -1.000000000000000000, 4.197443628821319441E-18, 0.000000000000000000 ) ) ;
#176 = CARTESIAN_POINT ( 'NONE',  ( 1.652536861740677006E-16, 39.37007874015748143, 0.000000000000000000 ) ) ;
#177 = FILL_AREA_STYLE_COLOUR ( '', #230 ) ;
#178 = LENGTH_MEASURE_WITH_UNIT ( LENGTH_MEASURE( 0.02539999999999999897 ), #101 );
#179 = STYLED_ITEM ( 'NONE', ( #83 ), #22 ) ;
#180 = CIRCLE ( 'NONE', #48, 0.1874999999999999722 ) ;
#181 = LENGTH_MEASURE_WITH_UNIT ( LENGTH_MEASURE( 0.02539999999999999897 ), #43 );
#182 =( NAMED_UNIT ( * ) SI_UNIT ( $, .STERADIAN. ) SOLID_ANGLE_UNIT ( ) );
#183 = ADVANCED_FACE ( 'NONE', ( #19 ), #62, .F. ) ;
#184 =( LENGTH_UNIT ( ) NAMED_UNIT ( * ) SI_UNIT ( $, .METRE. ) );
#185 = CONICAL_SURFACE ( 'NONE', #242, 39.37007874015762354, 0.7853981633974501664 ) ;
#186 = AXIS2_PLACEMENT_3D ( 'NONE', #253, #227, #29 ) ;
#187 = ORIENTED_EDGE ( 'NONE', *, *, #72, .F. ) ;
#188 = ORIENTED_EDGE ( 'NONE', *, *, #219, .F. ) ;
#189 = MECHANICAL_DESIGN_GEOMETRIC_PRESENTATION_REPRESENTATION (  '', ( #38 ), #256 ) ;
#190 = LENGTH_MEASURE_WITH_UNIT ( LENGTH_MEASURE( 0.02539999999999999897 ), #228 );
#191 = LENGTH_MEASURE_WITH_UNIT ( LENGTH_MEASURE( 0.02539999999999999897 ), #142 );
#192 = PLANE ( 'NONE',  #150 ) ;
#193 = EDGE_LOOP ( 'NONE', ( #111, #67, #3 ) ) ;
#194 = FACE_OUTER_BOUND ( 'NONE', #193, .T. ) ;
#195 = PRODUCT ( '83812', '83812', '', ( #260 ) ) ;
#196 = COLOUR_RGB ( '',0.7921568627450980005, 0.8196078431372548767, 0.9333333333333333481 ) ;
#197 =( LENGTH_UNIT ( ) NAMED_UNIT ( * ) SI_UNIT ( $, .METRE. ) );
#198 = DIRECTION ( 'NONE',  ( -1.483045034828085136E-16, 1.000000000000000000, -0.000000000000000000 ) ) ;
#199 = DIRECTION ( 'NONE',  ( -1.000000000000000000, 0.000000000000000000, 0.000000000000000000 ) ) ;
#200 =( NAMED_UNIT ( * ) PLANE_ANGLE_UNIT ( ) SI_UNIT ( $, .RADIAN. ) );
#201 = STYLED_ITEM ( 'NONE', ( #247 ), #5 ) ;
#202 = VECTOR ( 'NONE', #52, 39.37007874015748143 ) ;
#203 = DIRECTION ( 'NONE',  ( 1.000000000000000000, 0.000000000000000000, 0.000000000000000000 ) ) ;
#204 = EDGE_LOOP ( 'NONE', ( #94, #121, #46 ) ) ;
#205 = ORIENTED_EDGE ( 'NONE', *, *, #30, .F. ) ;
#206 = UNCERTAINTY_MEASURE_WITH_UNIT (LENGTH_MEASURE( 1.000000000000000082E-05 ), #125, 'distance_accuracy_value', 'NONE');
#207 = PRESENTATION_STYLE_ASSIGNMENT (( #135 ) ) ;
#208 = ORIENTED_EDGE ( 'NONE', *, *, #25, .F. ) ;
#209 = CARTESIAN_POINT ( 'NONE',  ( 0.000000000000000000, 0.000000000000000000, 0.000000000000000000 ) ) ;
#210 = ORIENTED_EDGE ( 'NONE', *, *, #30, .T. ) ;
#211 = DIRECTION ( 'NONE',  ( -1.483045034828085136E-16, 1.000000000000000000, -0.000000000000000000 ) ) ;
#212 = DIRECTION ( 'NONE',  ( 0.7071067811865487940, 0.7071067811865462405, 8.659560562354948882E-17 ) ) ;
#213 = SURFACE_STYLE_FILL_AREA ( #147 ) ;
#214 = UNCERTAINTY_MEASURE_WITH_UNIT (LENGTH_MEASURE( 1.000000000000000082E-05 ), #243, 'distance_accuracy_value', 'NONE');
#215 = AXIS2_PLACEMENT_3D ( 'NONE', #103, #130, #203 ) ;
#216 =( NAMED_UNIT ( * ) PLANE_ANGLE_UNIT ( ) SI_UNIT ( $, .RADIAN. ) );
#217 = LENGTH_MEASURE_WITH_UNIT ( LENGTH_MEASURE( 0.02539999999999999897 ), #197 );
#218 = DIRECTION ( 'NONE',  ( -1.000000000000000000, -1.821231995776178437E-16, 0.000000000000000000 ) ) ;
#219 = EDGE_CURVE ( 'NONE', #244, #152, #45, .T. ) ;
#220 = PRESENTATION_LAYER_ASSIGNMENT (  '', '', ( #249 ) ) ;
#221 = APPLICATION_PROTOCOL_DEFINITION ( 'draft international standard', 'automotive_design', 1998, #141 ) ;
#222 = PRESENTATION_LAYER_ASSIGNMENT (  '', '', ( #179 ) ) ;
#223 = ORIENTED_EDGE ( 'NONE', *, *, #219, .T. ) ;
#224 = PLANE ( 'NONE',  #93 ) ;
#225 = DIRECTION ( 'NONE',  ( 4.197443628821319441E-18, 1.000000000000000000, 0.000000000000000000 ) ) ;
#226 = EDGE_CURVE ( 'NONE', #108, #15, #104, .T. ) ;
#227 = DIRECTION ( 'NONE',  ( -4.197443628821319441E-18, -1.000000000000000000, -0.000000000000000000 ) ) ;
#228 =( LENGTH_UNIT ( ) NAMED_UNIT ( * ) SI_UNIT ( $, .METRE. ) );
#229 = DIRECTION ( 'NONE',  ( -4.197443628821319441E-18, -1.000000000000000000, -0.000000000000000000 ) ) ;
#230 = COLOUR_RGB ( '',1.000000000000000000, 0.000000000000000000, 0.000000000000000000 ) ;
#231 = EDGE_LOOP ( 'NONE', ( #91, #210 ) ) ;
#232 = FACE_OUTER_BOUND ( 'NONE', #26, .T. ) ;
#233 = UNCERTAINTY_MEASURE_WITH_UNIT (LENGTH_MEASURE( 1.000000000000000082E-05 ), #41, 'distance_accuracy_value', 'NONE');
#234 = FACE_OUTER_BOUND ( 'NONE', #106, .T. ) ;
#235 = CARTESIAN_POINT ( 'NONE',  ( 0.1874999999999999722, 2.500000000000000000, 2.296212748401286801E-17 ) ) ;
#236 = CARTESIAN_POINT ( 'NONE',  ( -6.123233995736764803E-17, 2.500000000000000000, 0.000000000000000000 ) ) ;
#237 = PRESENTATION_LAYER_ASSIGNMENT (  '', '', ( #201 ) ) ;
#238 = DIRECTION ( 'NONE',  ( -1.483045034828085136E-16, 1.000000000000000000, -0.000000000000000000 ) ) ;
#239 = CARTESIAN_POINT ( 'NONE',  ( 2.817218243466271259E-16, 0.1874999999999993061, 0.000000000000000000 ) ) ;
#240 = PRODUCT_DEFINITION ( 'UNKNOWN', '', #151, #162 ) ;
#241 = VERTEX_POINT ( 'NONE', #166 ) ;
#242 = AXIS2_PLACEMENT_3D ( 'NONE', #176, #254, #74 ) ;
#243 =( CONVERSION_BASED_UNIT ( 'INCH', #190 ) LENGTH_UNIT ( ) NAMED_UNIT ( #137 ) );
#244 = VERTEX_POINT ( 'NONE', #37 ) ;
#245 = CIRCLE ( 'NONE', #139, 0.1874999999999996947 ) ;
#246 = AXIS2_PLACEMENT_3D ( 'NONE', #236, #238, #64 ) ;
#247 = PRESENTATION_STYLE_ASSIGNMENT (( #173 ) ) ;
#248 = ORIENTED_EDGE ( 'NONE', *, *, #113, .F. ) ;
#249 = STYLED_ITEM ( 'NONE', ( #61 ), #13 ) ;
#250 = CARTESIAN_POINT ( 'NONE',  ( 1.652536861740677006E-16, 39.37007874015748143, 0.000000000000000000 ) ) ;
#251 = ADVANCED_FACE ( 'NONE', ( #234 ), #149, .T. ) ;
#252 = DIRECTION ( 'NONE',  ( -1.483045034828085136E-16, 1.000000000000000000, -0.000000000000000000 ) ) ;
#253 = CARTESIAN_POINT ( 'NONE',  ( 7.870206804039944582E-19, 0.1874999999999993061, 0.000000000000000000 ) ) ;
#254 = DIRECTION ( 'NONE',  ( 4.197443628821319441E-18, 1.000000000000000000, 0.000000000000000000 ) ) ;
#255 =( GEOMETRIC_REPRESENTATION_CONTEXT ( 3 ) GLOBAL_UNCERTAINTY_ASSIGNED_CONTEXT ( ( #145 ) ) GLOBAL_UNIT_ASSIGNED_CONTEXT ( ( #119, #56, #71 ) ) REPRESENTATION_CONTEXT ( 'NONE', 'WORKASPACE' ) );
#256 =( GEOMETRIC_REPRESENTATION_CONTEXT ( 3 ) GLOBAL_UNCERTAINTY_ASSIGNED_CONTEXT ( ( #59 ) ) GLOBAL_UNIT_ASSIGNED_CONTEXT ( ( #60, #262, #146 ) ) REPRESENTATION_CONTEXT ( 'NONE', 'WORKASPACE' ) );
#257 = DIMENSIONAL_EXPONENTS ( 1.000000000000000000, 0.000000000000000000, 0.000000000000000000, 0.000000000000000000, 0.000000000000000000, 0.000000000000000000, 0.000000000000000000 ) ;
#258 = DIRECTION ( 'NONE',  ( 1.000000000000000000, 1.483045034828085136E-16, 0.000000000000000000 ) ) ;
#259 = SURFACE_STYLE_FILL_AREA ( #160 ) ;
#260 = PRODUCT_CONTEXT ( 'NONE', #170, 'mechanical' ) ;
#261 = SURFACE_SIDE_STYLE ('',( #259 ) ) ;
#262 =( NAMED_UNIT ( * ) PLANE_ANGLE_UNIT ( ) SI_UNIT ( $, .RADIAN. ) );
#263 =( NAMED_UNIT ( * ) PLANE_ANGLE_UNIT ( ) SI_UNIT ( $, .RADIAN. ) );
#264 = EDGE_CURVE ( 'NONE', #63, #24, #1, .T. ) ;
#265 = DIRECTION ( 'NONE',  ( 4.197443628821319441E-18, 1.000000000000000000, 0.000000000000000000 ) ) ;
ENDSEC;
END-ISO-10303-21;
