ISO-10303-21;
HEADER;
FILE_DESCRIPTION (( 'STEP AP214' ),
    '1' );
FILE_NAME ('Micro_RSC-250-120X.STEP',
    '2021-09-03T17:47:06',
    ( '' ),
    ( '' ),
    'SwSTEP 2.0',
    'SolidWorks 2020',
    '' );
FILE_SCHEMA (( 'AUTOMOTIVE_DESIGN' ));
ENDSEC;

DATA;
#1 =( CONVERSION_BASED_UNIT ( 'INCH', #79 ) LENGTH_UNIT ( ) NAMED_UNIT ( #60 ) );
#2 = AXIS2_PLACEMENT_3D ( 'NONE', #144, #204, #184 ) ;
#3 = EDGE_CURVE ( 'NONE', #46, #143, #189, .T. ) ;
#4 = CARTESIAN_POINT ( 'NONE',  ( 0.1250000000000000000, 1.530808498934191509E-17, 2.500000000000000000 ) ) ;
#5 = PRESENTATION_STYLE_ASSIGNMENT (( #62 ) ) ;
#6 = DIRECTION ( 'NONE',  ( -1.000000000000000000, 0.0000000000000000000, 0.0000000000000000000 ) ) ;
#7 = CARTESIAN_POINT ( 'NONE',  ( 0.0000000000000000000, 0.0000000000000000000, 0.1991858428704201822 ) ) ;
#8 = CIRCLE ( 'NONE', #236, 0.01000000000000000021 ) ;
#9 = EDGE_LOOP ( 'NONE', ( #151, #181, #162, #50 ) ) ;
#10 = FILL_AREA_STYLE_COLOUR ( '', #111 ) ;
#11 = LENGTH_MEASURE_WITH_UNIT ( LENGTH_MEASURE( 0.02539999999999999897 ), #202 );
#12 = VERTEX_POINT ( 'NONE', #194 ) ;
#13 = ORIENTED_EDGE ( 'NONE', *, *, #231, .T. ) ;
#14 = VERTEX_POINT ( 'NONE', #174 ) ;
#15 = CARTESIAN_POINT ( 'NONE',  ( 0.1250000000000000000, 1.530808498934191509E-17, 2.485000000000000320 ) ) ;
#16 = SURFACE_SIDE_STYLE ('',( #222 ) ) ;
#17 = DIRECTION ( 'NONE',  ( -0.0000000000000000000, -0.0000000000000000000, -1.000000000000000000 ) ) ;
#18 = CARTESIAN_POINT ( 'NONE',  ( 0.0000000000000000000, 0.0000000000000000000, 0.0000000000000000000 ) ) ;
#19 = EDGE_CURVE ( 'NONE', #147, #46, #172, .T. ) ;
#20 = AXIS2_PLACEMENT_3D ( 'NONE', #21, #102, #199 ) ;
#21 = CARTESIAN_POINT ( 'NONE',  ( 0.0000000000000000000, 0.0000000000000000000, 0.0000000000000000000 ) ) ;
#22 = FACE_OUTER_BOUND ( 'NONE', #9, .T. ) ;
#23 = CONICAL_SURFACE ( 'NONE', #142, 0.1100000000000001948, 0.7853981633974517207 ) ;
#24 = CIRCLE ( 'NONE', #130, 0.01000000000000000021 ) ;
#25 = ORIENTED_EDGE ( 'NONE', *, *, #140, .T. ) ;
#26 = DIRECTION ( 'NONE',  ( 1.000000000000000000, 0.0000000000000000000, 0.0000000000000000000 ) ) ;
#27 = UNCERTAINTY_MEASURE_WITH_UNIT (LENGTH_MEASURE( 1.000000000000000082E-05 ), #1, 'distance_accuracy_value', 'NONE');
#28 = EDGE_LOOP ( 'NONE', ( #91, #160, #124, #200 ) ) ;
#29 = ORIENTED_EDGE ( 'NONE', *, *, #98, .F. ) ;
#30 = ORIENTED_EDGE ( 'NONE', *, *, #154, .T. ) ;
#31 = DIRECTION ( 'NONE',  ( 0.7071067811865499042, 8.659560562354961208E-17, -0.7071067811865451302 ) ) ;
#32 = AXIS2_PLACEMENT_3D ( 'NONE', #166, #188, #133 ) ;
#33 = PRODUCT_DEFINITION_SHAPE ( 'NONE', 'NONE',  #39 ) ;
#34 = CARTESIAN_POINT ( 'NONE',  ( 0.0000000000000000000, 0.0000000000000000000, 2.500000000000000000 ) ) ;
#35 = PRESENTATION_STYLE_ASSIGNMENT (( #108 ) ) ;
#36 = LINE ( 'NONE', #223, #159 ) ;
#37 = CARTESIAN_POINT ( 'NONE',  ( -0.1100000000000001948, 0.0000000000000000000, 2.500000000000000000 ) ) ;
#38 = LINE ( 'NONE', #226, #173 ) ;
#39 = PRODUCT_DEFINITION ( 'UNKNOWN', '', #54, #149 ) ;
#40 = CIRCLE ( 'NONE', #193, 0.1100000000000001948 ) ;
#41 = FACE_OUTER_BOUND ( 'NONE', #198, .T. ) ;
#42 = DIMENSIONAL_EXPONENTS ( 1.000000000000000000, 0.0000000000000000000, 0.0000000000000000000, 0.0000000000000000000, 0.0000000000000000000, 0.0000000000000000000, 0.0000000000000000000 ) ;
#43 = DIRECTION ( 'NONE',  ( -0.0000000000000000000, -0.0000000000000000000, -1.000000000000000000 ) ) ;
#44 = DIRECTION ( 'NONE',  ( -0.0000000000000000000, -0.0000000000000000000, -1.000000000000000000 ) ) ;
#45 = CIRCLE ( 'NONE', #2, 0.1250000000000000000 ) ;
#46 = VERTEX_POINT ( 'NONE', #232 ) ;
#47 = LENGTH_MEASURE_WITH_UNIT ( LENGTH_MEASURE( 0.02539999999999999897 ), #94 );
#48 = EDGE_LOOP ( 'NONE', ( #107, #145, #30, #237 ) ) ;
#49 = CARTESIAN_POINT ( 'NONE',  ( 0.0000000000000000000, 0.0000000000000000000, 0.0000000000000000000 ) ) ;
#50 = ORIENTED_EDGE ( 'NONE', *, *, #3, .F. ) ;
#51 = DIRECTION ( 'NONE',  ( 0.0000000000000000000, 0.0000000000000000000, -1.000000000000000000 ) ) ;
#52 = PRODUCT_RELATED_PRODUCT_CATEGORY ( 'part', '', ( #192 ) ) ;
#53 = CARTESIAN_POINT ( 'NONE',  ( 0.0000000000000000000, 0.0000000000000000000, 2.500000000000000000 ) ) ;
#54 = PRODUCT_DEFINITION_FORMATION_WITH_SPECIFIED_SOURCE ( 'ANY', '', #192, .NOT_KNOWN. ) ;
#55 = CARTESIAN_POINT ( 'NONE',  ( 0.0000000000000000000, 0.0000000000000000000, 0.1991858428704201822 ) ) ;
#56 = DIRECTION ( 'NONE',  ( 0.0000000000000000000, 0.0000000000000000000, 1.000000000000000000 ) ) ;
#57 =( NAMED_UNIT ( * ) PLANE_ANGLE_UNIT ( ) SI_UNIT ( $, .RADIAN. ) );
#58 = COLOUR_RGB ( '',0.7921568627450980005, 0.8196078431372548767, 0.9333333333333333481 ) ;
#59 = AXIS2_PLACEMENT_3D ( 'NONE', #171, #110, #230 ) ;
#60 = DIMENSIONAL_EXPONENTS ( 1.000000000000000000, 0.0000000000000000000, 0.0000000000000000000, 0.0000000000000000000, 0.0000000000000000000, 0.0000000000000000000, 0.0000000000000000000 ) ;
#61 = DIRECTION ( 'NONE',  ( -0.0000000000000000000, -0.0000000000000000000, -1.000000000000000000 ) ) ;
#62 = SURFACE_STYLE_USAGE ( .BOTH. , #136 ) ;
#63 = CARTESIAN_POINT ( 'NONE',  ( 0.0000000000000000000, 0.0000000000000000000, 2.500000000000000000 ) ) ;
#64 = CIRCLE ( 'NONE', #214, 0.1100000000000001948 ) ;
#65 = CARTESIAN_POINT ( 'NONE',  ( 0.01000000000000000021, 0.0000000000000000000, 0.0000000000000000000 ) ) ;
#66 = CARTESIAN_POINT ( 'NONE',  ( 0.1100000000000001948, 1.438959988998141146E-17, 2.500000000000000000 ) ) ;
#67 = APPLICATION_CONTEXT ( 'automotive_design' ) ;
#68 = CIRCLE ( 'NONE', #239, 0.1250000000000000000 ) ;
#69 = EDGE_LOOP ( 'NONE', ( #218, #74 ) ) ;
#70 = EDGE_CURVE ( 'NONE', #205, #12, #64, .T. ) ;
#71 = VECTOR ( 'NONE', #249, 39.37007874015748143 ) ;
#72 = FACE_OUTER_BOUND ( 'NONE', #69, .T. ) ;
#73 =( NAMED_UNIT ( * ) PLANE_ANGLE_UNIT ( ) SI_UNIT ( $, .RADIAN. ) );
#74 = ORIENTED_EDGE ( 'NONE', *, *, #70, .T. ) ;
#75 = CYLINDRICAL_SURFACE ( 'NONE', #146, 0.1250000000000000000 ) ;
#76 = EDGE_LOOP ( 'NONE', ( #242, #90, #105, #109 ) ) ;
#77 = PLANE ( 'NONE',  #201 ) ;
#78 = DIRECTION ( 'NONE',  ( 1.000000000000000000, 0.0000000000000000000, 0.0000000000000000000 ) ) ;
#79 = LENGTH_MEASURE_WITH_UNIT ( LENGTH_MEASURE( 0.02539999999999999897 ), #104 );
#80 = DIRECTION ( 'NONE',  ( -1.000000000000000000, 0.0000000000000000000, 0.0000000000000000000 ) ) ;
#81 = CARTESIAN_POINT ( 'NONE',  ( 0.01000000000000000021, 0.0000000000000000000, 0.0000000000000000000 ) ) ;
#82 = LINE ( 'NONE', #37, #227 ) ;
#83 = DIRECTION ( 'NONE',  ( 0.0000000000000000000, 0.0000000000000000000, 1.000000000000000000 ) ) ;
#84 = FILL_AREA_STYLE_COLOUR ( '', #58 ) ;
#85 = STYLED_ITEM ( 'NONE', ( #35 ), #92 ) ;
#86 = CARTESIAN_POINT ( 'NONE',  ( 0.0000000000000000000, 0.0000000000000000000, 2.500000000000000000 ) ) ;
#87 = ADVANCED_FACE ( 'NONE', ( #72 ), #77, .T. ) ;
#88 = EDGE_CURVE ( 'NONE', #147, #182, #233, .T. ) ;
#89 = AXIS2_PLACEMENT_3D ( 'NONE', #220, #56, #117 ) ;
#90 = ORIENTED_EDGE ( 'NONE', *, *, #19, .T. ) ;
#91 = ORIENTED_EDGE ( 'NONE', *, *, #175, .F. ) ;
#92 = MANIFOLD_SOLID_BREP ( 'Cut-Revolve1', #168 ) ;
#93 = DIRECTION ( 'NONE',  ( 0.5000000000000012212, 0.0000000000000000000, 0.8660254037844377084 ) ) ;
#94 =( LENGTH_UNIT ( ) NAMED_UNIT ( * ) SI_UNIT ( $, .METRE. ) );
#95 = SHAPE_DEFINITION_REPRESENTATION ( #33, #180 ) ;
#96 =( NAMED_UNIT ( * ) SI_UNIT ( $, .STERADIAN. ) SOLID_ANGLE_UNIT ( ) );
#97 = CARTESIAN_POINT ( 'NONE',  ( -0.1250000000000000000, 0.0000000000000000000, 2.485000000000000320 ) ) ;
#98 = EDGE_CURVE ( 'NONE', #182, #147, #45, .T. ) ;
#99 = FACE_OUTER_BOUND ( 'NONE', #76, .T. ) ;
#100 =( GEOMETRIC_REPRESENTATION_CONTEXT ( 3 ) GLOBAL_UNCERTAINTY_ASSIGNED_CONTEXT ( ( #234 ) ) GLOBAL_UNIT_ASSIGNED_CONTEXT ( ( #114, #73, #96 ) ) REPRESENTATION_CONTEXT ( 'NONE', 'WORKASPACE' ) );
#101 = DIRECTION ( 'NONE',  ( 1.000000000000000000, 0.0000000000000000000, -0.0000000000000000000 ) ) ;
#102 = DIRECTION ( 'NONE',  ( 0.0000000000000000000, 0.0000000000000000000, 1.000000000000000000 ) ) ;
#103 = CYLINDRICAL_SURFACE ( 'NONE', #141, 0.1250000000000000000 ) ;
#104 =( LENGTH_UNIT ( ) NAMED_UNIT ( * ) SI_UNIT ( $, .METRE. ) );
#105 = ORIENTED_EDGE ( 'NONE', *, *, #231, .F. ) ;
#106 =( CONVERSION_BASED_UNIT ( 'INCH', #11 ) LENGTH_UNIT ( ) NAMED_UNIT ( #42 ) );
#107 = ORIENTED_EDGE ( 'NONE', *, *, #140, .F. ) ;
#108 = SURFACE_STYLE_USAGE ( .BOTH. , #16 ) ;
#109 = ORIENTED_EDGE ( 'NONE', *, *, #179, .F. ) ;
#110 = DIRECTION ( 'NONE',  ( 0.0000000000000000000, 0.0000000000000000000, -1.000000000000000000 ) ) ;
#111 = COLOUR_RGB ( '',0.7921568627450980005, 0.8196078431372548767, 0.9333333333333333481 ) ;
#112 =( GEOMETRIC_REPRESENTATION_CONTEXT ( 3 ) GLOBAL_UNCERTAINTY_ASSIGNED_CONTEXT ( ( #27 ) ) GLOBAL_UNIT_ASSIGNED_CONTEXT ( ( #1, #57, #115 ) ) REPRESENTATION_CONTEXT ( 'NONE', 'WORKASPACE' ) );
#113 = EDGE_CURVE ( 'NONE', #12, #182, #82, .T. ) ;
#114 =( CONVERSION_BASED_UNIT ( 'INCH', #47 ) LENGTH_UNIT ( ) NAMED_UNIT ( #209 ) );
#115 =( NAMED_UNIT ( * ) SI_UNIT ( $, .STERADIAN. ) SOLID_ANGLE_UNIT ( ) );
#116 = DIRECTION ( 'NONE',  ( 0.0000000000000000000, 0.0000000000000000000, 1.000000000000000000 ) ) ;
#117 = DIRECTION ( 'NONE',  ( 1.000000000000000000, 0.0000000000000000000, 0.0000000000000000000 ) ) ;
#118 = CONICAL_SURFACE ( 'NONE', #176, 0.01000000000000000021, 0.5235987755983003700 ) ;
#119 = CONICAL_SURFACE ( 'NONE', #32, 0.1100000000000001948, 0.7853981633974517207 ) ;
#120 = SURFACE_STYLE_FILL_AREA ( #228 ) ;
#121 = DIRECTION ( 'NONE',  ( -1.000000000000000000, 0.0000000000000000000, 0.0000000000000000000 ) ) ;
#122 = ADVANCED_FACE ( 'NONE', ( #41 ), #156, .T. ) ;
#123 = ORIENTED_EDGE ( 'NONE', *, *, #169, .T. ) ;
#124 = ORIENTED_EDGE ( 'NONE', *, *, #113, .T. ) ;
#125 =( NAMED_UNIT ( * ) PLANE_ANGLE_UNIT ( ) SI_UNIT ( $, .RADIAN. ) );
#126 = ADVANCED_FACE ( 'NONE', ( #164 ), #119, .T. ) ;
#127 = ORIENTED_EDGE ( 'NONE', *, *, #243, .T. ) ;
#128 = DIRECTION ( 'NONE',  ( -1.000000000000000000, 0.0000000000000000000, 0.0000000000000000000 ) ) ;
#129 = DIRECTION ( 'NONE',  ( -0.0000000000000000000, -0.0000000000000000000, -1.000000000000000000 ) ) ;
#130 = AXIS2_PLACEMENT_3D ( 'NONE', #212, #44, #139 ) ;
#131 =( NAMED_UNIT ( * ) SI_UNIT ( $, .STERADIAN. ) SOLID_ANGLE_UNIT ( ) );
#132 = VECTOR ( 'NONE', #31, 39.37007874015748143 ) ;
#133 = DIRECTION ( 'NONE',  ( -1.000000000000000000, 0.0000000000000000000, 0.0000000000000000000 ) ) ;
#134 = DIRECTION ( 'NONE',  ( -0.5000000000000012212, 6.123233995736780827E-17, 0.8660254037844377084 ) ) ;
#135 = AXIS2_PLACEMENT_3D ( 'NONE', #55, #61, #121 ) ;
#136 = SURFACE_SIDE_STYLE ('',( #120 ) ) ;
#137 = ADVANCED_FACE ( 'NONE', ( #219 ), #23, .T. ) ;
#138 = DIRECTION ( 'NONE',  ( 1.000000000000000000, 0.0000000000000000000, -0.0000000000000000000 ) ) ;
#139 = DIRECTION ( 'NONE',  ( -1.000000000000000000, 0.0000000000000000000, 0.0000000000000000000 ) ) ;
#140 = EDGE_CURVE ( 'NONE', #14, #143, #38, .T. ) ;
#141 = AXIS2_PLACEMENT_3D ( 'NONE', #86, #196, #157 ) ;
#142 = AXIS2_PLACEMENT_3D ( 'NONE', #152, #51, #170 ) ;
#143 = VERTEX_POINT ( 'NONE', #247 ) ;
#144 = CARTESIAN_POINT ( 'NONE',  ( 0.0000000000000000000, 0.0000000000000000000, 2.485000000000000320 ) ) ;
#145 = ORIENTED_EDGE ( 'NONE', *, *, #169, .F. ) ;
#146 = AXIS2_PLACEMENT_3D ( 'NONE', #53, #129, #80 ) ;
#147 = VERTEX_POINT ( 'NONE', #15 ) ;
#148 = FACE_OUTER_BOUND ( 'NONE', #48, .T. ) ;
#149 = PRODUCT_DEFINITION_CONTEXT ( 'detailed design', #178, 'design' ) ;
#150 = MECHANICAL_DESIGN_GEOMETRIC_PRESENTATION_REPRESENTATION (  '', ( #85 ), #100 ) ;
#151 = ORIENTED_EDGE ( 'NONE', *, *, #19, .F. ) ;
#152 = CARTESIAN_POINT ( 'NONE',  ( 0.0000000000000000000, 0.0000000000000000000, 2.500000000000000000 ) ) ;
#153 = DIRECTION ( 'NONE',  ( -0.7071067811865499042, 0.0000000000000000000, -0.7071067811865451302 ) ) ;
#154 = EDGE_CURVE ( 'NONE', #217, #46, #165, .T. ) ;
#155 = APPLICATION_PROTOCOL_DEFINITION ( 'draft international standard', 'automotive_design', 1998, #67 ) ;
#156 = CONICAL_SURFACE ( 'NONE', #89, 0.01000000000000000021, 0.5235987755983003700 ) ;
#157 = DIRECTION ( 'NONE',  ( -1.000000000000000000, 0.0000000000000000000, 0.0000000000000000000 ) ) ;
#158 = ORIENTED_EDGE ( 'NONE', *, *, #154, .F. ) ;
#159 = VECTOR ( 'NONE', #17, 39.37007874015748143 ) ;
#160 = ORIENTED_EDGE ( 'NONE', *, *, #186, .F. ) ;
#161 = ADVANCED_FACE ( 'NONE', ( #148 ), #118, .T. ) ;
#162 = ORIENTED_EDGE ( 'NONE', *, *, #179, .T. ) ;
#163 = PRESENTATION_LAYER_ASSIGNMENT (  '', '', ( #224 ) ) ;
#164 = FACE_OUTER_BOUND ( 'NONE', #238, .T. ) ;
#165 = LINE ( 'NONE', #81, #197 ) ;
#166 = CARTESIAN_POINT ( 'NONE',  ( 0.0000000000000000000, 0.0000000000000000000, 2.500000000000000000 ) ) ;
#167 = ADVANCED_FACE ( 'NONE', ( #99 ), #75, .T. ) ;
#168 = CLOSED_SHELL ( 'NONE', ( #122, #126, #167, #248, #87, #137, #161, #221 ) ) ;
#169 = EDGE_CURVE ( 'NONE', #217, #14, #8, .T. ) ;
#170 = DIRECTION ( 'NONE',  ( -1.000000000000000000, 0.0000000000000000000, 0.0000000000000000000 ) ) ;
#171 = CARTESIAN_POINT ( 'NONE',  ( 0.0000000000000000000, 0.0000000000000000000, 2.485000000000000320 ) ) ;
#172 = LINE ( 'NONE', #4, #71 ) ;
#173 = VECTOR ( 'NONE', #134, 39.37007874015748854 ) ;
#174 = CARTESIAN_POINT ( 'NONE',  ( -0.01000000000000000021, 8.266365894244632793E-18, 0.0000000000000000000 ) ) ;
#175 = EDGE_CURVE ( 'NONE', #205, #147, #245, .T. ) ;
#176 = AXIS2_PLACEMENT_3D ( 'NONE', #18, #240, #207 ) ;
#177 = EDGE_LOOP ( 'NONE', ( #123, #127 ) ) ;
#178 = APPLICATION_CONTEXT ( 'automotive_design' ) ;
#179 = EDGE_CURVE ( 'NONE', #182, #143, #36, .T. ) ;
#180 = ADVANCED_BREP_SHAPE_REPRESENTATION ( 'Micro_RSC-250-120X', ( #92, #20 ), #241 ) ;
#181 = ORIENTED_EDGE ( 'NONE', *, *, #88, .T. ) ;
#182 = VERTEX_POINT ( 'NONE', #97 ) ;
#183 = ORIENTED_EDGE ( 'NONE', *, *, #243, .F. ) ;
#184 = DIRECTION ( 'NONE',  ( 1.000000000000000000, 0.0000000000000000000, 0.0000000000000000000 ) ) ;
#185 = ORIENTED_EDGE ( 'NONE', *, *, #113, .F. ) ;
#186 = EDGE_CURVE ( 'NONE', #12, #205, #40, .T. ) ;
#187 = FILL_AREA_STYLE ('',( #10 ) ) ;
#188 = DIRECTION ( 'NONE',  ( 0.0000000000000000000, 0.0000000000000000000, -1.000000000000000000 ) ) ;
#189 = CIRCLE ( 'NONE', #135, 0.1250000000000000000 ) ;
#190 = DIRECTION ( 'NONE',  ( -0.0000000000000000000, -0.0000000000000000000, -1.000000000000000000 ) ) ;
#191 = DIRECTION ( 'NONE',  ( 0.0000000000000000000, 0.0000000000000000000, 1.000000000000000000 ) ) ;
#192 = PRODUCT ( 'Micro_RSC-250-120X', 'Micro_RSC-250-120X', '', ( #229 ) ) ;
#193 = AXIS2_PLACEMENT_3D ( 'NONE', #244, #116, #78 ) ;
#194 = CARTESIAN_POINT ( 'NONE',  ( -0.1100000000000001948, 0.0000000000000000000, 2.500000000000000000 ) ) ;
#195 = FACE_OUTER_BOUND ( 'NONE', #177, .T. ) ;
#196 = DIRECTION ( 'NONE',  ( -0.0000000000000000000, -0.0000000000000000000, -1.000000000000000000 ) ) ;
#197 = VECTOR ( 'NONE', #93, 39.37007874015748854 ) ;
#198 = EDGE_LOOP ( 'NONE', ( #183, #25, #13, #158 ) ) ;
#199 = DIRECTION ( 'NONE',  ( 1.000000000000000000, 0.0000000000000000000, 0.0000000000000000000 ) ) ;
#200 = ORIENTED_EDGE ( 'NONE', *, *, #88, .F. ) ;
#201 = AXIS2_PLACEMENT_3D ( 'NONE', #34, #191, #101 ) ;
#202 =( LENGTH_UNIT ( ) NAMED_UNIT ( * ) SI_UNIT ( $, .METRE. ) );
#203 = ORIENTED_EDGE ( 'NONE', *, *, #175, .T. ) ;
#204 = DIRECTION ( 'NONE',  ( 0.0000000000000000000, 0.0000000000000000000, -1.000000000000000000 ) ) ;
#205 = VERTEX_POINT ( 'NONE', #66 ) ;
#206 = CARTESIAN_POINT ( 'NONE',  ( 0.1100000000000001948, 1.347111479062090784E-17, 2.500000000000000000 ) ) ;
#207 = DIRECTION ( 'NONE',  ( 1.000000000000000000, 0.0000000000000000000, 0.0000000000000000000 ) ) ;
#208 = MECHANICAL_DESIGN_GEOMETRIC_PRESENTATION_REPRESENTATION (  '', ( #224 ), #112 ) ;
#209 = DIMENSIONAL_EXPONENTS ( 1.000000000000000000, 0.0000000000000000000, 0.0000000000000000000, 0.0000000000000000000, 0.0000000000000000000, 0.0000000000000000000, 0.0000000000000000000 ) ;
#210 = APPLICATION_PROTOCOL_DEFINITION ( 'draft international standard', 'automotive_design', 1998, #178 ) ;
#211 = CARTESIAN_POINT ( 'NONE',  ( 0.0000000000000000000, 0.0000000000000000000, 0.0000000000000000000 ) ) ;
#212 = CARTESIAN_POINT ( 'NONE',  ( 0.0000000000000000000, 0.0000000000000000000, 0.0000000000000000000 ) ) ;
#213 = PLANE ( 'NONE',  #225 ) ;
#214 = AXIS2_PLACEMENT_3D ( 'NONE', #63, #83, #26 ) ;
#215 = UNCERTAINTY_MEASURE_WITH_UNIT (LENGTH_MEASURE( 1.000000000000000082E-05 ), #106, 'distance_accuracy_value', 'NONE');
#216 = ORIENTED_EDGE ( 'NONE', *, *, #70, .F. ) ;
#217 = VERTEX_POINT ( 'NONE', #65 ) ;
#218 = ORIENTED_EDGE ( 'NONE', *, *, #186, .T. ) ;
#219 = FACE_OUTER_BOUND ( 'NONE', #28, .T. ) ;
#220 = CARTESIAN_POINT ( 'NONE',  ( 0.0000000000000000000, 0.0000000000000000000, 0.0000000000000000000 ) ) ;
#221 = ADVANCED_FACE ( 'NONE', ( #195 ), #213, .F. ) ;
#222 = SURFACE_STYLE_FILL_AREA ( #187 ) ;
#223 = CARTESIAN_POINT ( 'NONE',  ( -0.1250000000000000000, 0.0000000000000000000, 2.500000000000000000 ) ) ;
#224 = STYLED_ITEM ( 'NONE', ( #5 ), #180 ) ;
#225 = AXIS2_PLACEMENT_3D ( 'NONE', #211, #235, #138 ) ;
#226 = CARTESIAN_POINT ( 'NONE',  ( -0.01000000000000000021, 1.224646799147353384E-18, 0.0000000000000000000 ) ) ;
#227 = VECTOR ( 'NONE', #153, 39.37007874015748143 ) ;
#228 = FILL_AREA_STYLE ('',( #84 ) ) ;
#229 = PRODUCT_CONTEXT ( 'NONE', #67, 'mechanical' ) ;
#230 = DIRECTION ( 'NONE',  ( 1.000000000000000000, 0.0000000000000000000, 0.0000000000000000000 ) ) ;
#231 = EDGE_CURVE ( 'NONE', #143, #46, #68, .T. ) ;
#232 = CARTESIAN_POINT ( 'NONE',  ( 0.1250000000000000000, 1.530808498934191509E-17, 0.1991858428704201822 ) ) ;
#233 = CIRCLE ( 'NONE', #59, 0.1250000000000000000 ) ;
#234 = UNCERTAINTY_MEASURE_WITH_UNIT (LENGTH_MEASURE( 1.000000000000000082E-05 ), #114, 'distance_accuracy_value', 'NONE');
#235 = DIRECTION ( 'NONE',  ( 0.0000000000000000000, 0.0000000000000000000, 1.000000000000000000 ) ) ;
#236 = AXIS2_PLACEMENT_3D ( 'NONE', #49, #190, #128 ) ;
#237 = ORIENTED_EDGE ( 'NONE', *, *, #3, .T. ) ;
#238 = EDGE_LOOP ( 'NONE', ( #216, #203, #29, #185 ) ) ;
#239 = AXIS2_PLACEMENT_3D ( 'NONE', #7, #43, #6 ) ;
#240 = DIRECTION ( 'NONE',  ( 0.0000000000000000000, 0.0000000000000000000, 1.000000000000000000 ) ) ;
#241 =( GEOMETRIC_REPRESENTATION_CONTEXT ( 3 ) GLOBAL_UNCERTAINTY_ASSIGNED_CONTEXT ( ( #215 ) ) GLOBAL_UNIT_ASSIGNED_CONTEXT ( ( #106, #125, #131 ) ) REPRESENTATION_CONTEXT ( 'NONE', 'WORKASPACE' ) );
#242 = ORIENTED_EDGE ( 'NONE', *, *, #98, .T. ) ;
#243 = EDGE_CURVE ( 'NONE', #14, #217, #24, .T. ) ;
#244 = CARTESIAN_POINT ( 'NONE',  ( 0.0000000000000000000, 0.0000000000000000000, 2.500000000000000000 ) ) ;
#245 = LINE ( 'NONE', #206, #132 ) ;
#246 = PRESENTATION_LAYER_ASSIGNMENT (  '', '', ( #85 ) ) ;
#247 = CARTESIAN_POINT ( 'NONE',  ( -0.1250000000000000000, 0.0000000000000000000, 0.1991858428704201822 ) ) ;
#248 = ADVANCED_FACE ( 'NONE', ( #22 ), #103, .T. ) ;
#249 = DIRECTION ( 'NONE',  ( -0.0000000000000000000, -0.0000000000000000000, -1.000000000000000000 ) ) ;
ENDSEC;
END-ISO-10303-21;
