ISO-10303-21;
HEADER;
FILE_DESCRIPTION (( 'STEP AP214' ),
    '1' );
FILE_NAME ('Micro_RNC-250-230.STEP',
    '2021-09-03T17:36:15',
    ( '' ),
    ( '' ),
    'SwSTEP 2.0',
    'SolidWorks 2020',
    '' );
FILE_SCHEMA (( 'AUTOMOTIVE_DESIGN' ));
ENDSEC;

DATA;
#1 = AXIS2_PLACEMENT_3D ( 'NONE', #202, #200, #42 ) ;
#2 = CARTESIAN_POINT ( 'NONE',  ( 0.01499999999999999944, 0.0000000000000000000, 0.0000000000000000000 ) ) ;
#3 = EDGE_CURVE ( 'NONE', #217, #244, #32, .T. ) ;
#4 = DIRECTION ( 'NONE',  ( 0.7071067811865489050, 0.0000000000000000000, -0.7071067811865461294 ) ) ;
#5 = ORIENTED_EDGE ( 'NONE', *, *, #90, .F. ) ;
#6 = MECHANICAL_DESIGN_GEOMETRIC_PRESENTATION_REPRESENTATION (  '', ( #160 ), #166 ) ;
#7 = EDGE_CURVE ( 'NONE', #198, #22, #165, .T. ) ;
#8 = DIRECTION ( 'NONE',  ( -1.000000000000000000, 0.0000000000000000000, 0.0000000000000000000 ) ) ;
#9 = UNCERTAINTY_MEASURE_WITH_UNIT (LENGTH_MEASURE( 1.000000000000000082E-05 ), #107, 'distance_accuracy_value', 'NONE');
#10 = CARTESIAN_POINT ( 'NONE',  ( 0.0000000000000000000, 0.0000000000000000000, 2.390000000000000568 ) ) ;
#11 = AXIS2_PLACEMENT_3D ( 'NONE', #134, #234, #172 ) ;
#12 = AXIS2_PLACEMENT_3D ( 'NONE', #10, #238, #143 ) ;
#13 = ADVANCED_FACE ( 'NONE', ( #153 ), #92, .T. ) ;
#14 = EDGE_CURVE ( 'NONE', #198, #217, #196, .T. ) ;
#15 = VECTOR ( 'NONE', #43, 39.37007874015748143 ) ;
#16 = DIRECTION ( 'NONE',  ( -1.000000000000000000, 0.0000000000000000000, 0.0000000000000000000 ) ) ;
#17 = EDGE_LOOP ( 'NONE', ( #184, #58, #101, #146 ) ) ;
#18 = FILL_AREA_STYLE ('',( #54 ) ) ;
#19 = PRODUCT_RELATED_PRODUCT_CATEGORY ( 'part', '', ( #145 ) ) ;
#20 = LINE ( 'NONE', #2, #218 ) ;
#21 = CARTESIAN_POINT ( 'NONE',  ( 0.0000000000000000000, 0.0000000000000000000, 0.0000000000000000000 ) ) ;
#22 = VERTEX_POINT ( 'NONE', #183 ) ;
#23 = EDGE_LOOP ( 'NONE', ( #179, #31, #197, #212 ) ) ;
#24 = DIRECTION ( 'NONE',  ( 1.000000000000000000, 0.0000000000000000000, 0.0000000000000000000 ) ) ;
#25 = LENGTH_MEASURE_WITH_UNIT ( LENGTH_MEASURE( 0.02539999999999999897 ), #162 );
#26 = FACE_OUTER_BOUND ( 'NONE', #100, .T. ) ;
#27 = STYLED_ITEM ( 'NONE', ( #144 ), #77 ) ;
#28 = DIRECTION ( 'NONE',  ( 0.0000000000000000000, 0.0000000000000000000, 1.000000000000000000 ) ) ;
#29 = ORIENTED_EDGE ( 'NONE', *, *, #76, .T. ) ;
#30 = DIRECTION ( 'NONE',  ( 1.000000000000000000, 0.0000000000000000000, -0.0000000000000000000 ) ) ;
#31 = ORIENTED_EDGE ( 'NONE', *, *, #149, .T. ) ;
#32 = CIRCLE ( 'NONE', #56, 0.1250000000000000000 ) ;
#33 =( CONVERSION_BASED_UNIT ( 'INCH', #94 ) LENGTH_UNIT ( ) NAMED_UNIT ( #239 ) );
#34 = ORIENTED_EDGE ( 'NONE', *, *, #7, .T. ) ;
#35 =( LENGTH_UNIT ( ) NAMED_UNIT ( * ) SI_UNIT ( $, .METRE. ) );
#36 = ORIENTED_EDGE ( 'NONE', *, *, #106, .T. ) ;
#37 = ADVANCED_FACE ( 'NONE', ( #215 ), #52, .T. ) ;
#38 = EDGE_LOOP ( 'NONE', ( #158, #209 ) ) ;
#39 = CIRCLE ( 'NONE', #206, 0.01499999999999999944 ) ;
#40 = CARTESIAN_POINT ( 'NONE',  ( 0.0000000000000000000, 0.0000000000000000000, 2.390000000000000568 ) ) ;
#41 = PRODUCT_DEFINITION_FORMATION_WITH_SPECIFIED_SOURCE ( 'ANY', '', #145, .NOT_KNOWN. ) ;
#42 = DIRECTION ( 'NONE',  ( -1.000000000000000000, 0.0000000000000000000, 0.0000000000000000000 ) ) ;
#43 = DIRECTION ( 'NONE',  ( -0.7071067811865489050, 8.659560562354950115E-17, 0.7071067811865461294 ) ) ;
#44 = DIRECTION ( 'NONE',  ( -1.000000000000000000, 0.0000000000000000000, 0.0000000000000000000 ) ) ;
#45 = DIRECTION ( 'NONE',  ( 0.0000000000000000000, 0.0000000000000000000, -1.000000000000000000 ) ) ;
#46 = ORIENTED_EDGE ( 'NONE', *, *, #14, .F. ) ;
#47 = CARTESIAN_POINT ( 'NONE',  ( 0.0000000000000000000, 0.0000000000000000000, 0.1099999999999995565 ) ) ;
#48 = AXIS2_PLACEMENT_3D ( 'NONE', #220, #127, #24 ) ;
#49 = ORIENTED_EDGE ( 'NONE', *, *, #55, .T. ) ;
#50 = CARTESIAN_POINT ( 'NONE',  ( 0.0000000000000000000, 0.0000000000000000000, 0.0000000000000000000 ) ) ;
#51 = CARTESIAN_POINT ( 'NONE',  ( -0.01499999999999999944, -1.836970198721029595E-18, 2.500000000000000000 ) ) ;
#52 = CONICAL_SURFACE ( 'NONE', #177, 0.01499999999999999944, 0.7853981633974502774 ) ;
#53 = AXIS2_PLACEMENT_3D ( 'NONE', #50, #28, #30 ) ;
#54 = FILL_AREA_STYLE_COLOUR ( '', #57 ) ;
#55 = EDGE_CURVE ( 'NONE', #22, #244, #132, .T. ) ;
#56 = AXIS2_PLACEMENT_3D ( 'NONE', #40, #135, #119 ) ;
#57 = COLOUR_RGB ( '',0.7921568627450980005, 0.8196078431372548767, 0.9333333333333333481 ) ;
#58 = ORIENTED_EDGE ( 'NONE', *, *, #168, .T. ) ;
#59 = ORIENTED_EDGE ( 'NONE', *, *, #121, .T. ) ;
#60 = ORIENTED_EDGE ( 'NONE', *, *, #74, .F. ) ;
#61 = VERTEX_POINT ( 'NONE', #249 ) ;
#62 = EDGE_CURVE ( 'NONE', #61, #225, #20, .T. ) ;
#63 = LINE ( 'NONE', #67, #93 ) ;
#64 =( NAMED_UNIT ( * ) PLANE_ANGLE_UNIT ( ) SI_UNIT ( $, .RADIAN. ) );
#65 = AXIS2_PLACEMENT_3D ( 'NONE', #47, #85, #141 ) ;
#66 = ADVANCED_FACE ( 'NONE', ( #156 ), #120, .T. ) ;
#67 = CARTESIAN_POINT ( 'NONE',  ( 0.1250000000000000000, 1.530808498934191509E-17, 2.500000000000000000 ) ) ;
#68 =( NAMED_UNIT ( * ) PLANE_ANGLE_UNIT ( ) SI_UNIT ( $, .RADIAN. ) );
#69 = SURFACE_STYLE_FILL_AREA ( #18 ) ;
#70 = PRODUCT_DEFINITION_SHAPE ( 'NONE', 'NONE',  #128 ) ;
#71 = DIRECTION ( 'NONE',  ( -0.0000000000000000000, -0.0000000000000000000, -1.000000000000000000 ) ) ;
#72 = ORIENTED_EDGE ( 'NONE', *, *, #111, .T. ) ;
#73 = DIRECTION ( 'NONE',  ( -1.000000000000000000, 0.0000000000000000000, 0.0000000000000000000 ) ) ;
#74 = EDGE_CURVE ( 'NONE', #131, #157, #243, .T. ) ;
#75 = EDGE_LOOP ( 'NONE', ( #46, #34, #49, #211 ) ) ;
#76 = EDGE_CURVE ( 'NONE', #157, #225, #154, .T. ) ;
#77 = ADVANCED_BREP_SHAPE_REPRESENTATION ( 'Micro_RNC-250-230', ( #174, #207 ), #155 ) ;
#78 = MECHANICAL_DESIGN_GEOMETRIC_PRESENTATION_REPRESENTATION (  '', ( #27 ), #181 ) ;
#79 = DIRECTION ( 'NONE',  ( 0.7071067811865489050, 0.0000000000000000000, 0.7071067811865461294 ) ) ;
#80 = CARTESIAN_POINT ( 'NONE',  ( 0.0000000000000000000, 0.0000000000000000000, 2.500000000000000000 ) ) ;
#81 = EDGE_LOOP ( 'NONE', ( #72, #216, #136, #236 ) ) ;
#82 = AXIS2_PLACEMENT_3D ( 'NONE', #204, #108, #8 ) ;
#83 = FACE_OUTER_BOUND ( 'NONE', #75, .T. ) ;
#84 = APPLICATION_CONTEXT ( 'automotive_design' ) ;
#85 = DIRECTION ( 'NONE',  ( -0.0000000000000000000, -0.0000000000000000000, -1.000000000000000000 ) ) ;
#86 = FILL_AREA_STYLE ('',( #125 ) ) ;
#87 = AXIS2_PLACEMENT_3D ( 'NONE', #163, #242, #224 ) ;
#88 = CARTESIAN_POINT ( 'NONE',  ( 0.0000000000000000000, 0.0000000000000000000, 2.500000000000000000 ) ) ;
#89 = LENGTH_MEASURE_WITH_UNIT ( LENGTH_MEASURE( 0.02539999999999999897 ), #35 );
#90 = EDGE_CURVE ( 'NONE', #61, #131, #241, .T. ) ;
#91 = CARTESIAN_POINT ( 'NONE',  ( -0.1250000000000000000, 0.0000000000000000000, 2.390000000000000568 ) ) ;
#92 = CONICAL_SURFACE ( 'NONE', #11, 0.01499999999999999944, 0.7853981633974502774 ) ;
#93 = VECTOR ( 'NONE', #104, 39.37007874015748143 ) ;
#94 = LENGTH_MEASURE_WITH_UNIT ( LENGTH_MEASURE( 0.02539999999999999897 ), #170 );
#95 = DIRECTION ( 'NONE',  ( 0.0000000000000000000, 0.0000000000000000000, -1.000000000000000000 ) ) ;
#96 = DIRECTION ( 'NONE',  ( 0.0000000000000000000, 0.0000000000000000000, 1.000000000000000000 ) ) ;
#97 = CARTESIAN_POINT ( 'NONE',  ( 0.0000000000000000000, 0.0000000000000000000, 2.500000000000000000 ) ) ;
#98 =( CONVERSION_BASED_UNIT ( 'INCH', #89 ) LENGTH_UNIT ( ) NAMED_UNIT ( #205 ) );
#99 = ADVANCED_FACE ( 'NONE', ( #83 ), #223, .T. ) ;
#100 = EDGE_LOOP ( 'NONE', ( #116, #230, #29, #151 ) ) ;
#101 = ORIENTED_EDGE ( 'NONE', *, *, #76, .F. ) ;
#102 = ORIENTED_EDGE ( 'NONE', *, *, #90, .T. ) ;
#103 = APPLICATION_CONTEXT ( 'automotive_design' ) ;
#104 = DIRECTION ( 'NONE',  ( -0.0000000000000000000, -0.0000000000000000000, -1.000000000000000000 ) ) ;
#105 = DIRECTION ( 'NONE',  ( 1.000000000000000000, 0.0000000000000000000, 0.0000000000000000000 ) ) ;
#106 = EDGE_CURVE ( 'NONE', #225, #157, #228, .T. ) ;
#107 =( CONVERSION_BASED_UNIT ( 'INCH', #25 ) LENGTH_UNIT ( ) NAMED_UNIT ( #138 ) );
#108 = DIRECTION ( 'NONE',  ( -0.0000000000000000000, -0.0000000000000000000, -1.000000000000000000 ) ) ;
#109 =( NAMED_UNIT ( * ) SI_UNIT ( $, .STERADIAN. ) SOLID_ANGLE_UNIT ( ) );
#110 =( NAMED_UNIT ( * ) SI_UNIT ( $, .STERADIAN. ) SOLID_ANGLE_UNIT ( ) );
#111 = EDGE_CURVE ( 'NONE', #22, #198, #39, .T. ) ;
#112 = FACE_OUTER_BOUND ( 'NONE', #169, .T. ) ;
#113 = AXIS2_PLACEMENT_3D ( 'NONE', #124, #45, #105 ) ;
#114 = CARTESIAN_POINT ( 'NONE',  ( 0.0000000000000000000, 0.0000000000000000000, 2.500000000000000000 ) ) ;
#115 = ADVANCED_FACE ( 'NONE', ( #26 ), #159, .T. ) ;
#116 = ORIENTED_EDGE ( 'NONE', *, *, #121, .F. ) ;
#117 = DIRECTION ( 'NONE',  ( 1.000000000000000000, 0.0000000000000000000, 0.0000000000000000000 ) ) ;
#118 = VECTOR ( 'NONE', #240, 39.37007874015748143 ) ;
#119 = DIRECTION ( 'NONE',  ( -1.000000000000000000, 0.0000000000000000000, 0.0000000000000000000 ) ) ;
#120 = CYLINDRICAL_SURFACE ( 'NONE', #148, 0.1250000000000000000 ) ;
#121 = EDGE_CURVE ( 'NONE', #131, #61, #130, .T. ) ;
#122 = ORIENTED_EDGE ( 'NONE', *, *, #62, .T. ) ;
#123 = CARTESIAN_POINT ( 'NONE',  ( -0.01499999999999999944, 8.572527594031471957E-18, 0.0000000000000000000 ) ) ;
#124 = CARTESIAN_POINT ( 'NONE',  ( 0.0000000000000000000, 0.0000000000000000000, 2.500000000000000000 ) ) ;
#125 = FILL_AREA_STYLE_COLOUR ( '', #226 ) ;
#126 = CIRCLE ( 'NONE', #12, 0.1250000000000000000 ) ;
#127 = DIRECTION ( 'NONE',  ( 0.0000000000000000000, 0.0000000000000000000, 1.000000000000000000 ) ) ;
#128 = PRODUCT_DEFINITION ( 'UNKNOWN', '', #41, #237 ) ;
#129 = CARTESIAN_POINT ( 'NONE',  ( -0.01499999999999999944, -8.572527594031471957E-18, 2.500000000000000000 ) ) ;
#130 = CIRCLE ( 'NONE', #82, 0.01499999999999999944 ) ;
#131 = VERTEX_POINT ( 'NONE', #123 ) ;
#132 = LINE ( 'NONE', #175, #232 ) ;
#133 = PRESENTATION_LAYER_ASSIGNMENT (  '', '', ( #160 ) ) ;
#134 = CARTESIAN_POINT ( 'NONE',  ( 0.0000000000000000000, 0.0000000000000000000, 0.0000000000000000000 ) ) ;
#135 = DIRECTION ( 'NONE',  ( 0.0000000000000000000, 0.0000000000000000000, -1.000000000000000000 ) ) ;
#136 = ORIENTED_EDGE ( 'NONE', *, *, #149, .F. ) ;
#137 = DIRECTION ( 'NONE',  ( -1.000000000000000000, 0.0000000000000000000, 0.0000000000000000000 ) ) ;
#138 = DIMENSIONAL_EXPONENTS ( 1.000000000000000000, 0.0000000000000000000, 0.0000000000000000000, 0.0000000000000000000, 0.0000000000000000000, 0.0000000000000000000, 0.0000000000000000000 ) ;
#139 = EDGE_CURVE ( 'NONE', #217, #157, #199, .T. ) ;
#140 = CARTESIAN_POINT ( 'NONE',  ( -0.01499999999999999944, 1.836970198721029595E-18, 0.0000000000000000000 ) ) ;
#141 = DIRECTION ( 'NONE',  ( -1.000000000000000000, 0.0000000000000000000, 0.0000000000000000000 ) ) ;
#142 = CYLINDRICAL_SURFACE ( 'NONE', #186, 0.1250000000000000000 ) ;
#143 = DIRECTION ( 'NONE',  ( -1.000000000000000000, 0.0000000000000000000, 0.0000000000000000000 ) ) ;
#144 = PRESENTATION_STYLE_ASSIGNMENT (( #150 ) ) ;
#145 = PRODUCT ( 'Micro_RNC-250-230', 'Micro_RNC-250-230', '', ( #182 ) ) ;
#146 = ORIENTED_EDGE ( 'NONE', *, *, #139, .F. ) ;
#147 = FACE_OUTER_BOUND ( 'NONE', #17, .T. ) ;
#148 = AXIS2_PLACEMENT_3D ( 'NONE', #80, #235, #44 ) ;
#149 = EDGE_CURVE ( 'NONE', #244, #217, #126, .T. ) ;
#150 = SURFACE_STYLE_USAGE ( .BOTH. , #189 ) ;
#151 = ORIENTED_EDGE ( 'NONE', *, *, #62, .F. ) ;
#152 = DIRECTION ( 'NONE',  ( 1.000000000000000000, 0.0000000000000000000, -0.0000000000000000000 ) ) ;
#153 = FACE_OUTER_BOUND ( 'NONE', #245, .T. ) ;
#154 = CIRCLE ( 'NONE', #65, 0.1250000000000000000 ) ;
#155 =( GEOMETRIC_REPRESENTATION_CONTEXT ( 3 ) GLOBAL_UNCERTAINTY_ASSIGNED_CONTEXT ( ( #219 ) ) GLOBAL_UNIT_ASSIGNED_CONTEXT ( ( #33, #208, #110 ) ) REPRESENTATION_CONTEXT ( 'NONE', 'WORKASPACE' ) );
#156 = FACE_OUTER_BOUND ( 'NONE', #23, .T. ) ;
#157 = VERTEX_POINT ( 'NONE', #161 ) ;
#158 = ORIENTED_EDGE ( 'NONE', *, *, #111, .F. ) ;
#159 = CONICAL_SURFACE ( 'NONE', #48, 0.01499999999999999944, 0.7853981633974502774 ) ;
#160 = STYLED_ITEM ( 'NONE', ( #185 ), #174 ) ;
#161 = CARTESIAN_POINT ( 'NONE',  ( -0.1250000000000000000, 0.0000000000000000000, 0.1099999999999995565 ) ) ;
#162 =( LENGTH_UNIT ( ) NAMED_UNIT ( * ) SI_UNIT ( $, .METRE. ) );
#163 = CARTESIAN_POINT ( 'NONE',  ( 0.0000000000000000000, 0.0000000000000000000, 0.0000000000000000000 ) ) ;
#164 = UNCERTAINTY_MEASURE_WITH_UNIT (LENGTH_MEASURE( 1.000000000000000082E-05 ), #98, 'distance_accuracy_value', 'NONE');
#165 = CIRCLE ( 'NONE', #201, 0.01499999999999999944 ) ;
#166 =( GEOMETRIC_REPRESENTATION_CONTEXT ( 3 ) GLOBAL_UNCERTAINTY_ASSIGNED_CONTEXT ( ( #9 ) ) GLOBAL_UNIT_ASSIGNED_CONTEXT ( ( #107, #64, #109 ) ) REPRESENTATION_CONTEXT ( 'NONE', 'WORKASPACE' ) );
#167 = SURFACE_SIDE_STYLE ('',( #187 ) ) ;
#168 = EDGE_CURVE ( 'NONE', #244, #225, #63, .T. ) ;
#169 = EDGE_LOOP ( 'NONE', ( #102, #59 ) ) ;
#170 =( LENGTH_UNIT ( ) NAMED_UNIT ( * ) SI_UNIT ( $, .METRE. ) );
#171 = AXIS2_PLACEMENT_3D ( 'NONE', #190, #96, #152 ) ;
#172 = DIRECTION ( 'NONE',  ( 1.000000000000000000, 0.0000000000000000000, 0.0000000000000000000 ) ) ;
#173 = APPLICATION_PROTOCOL_DEFINITION ( 'draft international standard', 'automotive_design', 1998, #103 ) ;
#174 = MANIFOLD_SOLID_BREP ( 'Mirror1', #194 ) ;
#175 = CARTESIAN_POINT ( 'NONE',  ( 0.01499999999999999944, 0.0000000000000000000, 2.500000000000000000 ) ) ;
#176 = CARTESIAN_POINT ( 'NONE',  ( 0.1250000000000000000, 1.530808498934191509E-17, 2.390000000000000568 ) ) ;
#177 = AXIS2_PLACEMENT_3D ( 'NONE', #97, #95, #227 ) ;
#178 = ADVANCED_FACE ( 'NONE', ( #147 ), #142, .T. ) ;
#179 = ORIENTED_EDGE ( 'NONE', *, *, #168, .F. ) ;
#180 = VECTOR ( 'NONE', #192, 39.37007874015748143 ) ;
#181 =( GEOMETRIC_REPRESENTATION_CONTEXT ( 3 ) GLOBAL_UNCERTAINTY_ASSIGNED_CONTEXT ( ( #164 ) ) GLOBAL_UNIT_ASSIGNED_CONTEXT ( ( #98, #68, #210 ) ) REPRESENTATION_CONTEXT ( 'NONE', 'WORKASPACE' ) );
#182 = PRODUCT_CONTEXT ( 'NONE', #103, 'mechanical' ) ;
#183 = CARTESIAN_POINT ( 'NONE',  ( 0.01499999999999999944, 0.0000000000000000000, 2.500000000000000000 ) ) ;
#184 = ORIENTED_EDGE ( 'NONE', *, *, #3, .T. ) ;
#185 = PRESENTATION_STYLE_ASSIGNMENT (( #221 ) ) ;
#186 = AXIS2_PLACEMENT_3D ( 'NONE', #246, #71, #73 ) ;
#187 = SURFACE_STYLE_FILL_AREA ( #86 ) ;
#188 = CARTESIAN_POINT ( 'NONE',  ( -0.1250000000000000000, 0.0000000000000000000, 2.500000000000000000 ) ) ;
#189 = SURFACE_SIDE_STYLE ('',( #69 ) ) ;
#190 = CARTESIAN_POINT ( 'NONE',  ( 0.0000000000000000000, 0.0000000000000000000, 2.500000000000000000 ) ) ;
#191 = PLANE ( 'NONE',  #53 ) ;
#192 = DIRECTION ( 'NONE',  ( -0.7071067811865489050, -8.659560562354950115E-17, -0.7071067811865461294 ) ) ;
#193 = PLANE ( 'NONE',  #171 ) ;
#194 = CLOSED_SHELL ( 'NONE', ( #37, #115, #178, #66, #13, #203, #99, #213 ) ) ;
#195 = APPLICATION_PROTOCOL_DEFINITION ( 'draft international standard', 'automotive_design', 1998, #84 ) ;
#196 = LINE ( 'NONE', #51, #180 ) ;
#197 = ORIENTED_EDGE ( 'NONE', *, *, #139, .T. ) ;
#198 = VERTEX_POINT ( 'NONE', #129 ) ;
#199 = LINE ( 'NONE', #188, #118 ) ;
#200 = DIRECTION ( 'NONE',  ( -0.0000000000000000000, -0.0000000000000000000, -1.000000000000000000 ) ) ;
#201 = AXIS2_PLACEMENT_3D ( 'NONE', #114, #247, #16 ) ;
#202 = CARTESIAN_POINT ( 'NONE',  ( 0.0000000000000000000, 0.0000000000000000000, 0.1099999999999995565 ) ) ;
#203 = ADVANCED_FACE ( 'NONE', ( #112 ), #191, .F. ) ;
#204 = CARTESIAN_POINT ( 'NONE',  ( 0.0000000000000000000, 0.0000000000000000000, 0.0000000000000000000 ) ) ;
#205 = DIMENSIONAL_EXPONENTS ( 1.000000000000000000, 0.0000000000000000000, 0.0000000000000000000, 0.0000000000000000000, 0.0000000000000000000, 0.0000000000000000000, 0.0000000000000000000 ) ;
#206 = AXIS2_PLACEMENT_3D ( 'NONE', #88, #222, #137 ) ;
#207 = AXIS2_PLACEMENT_3D ( 'NONE', #21, #231, #117 ) ;
#208 =( NAMED_UNIT ( * ) PLANE_ANGLE_UNIT ( ) SI_UNIT ( $, .RADIAN. ) );
#209 = ORIENTED_EDGE ( 'NONE', *, *, #7, .F. ) ;
#210 =( NAMED_UNIT ( * ) SI_UNIT ( $, .STERADIAN. ) SOLID_ANGLE_UNIT ( ) );
#211 = ORIENTED_EDGE ( 'NONE', *, *, #3, .F. ) ;
#212 = ORIENTED_EDGE ( 'NONE', *, *, #106, .F. ) ;
#213 = ADVANCED_FACE ( 'NONE', ( #229 ), #193, .T. ) ;
#214 = PRESENTATION_LAYER_ASSIGNMENT (  '', '', ( #27 ) ) ;
#215 = FACE_OUTER_BOUND ( 'NONE', #81, .T. ) ;
#216 = ORIENTED_EDGE ( 'NONE', *, *, #14, .T. ) ;
#217 = VERTEX_POINT ( 'NONE', #91 ) ;
#218 = VECTOR ( 'NONE', #79, 39.37007874015748143 ) ;
#219 = UNCERTAINTY_MEASURE_WITH_UNIT (LENGTH_MEASURE( 1.000000000000000082E-05 ), #33, 'distance_accuracy_value', 'NONE');
#220 = CARTESIAN_POINT ( 'NONE',  ( 0.0000000000000000000, 0.0000000000000000000, 0.0000000000000000000 ) ) ;
#221 = SURFACE_STYLE_USAGE ( .BOTH. , #167 ) ;
#222 = DIRECTION ( 'NONE',  ( 0.0000000000000000000, 0.0000000000000000000, -1.000000000000000000 ) ) ;
#223 = CONICAL_SURFACE ( 'NONE', #113, 0.01499999999999999944, 0.7853981633974502774 ) ;
#224 = DIRECTION ( 'NONE',  ( -1.000000000000000000, 0.0000000000000000000, 0.0000000000000000000 ) ) ;
#225 = VERTEX_POINT ( 'NONE', #248 ) ;
#226 = COLOUR_RGB ( '',0.7921568627450980005, 0.8196078431372548767, 0.9333333333333333481 ) ;
#227 = DIRECTION ( 'NONE',  ( 1.000000000000000000, 0.0000000000000000000, 0.0000000000000000000 ) ) ;
#228 = CIRCLE ( 'NONE', #1, 0.1250000000000000000 ) ;
#229 = FACE_OUTER_BOUND ( 'NONE', #38, .T. ) ;
#230 = ORIENTED_EDGE ( 'NONE', *, *, #74, .T. ) ;
#231 = DIRECTION ( 'NONE',  ( 0.0000000000000000000, 0.0000000000000000000, 1.000000000000000000 ) ) ;
#232 = VECTOR ( 'NONE', #4, 39.37007874015748143 ) ;
#233 = SHAPE_DEFINITION_REPRESENTATION ( #70, #77 ) ;
#234 = DIRECTION ( 'NONE',  ( 0.0000000000000000000, 0.0000000000000000000, 1.000000000000000000 ) ) ;
#235 = DIRECTION ( 'NONE',  ( -0.0000000000000000000, -0.0000000000000000000, -1.000000000000000000 ) ) ;
#236 = ORIENTED_EDGE ( 'NONE', *, *, #55, .F. ) ;
#237 = PRODUCT_DEFINITION_CONTEXT ( 'detailed design', #84, 'design' ) ;
#238 = DIRECTION ( 'NONE',  ( 0.0000000000000000000, 0.0000000000000000000, -1.000000000000000000 ) ) ;
#239 = DIMENSIONAL_EXPONENTS ( 1.000000000000000000, 0.0000000000000000000, 0.0000000000000000000, 0.0000000000000000000, 0.0000000000000000000, 0.0000000000000000000, 0.0000000000000000000 ) ;
#240 = DIRECTION ( 'NONE',  ( -0.0000000000000000000, -0.0000000000000000000, -1.000000000000000000 ) ) ;
#241 = CIRCLE ( 'NONE', #87, 0.01499999999999999944 ) ;
#242 = DIRECTION ( 'NONE',  ( -0.0000000000000000000, -0.0000000000000000000, -1.000000000000000000 ) ) ;
#243 = LINE ( 'NONE', #140, #15 ) ;
#244 = VERTEX_POINT ( 'NONE', #176 ) ;
#245 = EDGE_LOOP ( 'NONE', ( #60, #5, #122, #36 ) ) ;
#246 = CARTESIAN_POINT ( 'NONE',  ( 0.0000000000000000000, 0.0000000000000000000, 2.500000000000000000 ) ) ;
#247 = DIRECTION ( 'NONE',  ( 0.0000000000000000000, 0.0000000000000000000, -1.000000000000000000 ) ) ;
#248 = CARTESIAN_POINT ( 'NONE',  ( 0.1250000000000000000, 1.530808498934191509E-17, 0.1099999999999995565 ) ) ;
#249 = CARTESIAN_POINT ( 'NONE',  ( 0.01499999999999999944, 0.0000000000000000000, 0.0000000000000000000 ) ) ;
ENDSEC;
END-ISO-10303-21;
