ISO-10303-21;
HEADER;
FILE_DESCRIPTION (( 'STEP AP214' ),
    '1' );
FILE_NAME ('Micro_KC-125-190-062.STEP',
    '2021-09-03T19:09:52',
    ( '' ),
    ( '' ),
    'SwSTEP 2.0',
    'SolidWorks 2020',
    '' );
FILE_SCHEMA (( 'AUTOMOTIVE_DESIGN' ));
ENDSEC;

DATA;
#1 =( NAMED_UNIT ( * ) PLANE_ANGLE_UNIT ( ) SI_UNIT ( $, .RADIAN. ) );
#2 = EDGE_CURVE ( 'NONE', #89, #364, #294, .T. ) ;
#3 = SURFACE_SIDE_STYLE ('',( #329 ) ) ;
#4 = CLOSED_SHELL ( 'NONE', ( #219, #332, #241, #35, #142, #222, #150, #121, #335, #111, #153, #54, #180 ) ) ;
#5 = EDGE_CURVE ( 'NONE', #57, #52, #59, .T. ) ;
#6 = DIRECTION ( 'NONE',  ( -0.0000000000000000000, -0.0000000000000000000, -1.000000000000000000 ) ) ;
#7 = CARTESIAN_POINT ( 'NONE',  ( 0.0000000000000000000, 0.0000000000000000000, 0.1899999999999999745 ) ) ;
#8 = EDGE_CURVE ( 'NONE', #84, #364, #119, .T. ) ;
#9 = AXIS2_PLACEMENT_3D ( 'NONE', #322, #58, #88 ) ;
#10 = DIRECTION ( 'NONE',  ( 1.000000000000000000, 0.0000000000000000000, 0.0000000000000000000 ) ) ;
#11 = DIRECTION ( 'NONE',  ( -0.0000000000000000000, -0.0000000000000000000, -1.000000000000000000 ) ) ;
#12 = FACE_OUTER_BOUND ( 'NONE', #199, .T. ) ;
#13 = EDGE_CURVE ( 'NONE', #122, #82, #368, .T. ) ;
#14 = PLANE ( 'NONE',  #204 ) ;
#15 = PRESENTATION_LAYER_ASSIGNMENT (  '', '', ( #48 ) ) ;
#16 = CARTESIAN_POINT ( 'NONE',  ( 0.0000000000000000000, 0.0000000000000000000, 0.0000000000000000000 ) ) ;
#17 = CARTESIAN_POINT ( 'NONE',  ( 0.03100000000000001713, 0.0000000000000000000, 0.1899999999999999745 ) ) ;
#18 = FILL_AREA_STYLE_COLOUR ( '', #187 ) ;
#19 = EDGE_LOOP ( 'NONE', ( #61, #228, #105, #206 ) ) ;
#20 = CIRCLE ( 'NONE', #226, 0.04750000000000064587 ) ;
#21 = CARTESIAN_POINT ( 'NONE',  ( -0.06250000000000001388, 0.0000000000000000000, 0.06199999999999999956 ) ) ;
#22 = ORIENTED_EDGE ( 'NONE', *, *, #341, .T. ) ;
#23 = CARTESIAN_POINT ( 'NONE',  ( 0.0000000000000000000, 0.0000000000000000000, 1.500000000000000222 ) ) ;
#24 = ORIENTED_EDGE ( 'NONE', *, *, #39, .F. ) ;
#25 = EDGE_CURVE ( 'NONE', #364, #84, #92, .T. ) ;
#26 = DIRECTION ( 'NONE',  ( 1.000000000000000000, 0.0000000000000000000, 0.0000000000000000000 ) ) ;
#27 = CARTESIAN_POINT ( 'NONE',  ( 0.0000000000000000000, 0.0000000000000000000, 0.06199999999999999956 ) ) ;
#28 = VECTOR ( 'NONE', #114, 39.37007874015748143 ) ;
#29 = EDGE_LOOP ( 'NONE', ( #325, #169, #308, #260 ) ) ;
#30 = APPLICATION_PROTOCOL_DEFINITION ( 'draft international standard', 'automotive_design', 1998, #120 ) ;
#31 = EDGE_CURVE ( 'NONE', #55, #159, #356, .T. ) ;
#32 = DIRECTION ( 'NONE',  ( -0.0000000000000000000, -0.0000000000000000000, -1.000000000000000000 ) ) ;
#33 = CARTESIAN_POINT ( 'NONE',  ( -0.06250000000000000000, 0.0000000000000000000, 1.500000000000000222 ) ) ;
#34 = AXIS2_PLACEMENT_3D ( 'NONE', #217, #337, #71 ) ;
#35 = ADVANCED_FACE ( 'NONE', ( #359 ), #327, .T. ) ;
#36 = LENGTH_MEASURE_WITH_UNIT ( LENGTH_MEASURE( 0.02539999999999999897 ), #72 );
#37 = EDGE_CURVE ( 'NONE', #287, #52, #234, .T. ) ;
#38 = DIRECTION ( 'NONE',  ( -0.0000000000000000000, -0.0000000000000000000, -1.000000000000000000 ) ) ;
#39 = EDGE_CURVE ( 'NONE', #159, #287, #70, .T. ) ;
#40 = CARTESIAN_POINT ( 'NONE',  ( -0.06250000000000000000, 0.0000000000000000000, 0.2214999999999998359 ) ) ;
#41 = AXIS2_PLACEMENT_3D ( 'NONE', #203, #112, #320 ) ;
#42 = DIRECTION ( 'NONE',  ( -0.0000000000000000000, -0.0000000000000000000, -1.000000000000000000 ) ) ;
#43 = ORIENTED_EDGE ( 'NONE', *, *, #25, .T. ) ;
#44 = PLANE ( 'NONE',  #34 ) ;
#45 = ORIENTED_EDGE ( 'NONE', *, *, #79, .T. ) ;
#46 = DIRECTION ( 'NONE',  ( 0.0000000000000000000, 0.0000000000000000000, -1.000000000000000000 ) ) ;
#47 = AXIS2_PLACEMENT_3D ( 'NONE', #170, #83, #104 ) ;
#48 = STYLED_ITEM ( 'NONE', ( #179 ), #194 ) ;
#49 = DIRECTION ( 'NONE',  ( -0.0000000000000000000, -0.0000000000000000000, -1.000000000000000000 ) ) ;
#50 = ORIENTED_EDGE ( 'NONE', *, *, #13, .F. ) ;
#51 = DIRECTION ( 'NONE',  ( -0.0000000000000000000, -0.0000000000000000000, -1.000000000000000000 ) ) ;
#52 = VERTEX_POINT ( 'NONE', #40 ) ;
#53 = CARTESIAN_POINT ( 'NONE',  ( 0.0000000000000000000, 0.0000000000000000000, 0.06199999999999999956 ) ) ;
#54 = ADVANCED_FACE ( 'NONE', ( #305 ), #14, .F. ) ;
#55 = VERTEX_POINT ( 'NONE', #339 ) ;
#56 = DIRECTION ( 'NONE',  ( 1.000000000000000000, 0.0000000000000000000, 0.0000000000000000000 ) ) ;
#57 = VERTEX_POINT ( 'NONE', #126 ) ;
#58 = DIRECTION ( 'NONE',  ( 0.0000000000000000000, 0.0000000000000000000, 1.000000000000000000 ) ) ;
#59 = LINE ( 'NONE', #173, #128 ) ;
#60 = CARTESIAN_POINT ( 'NONE',  ( 0.0000000000000000000, 0.0000000000000000000, 0.0000000000000000000 ) ) ;
#61 = ORIENTED_EDGE ( 'NONE', *, *, #5, .F. ) ;
#62 = CIRCLE ( 'NONE', #155, 0.06250000000000000000 ) ;
#63 = DIRECTION ( 'NONE',  ( 1.000000000000000000, 0.0000000000000000000, 0.0000000000000000000 ) ) ;
#64 = DIRECTION ( 'NONE',  ( -1.000000000000000000, 0.0000000000000000000, 0.0000000000000000000 ) ) ;
#65 = SURFACE_STYLE_USAGE ( .BOTH. , #3 ) ;
#66 =( CONVERSION_BASED_UNIT ( 'INCH', #352 ) LENGTH_UNIT ( ) NAMED_UNIT ( #333 ) );
#67 =( NAMED_UNIT ( * ) SI_UNIT ( $, .STERADIAN. ) SOLID_ANGLE_UNIT ( ) );
#68 = FACE_OUTER_BOUND ( 'NONE', #314, .T. ) ;
#69 = UNCERTAINTY_MEASURE_WITH_UNIT (LENGTH_MEASURE( 1.000000000000000082E-05 ), #66, 'distance_accuracy_value', 'NONE');
#70 = LINE ( 'NONE', #336, #369 ) ;
#71 = DIRECTION ( 'NONE',  ( 1.000000000000000000, 0.0000000000000000000, -0.0000000000000000000 ) ) ;
#72 =( LENGTH_UNIT ( ) NAMED_UNIT ( * ) SI_UNIT ( $, .METRE. ) );
#73 = DIRECTION ( 'NONE',  ( 1.000000000000000000, 0.0000000000000000000, 0.0000000000000000000 ) ) ;
#74 = DIRECTION ( 'NONE',  ( -0.7071067811865456854, 0.0000000000000000000, -0.7071067811865493491 ) ) ;
#75 = ORIENTED_EDGE ( 'NONE', *, *, #272, .F. ) ;
#76 = EDGE_CURVE ( 'NONE', #257, #345, #212, .T. ) ;
#77 = PRESENTATION_LAYER_ASSIGNMENT (  '', '', ( #162 ) ) ;
#78 = EDGE_LOOP ( 'NONE', ( #171, #238, #373, #254 ) ) ;
#79 = EDGE_CURVE ( 'NONE', #89, #57, #96, .T. ) ;
#80 = CARTESIAN_POINT ( 'NONE',  ( -0.04750000000000064587, 0.0000000000000000000, 1.500000000000000222 ) ) ;
#81 =( LENGTH_UNIT ( ) NAMED_UNIT ( * ) SI_UNIT ( $, .METRE. ) );
#82 = VERTEX_POINT ( 'NONE', #358 ) ;
#83 = DIRECTION ( 'NONE',  ( 0.0000000000000000000, 0.0000000000000000000, 1.000000000000000000 ) ) ;
#84 = VERTEX_POINT ( 'NONE', #99 ) ;
#85 = AXIS2_PLACEMENT_3D ( 'NONE', #107, #225, #313 ) ;
#86 =( NAMED_UNIT ( * ) SI_UNIT ( $, .STERADIAN. ) SOLID_ANGLE_UNIT ( ) );
#87 = ORIENTED_EDGE ( 'NONE', *, *, #302, .F. ) ;
#88 = DIRECTION ( 'NONE',  ( 1.000000000000000000, 0.0000000000000000000, 0.0000000000000000000 ) ) ;
#89 = VERTEX_POINT ( 'NONE', #250 ) ;
#90 = DIRECTION ( 'NONE',  ( -0.0000000000000000000, -0.0000000000000000000, -1.000000000000000000 ) ) ;
#91 = FACE_OUTER_BOUND ( 'NONE', #351, .T. ) ;
#92 = CIRCLE ( 'NONE', #251, 0.03100000000000000672 ) ;
#93 = AXIS2_PLACEMENT_3D ( 'NONE', #138, #49, #166 ) ;
#94 = FILL_AREA_STYLE_COLOUR ( '', #95 ) ;
#95 = COLOUR_RGB ( '',0.7921568627450980005, 0.8196078431372548767, 0.9333333333333333481 ) ;
#96 = CIRCLE ( 'NONE', #312, 0.03100000000000001713 ) ;
#97 = CARTESIAN_POINT ( 'NONE',  ( 0.0000000000000000000, 0.0000000000000000000, 1.500000000000000222 ) ) ;
#98 = CARTESIAN_POINT ( 'NONE',  ( 0.0000000000000000000, 0.0000000000000000000, 0.06199999999999999956 ) ) ;
#99 = CARTESIAN_POINT ( 'NONE',  ( -0.03100000000000000672, 0.0000000000000000000, 0.06199999999999999956 ) ) ;
#100 = CARTESIAN_POINT ( 'NONE',  ( 0.0000000000000000000, 0.0000000000000000000, 0.0000000000000000000 ) ) ;
#101 = CARTESIAN_POINT ( 'NONE',  ( 0.0000000000000000000, 0.0000000000000000000, 0.2214999999999998359 ) ) ;
#102 = VECTOR ( 'NONE', #90, 39.37007874015748143 ) ;
#103 = ORIENTED_EDGE ( 'NONE', *, *, #265, .T. ) ;
#104 = DIRECTION ( 'NONE',  ( 1.000000000000000000, 0.0000000000000000000, -0.0000000000000000000 ) ) ;
#105 = ORIENTED_EDGE ( 'NONE', *, *, #200, .T. ) ;
#106 = ORIENTED_EDGE ( 'NONE', *, *, #341, .F. ) ;
#107 = CARTESIAN_POINT ( 'NONE',  ( 0.0000000000000000000, 0.0000000000000000000, 0.1899999999999999745 ) ) ;
#108 = AXIS2_PLACEMENT_3D ( 'NONE', #130, #186, #64 ) ;
#109 = EDGE_CURVE ( 'NONE', #52, #287, #62, .T. ) ;
#110 = ORIENTED_EDGE ( 'NONE', *, *, #37, .F. ) ;
#111 = ADVANCED_FACE ( 'NONE', ( #91 ), #190, .T. ) ;
#112 = DIRECTION ( 'NONE',  ( -0.0000000000000000000, -0.0000000000000000000, -1.000000000000000000 ) ) ;
#113 = ORIENTED_EDGE ( 'NONE', *, *, #245, .T. ) ;
#114 = DIRECTION ( 'NONE',  ( -0.0000000000000000000, -0.0000000000000000000, -1.000000000000000000 ) ) ;
#115 = ORIENTED_EDGE ( 'NONE', *, *, #25, .F. ) ;
#116 = DIRECTION ( 'NONE',  ( -1.000000000000000000, 0.0000000000000000000, 0.0000000000000000000 ) ) ;
#117 = ORIENTED_EDGE ( 'NONE', *, *, #13, .T. ) ;
#118 = CONICAL_SURFACE ( 'NONE', #277, 0.04750000000000064587, 0.7853981633974457255 ) ;
#119 = CIRCLE ( 'NONE', #276, 0.03100000000000000672 ) ;
#120 = APPLICATION_CONTEXT ( 'automotive_design' ) ;
#121 = ADVANCED_FACE ( 'NONE', ( #309 ), #118, .T. ) ;
#122 = VERTEX_POINT ( 'NONE', #178 ) ;
#123 = ORIENTED_EDGE ( 'NONE', *, *, #147, .T. ) ;
#124 = UNCERTAINTY_MEASURE_WITH_UNIT (LENGTH_MEASURE( 1.000000000000000082E-05 ), #299, 'distance_accuracy_value', 'NONE');
#125 = CIRCLE ( 'NONE', #196, 0.06250000000000001388 ) ;
#126 = CARTESIAN_POINT ( 'NONE',  ( -0.03100000000000001713, 5.725223786013877433E-18, 0.1899999999999999745 ) ) ;
#127 = AXIS2_PLACEMENT_3D ( 'NONE', #23, #51, #286 ) ;
#128 = VECTOR ( 'NONE', #297, 39.37007874015748143 ) ;
#129 = DIRECTION ( 'NONE',  ( -0.0000000000000000000, -0.0000000000000000000, -1.000000000000000000 ) ) ;
#130 = CARTESIAN_POINT ( 'NONE',  ( 0.0000000000000000000, 0.0000000000000000000, 0.0000000000000000000 ) ) ;
#131 = FACE_OUTER_BOUND ( 'NONE', #282, .T. ) ;
#132 = CARTESIAN_POINT ( 'NONE',  ( 0.0000000000000000000, 0.0000000000000000000, 0.1899999999999999745 ) ) ;
#133 =( GEOMETRIC_REPRESENTATION_CONTEXT ( 3 ) GLOBAL_UNCERTAINTY_ASSIGNED_CONTEXT ( ( #69 ) ) GLOBAL_UNIT_ASSIGNED_CONTEXT ( ( #66, #1, #86 ) ) REPRESENTATION_CONTEXT ( 'NONE', 'WORKASPACE' ) );
#134 = VECTOR ( 'NONE', #151, 39.37007874015748143 ) ;
#135 = SURFACE_STYLE_FILL_AREA ( #346 ) ;
#136 = APPLICATION_CONTEXT ( 'automotive_design' ) ;
#137 = CARTESIAN_POINT ( 'NONE',  ( -0.06250000000000000000, 0.0000000000000000000, 1.485000000000000764 ) ) ;
#138 = CARTESIAN_POINT ( 'NONE',  ( 0.0000000000000000000, 0.0000000000000000000, 1.500000000000000222 ) ) ;
#139 = VECTOR ( 'NONE', #261, 39.37007874015748143 ) ;
#140 = CONICAL_SURFACE ( 'NONE', #85, 0.03100000000000001713, 0.7853981633974502774 ) ;
#141 = EDGE_LOOP ( 'NONE', ( #123, #262, #323, #75 ) ) ;
#142 = ADVANCED_FACE ( 'NONE', ( #68 ), #158, .T. ) ;
#143 = CARTESIAN_POINT ( 'NONE',  ( 0.06250000000000000000, 7.654042494670956004E-18, 1.485000000000000764 ) ) ;
#144 = DIRECTION ( 'NONE',  ( 0.7071067811865489050, 0.0000000000000000000, 0.7071067811865461294 ) ) ;
#145 = EDGE_LOOP ( 'NONE', ( #264, #268, #223, #311 ) ) ;
#146 = DIRECTION ( 'NONE',  ( -0.0000000000000000000, -0.0000000000000000000, -1.000000000000000000 ) ) ;
#147 = EDGE_CURVE ( 'NONE', #57, #89, #361, .T. ) ;
#148 = ORIENTED_EDGE ( 'NONE', *, *, #331, .T. ) ;
#149 = AXIS2_PLACEMENT_3D ( 'NONE', #307, #154, #215 ) ;
#150 = ADVANCED_FACE ( 'NONE', ( #12 ), #44, .T. ) ;
#151 = DIRECTION ( 'NONE',  ( 0.7071067811865456854, 8.659560562354911904E-17, -0.7071067811865493491 ) ) ;
#152 = DIRECTION ( 'NONE',  ( 0.0000000000000000000, 0.0000000000000000000, 1.000000000000000000 ) ) ;
#153 = ADVANCED_FACE ( 'NONE', ( #188, #131 ), #247, .T. ) ;
#154 = DIRECTION ( 'NONE',  ( 0.0000000000000000000, 0.0000000000000000000, -1.000000000000000000 ) ) ;
#155 = AXIS2_PLACEMENT_3D ( 'NONE', #185, #11, #160 ) ;
#156 = CARTESIAN_POINT ( 'NONE',  ( 0.0000000000000000000, 0.0000000000000000000, 0.06199999999999999956 ) ) ;
#157 = DIMENSIONAL_EXPONENTS ( 1.000000000000000000, 0.0000000000000000000, 0.0000000000000000000, 0.0000000000000000000, 0.0000000000000000000, 0.0000000000000000000, 0.0000000000000000000 ) ;
#158 = CYLINDRICAL_SURFACE ( 'NONE', #357, 0.06250000000000000000 ) ;
#159 = VERTEX_POINT ( 'NONE', #143 ) ;
#160 = DIRECTION ( 'NONE',  ( 1.000000000000000000, 0.0000000000000000000, 0.0000000000000000000 ) ) ;
#161 = LINE ( 'NONE', #372, #28 ) ;
#162 = STYLED_ITEM ( 'NONE', ( #365 ), #303 ) ;
#163 = FACE_OUTER_BOUND ( 'NONE', #362, .T. ) ;
#164 = DIRECTION ( 'NONE',  ( -0.0000000000000000000, -0.0000000000000000000, -1.000000000000000000 ) ) ;
#165 = ORIENTED_EDGE ( 'NONE', *, *, #76, .F. ) ;
#166 = DIRECTION ( 'NONE',  ( -1.000000000000000000, 0.0000000000000000000, 0.0000000000000000000 ) ) ;
#167 = AXIS2_PLACEMENT_3D ( 'NONE', #60, #350, #116 ) ;
#168 =( GEOMETRIC_REPRESENTATION_CONTEXT ( 3 ) GLOBAL_UNCERTAINTY_ASSIGNED_CONTEXT ( ( #181 ) ) GLOBAL_UNIT_ASSIGNED_CONTEXT ( ( #271, #246, #67 ) ) REPRESENTATION_CONTEXT ( 'NONE', 'WORKASPACE' ) );
#169 = ORIENTED_EDGE ( 'NONE', *, *, #5, .T. ) ;
#170 = CARTESIAN_POINT ( 'NONE',  ( 0.06250000000000001388, 0.0000000000000000000, 0.06199999999999999956 ) ) ;
#171 = ORIENTED_EDGE ( 'NONE', *, *, #331, .F. ) ;
#172 = CARTESIAN_POINT ( 'NONE',  ( 0.06250000000000001388, 7.654042494670957545E-18, 0.06199999999999999956 ) ) ;
#173 = CARTESIAN_POINT ( 'NONE',  ( -0.03100000000000001713, 3.796405077356796551E-18, 0.1899999999999999745 ) ) ;
#174 = LINE ( 'NONE', #33, #102 ) ;
#175 = EDGE_LOOP ( 'NONE', ( #371, #43 ) ) ;
#176 = CONICAL_SURFACE ( 'NONE', #9, 0.03100000000000001713, 0.7853981633974502774 ) ;
#177 =( LENGTH_UNIT ( ) NAMED_UNIT ( * ) SI_UNIT ( $, .METRE. ) );
#178 = CARTESIAN_POINT ( 'NONE',  ( 0.06250000000000000000, 7.654042494670956004E-18, 0.0000000000000000000 ) ) ;
#179 = PRESENTATION_STYLE_ASSIGNMENT (( #65 ) ) ;
#180 = ADVANCED_FACE ( 'NONE', ( #201 ), #229, .T. ) ;
#181 = UNCERTAINTY_MEASURE_WITH_UNIT (LENGTH_MEASURE( 1.000000000000000082E-05 ), #271, 'distance_accuracy_value', 'NONE');
#182 = DIRECTION ( 'NONE',  ( 0.0000000000000000000, 0.0000000000000000000, 1.000000000000000000 ) ) ;
#183 = AXIS2_PLACEMENT_3D ( 'NONE', #7, #129, #243 ) ;
#184 = APPLICATION_PROTOCOL_DEFINITION ( 'draft international standard', 'automotive_design', 1998, #136 ) ;
#185 = CARTESIAN_POINT ( 'NONE',  ( 0.0000000000000000000, 0.0000000000000000000, 0.2214999999999998359 ) ) ;
#186 = DIRECTION ( 'NONE',  ( -0.0000000000000000000, -0.0000000000000000000, -1.000000000000000000 ) ) ;
#187 = COLOUR_RGB ( '',0.7921568627450980005, 0.8196078431372548767, 0.9333333333333333481 ) ;
#188 = FACE_BOUND ( 'NONE', #175, .T. ) ;
#189 = MECHANICAL_DESIGN_GEOMETRIC_PRESENTATION_REPRESENTATION (  '', ( #48 ), #168 ) ;
#190 = CYLINDRICAL_SURFACE ( 'NONE', #108, 0.03100000000000001019 ) ;
#191 = DIMENSIONAL_EXPONENTS ( 1.000000000000000000, 0.0000000000000000000, 0.0000000000000000000, 0.0000000000000000000, 0.0000000000000000000, 0.0000000000000000000, 0.0000000000000000000 ) ;
#192 = DIRECTION ( 'NONE',  ( -1.000000000000000000, 0.0000000000000000000, 0.0000000000000000000 ) ) ;
#193 = PRODUCT_DEFINITION ( 'UNKNOWN', '', #205, #213 ) ;
#194 = ADVANCED_BREP_SHAPE_REPRESENTATION ( 'Micro_KC-125-190-062', ( #303, #278 ), #259 ) ;
#195 = CARTESIAN_POINT ( 'NONE',  ( 0.0000000000000000000, 0.0000000000000000000, 1.485000000000000764 ) ) ;
#196 = AXIS2_PLACEMENT_3D ( 'NONE', #53, #290, #192 ) ;
#197 = ORIENTED_EDGE ( 'NONE', *, *, #330, .F. ) ;
#198 = CARTESIAN_POINT ( 'NONE',  ( 0.06250000000000000000, 7.654042494670956004E-18, 0.2214999999999998359 ) ) ;
#199 = EDGE_LOOP ( 'NONE', ( #103, #148 ) ) ;
#200 = EDGE_CURVE ( 'NONE', #89, #287, #255, .T. ) ;
#201 = FACE_OUTER_BOUND ( 'NONE', #291, .T. ) ;
#202 = EDGE_LOOP ( 'NONE', ( #318, #353, #117, #347 ) ) ;
#203 = CARTESIAN_POINT ( 'NONE',  ( 0.0000000000000000000, 0.0000000000000000000, 1.500000000000000222 ) ) ;
#204 = AXIS2_PLACEMENT_3D ( 'NONE', #328, #220, #304 ) ;
#205 = PRODUCT_DEFINITION_FORMATION_WITH_SPECIFIED_SOURCE ( 'ANY', '', #252, .NOT_KNOWN. ) ;
#206 = ORIENTED_EDGE ( 'NONE', *, *, #37, .T. ) ;
#207 = ORIENTED_EDGE ( 'NONE', *, *, #245, .F. ) ;
#208 = DIRECTION ( 'NONE',  ( 0.0000000000000000000, 0.0000000000000000000, 1.000000000000000000 ) ) ;
#209 = CARTESIAN_POINT ( 'NONE',  ( 0.0000000000000000000, 0.0000000000000000000, 1.485000000000000764 ) ) ;
#210 = AXIS2_PLACEMENT_3D ( 'NONE', #236, #208, #360 ) ;
#211 = CARTESIAN_POINT ( 'NONE',  ( 0.04750000000000064587, 5.817072295950006528E-18, 1.500000000000000222 ) ) ;
#212 = CIRCLE ( 'NONE', #288, 0.06250000000000001388 ) ;
#213 = PRODUCT_DEFINITION_CONTEXT ( 'detailed design', #136, 'design' ) ;
#214 = FILL_AREA_STYLE ('',( #94 ) ) ;
#215 = DIRECTION ( 'NONE',  ( -1.000000000000000000, 0.0000000000000000000, 0.0000000000000000000 ) ) ;
#216 = DIRECTION ( 'NONE',  ( -1.000000000000000000, 0.0000000000000000000, 0.0000000000000000000 ) ) ;
#217 = CARTESIAN_POINT ( 'NONE',  ( 0.0000000000000000000, 0.0000000000000000000, 1.500000000000000222 ) ) ;
#218 = PRODUCT_CONTEXT ( 'NONE', #120, 'mechanical' ) ;
#219 = ADVANCED_FACE ( 'NONE', ( #340 ), #317, .T. ) ;
#220 = DIRECTION ( 'NONE',  ( 0.0000000000000000000, 0.0000000000000000000, 1.000000000000000000 ) ) ;
#221 = LINE ( 'NONE', #310, #301 ) ;
#222 = ADVANCED_FACE ( 'NONE', ( #163 ), #366, .T. ) ;
#223 = ORIENTED_EDGE ( 'NONE', *, *, #275, .T. ) ;
#224 = VERTEX_POINT ( 'NONE', #137 ) ;
#225 = DIRECTION ( 'NONE',  ( 0.0000000000000000000, 0.0000000000000000000, 1.000000000000000000 ) ) ;
#226 = AXIS2_PLACEMENT_3D ( 'NONE', #293, #363, #56 ) ;
#227 = LINE ( 'NONE', #80, #354 ) ;
#228 = ORIENTED_EDGE ( 'NONE', *, *, #79, .F. ) ;
#229 = CYLINDRICAL_SURFACE ( 'NONE', #127, 0.06250000000000000000 ) ;
#230 = EDGE_LOOP ( 'NONE', ( #197, #50 ) ) ;
#231 = FACE_OUTER_BOUND ( 'NONE', #19, .T. ) ;
#232 = CIRCLE ( 'NONE', #283, 0.06250000000000000000 ) ;
#233 = CARTESIAN_POINT ( 'NONE',  ( 0.03100000000000001019, 3.796405077356796551E-18, 0.0000000000000000000 ) ) ;
#234 = CIRCLE ( 'NONE', #306, 0.06250000000000000000 ) ;
#235 = DIRECTION ( 'NONE',  ( 1.000000000000000000, 0.0000000000000000000, 0.0000000000000000000 ) ) ;
#236 = CARTESIAN_POINT ( 'NONE',  ( 0.0000000000000000000, 0.0000000000000000000, 0.0000000000000000000 ) ) ;
#237 = DIRECTION ( 'NONE',  ( 0.0000000000000000000, 0.0000000000000000000, 1.000000000000000000 ) ) ;
#238 = ORIENTED_EDGE ( 'NONE', *, *, #31, .T. ) ;
#239 = MECHANICAL_DESIGN_GEOMETRIC_PRESENTATION_REPRESENTATION (  '', ( #162 ), #133 ) ;
#240 = SHAPE_DEFINITION_REPRESENTATION ( #296, #194 ) ;
#241 = ADVANCED_FACE ( 'NONE', ( #315 ), #140, .T. ) ;
#242 = DIRECTION ( 'NONE',  ( -1.000000000000000000, 0.0000000000000000000, 0.0000000000000000000 ) ) ;
#243 = DIRECTION ( 'NONE',  ( -1.000000000000000000, 0.0000000000000000000, 0.0000000000000000000 ) ) ;
#244 = DIRECTION ( 'NONE',  ( 0.0000000000000000000, 0.0000000000000000000, -1.000000000000000000 ) ) ;
#245 = EDGE_CURVE ( 'NONE', #345, #257, #125, .T. ) ;
#246 =( NAMED_UNIT ( * ) PLANE_ANGLE_UNIT ( ) SI_UNIT ( $, .RADIAN. ) );
#247 = PLANE ( 'NONE',  #47 ) ;
#248 = VERTEX_POINT ( 'NONE', #258 ) ;
#249 = VECTOR ( 'NONE', #144, 39.37007874015748143 ) ;
#250 = CARTESIAN_POINT ( 'NONE',  ( 0.03100000000000001713, 0.0000000000000000000, 0.1899999999999999745 ) ) ;
#251 = AXIS2_PLACEMENT_3D ( 'NONE', #98, #32, #216 ) ;
#252 = PRODUCT ( 'Micro_KC-125-190-062', 'Micro_KC-125-190-062', '', ( #218 ) ) ;
#253 = SURFACE_SIDE_STYLE ('',( #135 ) ) ;
#254 = ORIENTED_EDGE ( 'NONE', *, *, #275, .F. ) ;
#255 = LINE ( 'NONE', #17, #249 ) ;
#256 = PRODUCT_RELATED_PRODUCT_CATEGORY ( 'part', '', ( #252 ) ) ;
#257 = VERTEX_POINT ( 'NONE', #21 ) ;
#258 = CARTESIAN_POINT ( 'NONE',  ( -0.04750000000000064587, 0.0000000000000000000, 1.500000000000000222 ) ) ;
#259 =( GEOMETRIC_REPRESENTATION_CONTEXT ( 3 ) GLOBAL_UNCERTAINTY_ASSIGNED_CONTEXT ( ( #124 ) ) GLOBAL_UNIT_ASSIGNED_CONTEXT ( ( #299, #266, #377 ) ) REPRESENTATION_CONTEXT ( 'NONE', 'WORKASPACE' ) );
#260 = ORIENTED_EDGE ( 'NONE', *, *, #200, .F. ) ;
#261 = DIRECTION ( 'NONE',  ( -0.0000000000000000000, -0.0000000000000000000, -1.000000000000000000 ) ) ;
#262 = ORIENTED_EDGE ( 'NONE', *, *, #2, .T. ) ;
#263 = CARTESIAN_POINT ( 'NONE',  ( 0.0000000000000000000, 0.0000000000000000000, 1.500000000000000222 ) ) ;
#264 = ORIENTED_EDGE ( 'NONE', *, *, #31, .F. ) ;
#265 = EDGE_CURVE ( 'NONE', #248, #55, #20, .T. ) ;
#266 =( NAMED_UNIT ( * ) PLANE_ANGLE_UNIT ( ) SI_UNIT ( $, .RADIAN. ) );
#267 = ORIENTED_EDGE ( 'NONE', *, *, #272, .T. ) ;
#268 = ORIENTED_EDGE ( 'NONE', *, *, #265, .F. ) ;
#269 = EDGE_CURVE ( 'NONE', #224, #159, #232, .T. ) ;
#270 = CIRCLE ( 'NONE', #343, 0.06250000000000000000 ) ;
#271 =( CONVERSION_BASED_UNIT ( 'INCH', #36 ) LENGTH_UNIT ( ) NAMED_UNIT ( #191 ) );
#272 = EDGE_CURVE ( 'NONE', #57, #84, #284, .T. ) ;
#273 = DIRECTION ( 'NONE',  ( -0.0000000000000000000, -0.0000000000000000000, -1.000000000000000000 ) ) ;
#274 = DIRECTION ( 'NONE',  ( -1.000000000000000000, 0.0000000000000000000, 0.0000000000000000000 ) ) ;
#275 = EDGE_CURVE ( 'NONE', #248, #224, #227, .T. ) ;
#276 = AXIS2_PLACEMENT_3D ( 'NONE', #27, #146, #378 ) ;
#277 = AXIS2_PLACEMENT_3D ( 'NONE', #97, #244, #334 ) ;
#278 = AXIS2_PLACEMENT_3D ( 'NONE', #100, #152, #10 ) ;
#279 = DIRECTION ( 'NONE',  ( -0.0000000000000000000, -0.0000000000000000000, -1.000000000000000000 ) ) ;
#280 = CARTESIAN_POINT ( 'NONE',  ( 0.0000000000000000000, 0.0000000000000000000, 1.500000000000000222 ) ) ;
#281 = DIRECTION ( 'NONE',  ( -1.000000000000000000, 0.0000000000000000000, 0.0000000000000000000 ) ) ;
#282 = EDGE_LOOP ( 'NONE', ( #165, #207 ) ) ;
#283 = AXIS2_PLACEMENT_3D ( 'NONE', #195, #46, #285 ) ;
#284 = LINE ( 'NONE', #344, #139 ) ;
#285 = DIRECTION ( 'NONE',  ( 1.000000000000000000, 0.0000000000000000000, 0.0000000000000000000 ) ) ;
#286 = DIRECTION ( 'NONE',  ( -1.000000000000000000, 0.0000000000000000000, 0.0000000000000000000 ) ) ;
#287 = VERTEX_POINT ( 'NONE', #198 ) ;
#288 = AXIS2_PLACEMENT_3D ( 'NONE', #156, #279, #281 ) ;
#289 = VECTOR ( 'NONE', #349, 39.37007874015748143 ) ;
#290 = DIRECTION ( 'NONE',  ( -0.0000000000000000000, -0.0000000000000000000, -1.000000000000000000 ) ) ;
#291 = EDGE_LOOP ( 'NONE', ( #87, #113, #316, #375 ) ) ;
#292 = EDGE_CURVE ( 'NONE', #257, #82, #221, .T. ) ;
#293 = CARTESIAN_POINT ( 'NONE',  ( 0.0000000000000000000, 0.0000000000000000000, 1.500000000000000222 ) ) ;
#294 = LINE ( 'NONE', #233, #289 ) ;
#295 = DIRECTION ( 'NONE',  ( 0.0000000000000000000, 0.0000000000000000000, -1.000000000000000000 ) ) ;
#296 = PRODUCT_DEFINITION_SHAPE ( 'NONE', 'NONE',  #193 ) ;
#297 = DIRECTION ( 'NONE',  ( -0.7071067811865489050, 8.659560562354950115E-17, 0.7071067811865461294 ) ) ;
#298 = ORIENTED_EDGE ( 'NONE', *, *, #39, .T. ) ;
#299 =( CONVERSION_BASED_UNIT ( 'INCH', #324 ) LENGTH_UNIT ( ) NAMED_UNIT ( #157 ) );
#300 = FACE_OUTER_BOUND ( 'NONE', #141, .T. ) ;
#301 = VECTOR ( 'NONE', #164, 39.37007874015748143 ) ;
#302 = EDGE_CURVE ( 'NONE', #345, #122, #161, .T. ) ;
#303 = MANIFOLD_SOLID_BREP ( 'Cut-Revolve1', #4 ) ;
#304 = DIRECTION ( 'NONE',  ( 1.000000000000000000, 0.0000000000000000000, -0.0000000000000000000 ) ) ;
#305 = FACE_OUTER_BOUND ( 'NONE', #230, .T. ) ;
#306 = AXIS2_PLACEMENT_3D ( 'NONE', #101, #273, #73 ) ;
#307 = CARTESIAN_POINT ( 'NONE',  ( 0.0000000000000000000, 0.0000000000000000000, 1.500000000000000222 ) ) ;
#308 = ORIENTED_EDGE ( 'NONE', *, *, #109, .T. ) ;
#309 = FACE_OUTER_BOUND ( 'NONE', #145, .T. ) ;
#310 = CARTESIAN_POINT ( 'NONE',  ( -0.06250000000000000000, 0.0000000000000000000, 1.500000000000000222 ) ) ;
#311 = ORIENTED_EDGE ( 'NONE', *, *, #355, .F. ) ;
#312 = AXIS2_PLACEMENT_3D ( 'NONE', #132, #42, #242 ) ;
#313 = DIRECTION ( 'NONE',  ( 1.000000000000000000, 0.0000000000000000000, 0.0000000000000000000 ) ) ;
#314 = EDGE_LOOP ( 'NONE', ( #342, #298, #321, #106 ) ) ;
#315 = FACE_OUTER_BOUND ( 'NONE', #29, .T. ) ;
#316 = ORIENTED_EDGE ( 'NONE', *, *, #292, .T. ) ;
#317 = CYLINDRICAL_SURFACE ( 'NONE', #93, 0.06250000000000000000 ) ;
#318 = ORIENTED_EDGE ( 'NONE', *, *, #76, .T. ) ;
#319 = CIRCLE ( 'NONE', #376, 0.06250000000000000000 ) ;
#320 = DIRECTION ( 'NONE',  ( -1.000000000000000000, 0.0000000000000000000, 0.0000000000000000000 ) ) ;
#321 = ORIENTED_EDGE ( 'NONE', *, *, #109, .F. ) ;
#322 = CARTESIAN_POINT ( 'NONE',  ( 0.0000000000000000000, 0.0000000000000000000, 0.1899999999999999745 ) ) ;
#323 = ORIENTED_EDGE ( 'NONE', *, *, #8, .F. ) ;
#324 = LENGTH_MEASURE_WITH_UNIT ( LENGTH_MEASURE( 0.02539999999999999897 ), #177 );
#325 = ORIENTED_EDGE ( 'NONE', *, *, #147, .F. ) ;
#326 = CARTESIAN_POINT ( 'NONE',  ( 0.03100000000000000672, 3.796405077356796551E-18, 0.06199999999999999956 ) ) ;
#327 = CONICAL_SURFACE ( 'NONE', #149, 0.04750000000000064587, 0.7853981633974457255 ) ;
#328 = CARTESIAN_POINT ( 'NONE',  ( 0.0000000000000000000, 0.0000000000000000000, 0.0000000000000000000 ) ) ;
#329 = SURFACE_STYLE_FILL_AREA ( #214 ) ;
#330 = EDGE_CURVE ( 'NONE', #82, #122, #270, .T. ) ;
#331 = EDGE_CURVE ( 'NONE', #55, #248, #338, .T. ) ;
#332 = ADVANCED_FACE ( 'NONE', ( #300 ), #374, .T. ) ;
#333 = DIMENSIONAL_EXPONENTS ( 1.000000000000000000, 0.0000000000000000000, 0.0000000000000000000, 0.0000000000000000000, 0.0000000000000000000, 0.0000000000000000000, 0.0000000000000000000 ) ;
#334 = DIRECTION ( 'NONE',  ( -1.000000000000000000, 0.0000000000000000000, 0.0000000000000000000 ) ) ;
#335 = ADVANCED_FACE ( 'NONE', ( #231 ), #176, .T. ) ;
#336 = CARTESIAN_POINT ( 'NONE',  ( 0.06250000000000000000, 7.654042494670956004E-18, 1.500000000000000222 ) ) ;
#337 = DIRECTION ( 'NONE',  ( 0.0000000000000000000, 0.0000000000000000000, 1.000000000000000000 ) ) ;
#338 = CIRCLE ( 'NONE', #348, 0.04750000000000064587 ) ;
#339 = CARTESIAN_POINT ( 'NONE',  ( 0.04750000000000064587, 6.735557395310482421E-18, 1.500000000000000222 ) ) ;
#340 = FACE_OUTER_BOUND ( 'NONE', #202, .T. ) ;
#341 = EDGE_CURVE ( 'NONE', #224, #52, #174, .T. ) ;
#342 = ORIENTED_EDGE ( 'NONE', *, *, #269, .T. ) ;
#343 = AXIS2_PLACEMENT_3D ( 'NONE', #16, #182, #235 ) ;
#344 = CARTESIAN_POINT ( 'NONE',  ( -0.03100000000000001019, 0.0000000000000000000, 0.0000000000000000000 ) ) ;
#345 = VERTEX_POINT ( 'NONE', #172 ) ;
#346 = FILL_AREA_STYLE ('',( #18 ) ) ;
#347 = ORIENTED_EDGE ( 'NONE', *, *, #292, .F. ) ;
#348 = AXIS2_PLACEMENT_3D ( 'NONE', #263, #237, #63 ) ;
#349 = DIRECTION ( 'NONE',  ( -0.0000000000000000000, -0.0000000000000000000, -1.000000000000000000 ) ) ;
#350 = DIRECTION ( 'NONE',  ( -0.0000000000000000000, -0.0000000000000000000, -1.000000000000000000 ) ) ;
#351 = EDGE_LOOP ( 'NONE', ( #379, #45, #267, #115 ) ) ;
#352 = LENGTH_MEASURE_WITH_UNIT ( LENGTH_MEASURE( 0.02539999999999999897 ), #81 );
#353 = ORIENTED_EDGE ( 'NONE', *, *, #302, .T. ) ;
#354 = VECTOR ( 'NONE', #74, 39.37007874015748143 ) ;
#355 = EDGE_CURVE ( 'NONE', #159, #224, #319, .T. ) ;
#356 = LINE ( 'NONE', #211, #134 ) ;
#357 = AXIS2_PLACEMENT_3D ( 'NONE', #280, #38, #274 ) ;
#358 = CARTESIAN_POINT ( 'NONE',  ( -0.06250000000000000000, 0.0000000000000000000, 0.0000000000000000000 ) ) ;
#359 = FACE_OUTER_BOUND ( 'NONE', #78, .T. ) ;
#360 = DIRECTION ( 'NONE',  ( 1.000000000000000000, 0.0000000000000000000, 0.0000000000000000000 ) ) ;
#361 = CIRCLE ( 'NONE', #183, 0.03100000000000001713 ) ;
#362 = EDGE_LOOP ( 'NONE', ( #24, #367, #22, #110 ) ) ;
#363 = DIRECTION ( 'NONE',  ( 0.0000000000000000000, 0.0000000000000000000, 1.000000000000000000 ) ) ;
#364 = VERTEX_POINT ( 'NONE', #326 ) ;
#365 = PRESENTATION_STYLE_ASSIGNMENT (( #370 ) ) ;
#366 = CYLINDRICAL_SURFACE ( 'NONE', #41, 0.06250000000000000000 ) ;
#367 = ORIENTED_EDGE ( 'NONE', *, *, #355, .T. ) ;
#368 = CIRCLE ( 'NONE', #210, 0.06250000000000000000 ) ;
#369 = VECTOR ( 'NONE', #6, 39.37007874015748143 ) ;
#370 = SURFACE_STYLE_USAGE ( .BOTH. , #253 ) ;
#371 = ORIENTED_EDGE ( 'NONE', *, *, #8, .T. ) ;
#372 = CARTESIAN_POINT ( 'NONE',  ( 0.06250000000000000000, 7.654042494670956004E-18, 1.500000000000000222 ) ) ;
#373 = ORIENTED_EDGE ( 'NONE', *, *, #269, .F. ) ;
#374 = CYLINDRICAL_SURFACE ( 'NONE', #167, 0.03100000000000001019 ) ;
#375 = ORIENTED_EDGE ( 'NONE', *, *, #330, .T. ) ;
#376 = AXIS2_PLACEMENT_3D ( 'NONE', #209, #295, #26 ) ;
#377 =( NAMED_UNIT ( * ) SI_UNIT ( $, .STERADIAN. ) SOLID_ANGLE_UNIT ( ) );
#378 = DIRECTION ( 'NONE',  ( -1.000000000000000000, 0.0000000000000000000, 0.0000000000000000000 ) ) ;
#379 = ORIENTED_EDGE ( 'NONE', *, *, #2, .F. ) ;
ENDSEC;
END-ISO-10303-21;
