ISO-10303-21;
HEADER;
FILE_DESCRIPTION (( 'STEP AP214' ),
    '1' );
FILE_NAME ('83746.STEP',
    '2023-07-05T19:23:28',
    ( '' ),
    ( '' ),
    'SwSTEP 2.0',
    'SolidWorks 2023',
    '' );
FILE_SCHEMA (( 'AUTOMOTIVE_DESIGN' ));
ENDSEC;

DATA;
#1 = CARTESIAN_POINT ( 'NONE',  ( 1.963515745446189127E-16, 0.8750000000000000000, 0.000000000000000000 ) ) ;
#2 = ORIENTED_EDGE ( 'NONE', *, *, #20, .T. ) ;
#3 = CARTESIAN_POINT ( 'NONE',  ( 0.000000000000000000, 0.8750000000000000000, 0.000000000000000000 ) ) ;
#4 = CARTESIAN_POINT ( 'NONE',  ( -6.123233995736766036E-17, 2.500000000000000000, 0.000000000000000000 ) ) ;
#5 = CONICAL_SURFACE ( 'NONE', #346, 22.73032555864674364, 0.5235987755983000369 ) ;
#6 = SURFACE_STYLE_USAGE ( .BOTH. , #332 ) ;
#7 = PRESENTATION_LAYER_ASSIGNMENT (  '', '', ( #158 ) ) ;
#8 = FILL_AREA_STYLE_COLOUR ( '', #128 ) ;
#9 = EDGE_CURVE ( 'NONE', #177, #201, #323, .T. ) ;
#10 = PRODUCT_DEFINITION_SHAPE ( 'NONE', 'NONE',  #41 ) ;
#11 = SURFACE_STYLE_FILL_AREA ( #113 ) ;
#12 = PRODUCT_DEFINITION_CONTEXT ( 'detailed design', #101, 'design' ) ;
#13 = EDGE_LOOP ( 'NONE', ( #157, #2 ) ) ;
#14 = EDGE_LOOP ( 'NONE', ( #70, #140, #91, #342 ) ) ;
#15 = FILL_AREA_STYLE_COLOUR ( '', #208 ) ;
#16 =( CONVERSION_BASED_UNIT ( 'INCH', #203 ) LENGTH_UNIT ( ) NAMED_UNIT ( #305 ) );
#17 = EDGE_LOOP ( 'NONE', ( #45, #137, #300, #129 ) ) ;
#18 =( CONVERSION_BASED_UNIT ( 'INCH', #321 ) LENGTH_UNIT ( ) NAMED_UNIT ( #310 ) );
#19 = LINE ( 'NONE', #80, #233 ) ;
#20 = EDGE_CURVE ( 'NONE', #287, #124, #191, .T. ) ;
#21 = AXIS2_PLACEMENT_3D ( 'NONE', #57, #26, #204 ) ;
#22 = FILL_AREA_STYLE_COLOUR ( '', #304 ) ;
#23 =( LENGTH_UNIT ( ) NAMED_UNIT ( * ) SI_UNIT ( $, .METRE. ) );
#24 = PRESENTATION_STYLE_ASSIGNMENT (( #322 ) ) ;
#25 = STYLED_ITEM ( 'NONE', ( #313 ), #138 ) ;
#26 = DIRECTION ( 'NONE',  ( -0.000000000000000000, -1.000000000000000000, -0.000000000000000000 ) ) ;
#27 = CIRCLE ( 'NONE', #215, 0.1874999999999997780 ) ;
#28 = LENGTH_MEASURE_WITH_UNIT ( LENGTH_MEASURE( 0.02539999999999999897 ), #349 );
#29 = LINE ( 'NONE', #31, #340 ) ;
#30 = FACE_OUTER_BOUND ( 'NONE', #222, .T. ) ;
#31 = CARTESIAN_POINT ( 'NONE',  ( 0.000000000000000000, 0.000000000000000000, 0.000000000000000000 ) ) ;
#32 = CYLINDRICAL_SURFACE ( 'NONE', #146, 0.1874999999999999722 ) ;
#33 = MECHANICAL_DESIGN_GEOMETRIC_PRESENTATION_REPRESENTATION (  '', ( #339 ), #54 ) ;
#34 = PRESENTATION_LAYER_ASSIGNMENT (  '', '', ( #25 ) ) ;
#35 =( GEOMETRIC_REPRESENTATION_CONTEXT ( 3 ) GLOBAL_UNCERTAINTY_ASSIGNED_CONTEXT ( ( #228 ) ) GLOBAL_UNIT_ASSIGNED_CONTEXT ( ( #75, #130, #48 ) ) REPRESENTATION_CONTEXT ( 'NONE', 'WORKASPACE' ) );
#36 = DIRECTION ( 'NONE',  ( -0.000000000000000000, -1.000000000000000000, -0.000000000000000000 ) ) ;
#37 = DIMENSIONAL_EXPONENTS ( 1.000000000000000000, 0.000000000000000000, 0.000000000000000000, 0.000000000000000000, 0.000000000000000000, 0.000000000000000000, 0.000000000000000000 ) ;
#38 = UNCERTAINTY_MEASURE_WITH_UNIT (LENGTH_MEASURE( 1.000000000000000082E-05 ), #303, 'distance_accuracy_value', 'NONE');
#39 = SURFACE_STYLE_USAGE ( .BOTH. , #139 ) ;
#40 = ORIENTED_EDGE ( 'NONE', *, *, #9, .T. ) ;
#41 = PRODUCT_DEFINITION ( 'UNKNOWN', '', #223, #12 ) ;
#42 = ORIENTED_EDGE ( 'NONE', *, *, #58, .T. ) ;
#43 = VECTOR ( 'NONE', #231, 39.37007874015748143 ) ;
#44 = CARTESIAN_POINT ( 'NONE',  ( 0.000000000000000000, 0.000000000000000000, 0.000000000000000000 ) ) ;
#45 = ORIENTED_EDGE ( 'NONE', *, *, #58, .F. ) ;
#46 = EDGE_CURVE ( 'NONE', #220, #152, #19, .T. ) ;
#47 = FILL_AREA_STYLE ('',( #179 ) ) ;
#48 =( NAMED_UNIT ( * ) SI_UNIT ( $, .STERADIAN. ) SOLID_ANGLE_UNIT ( ) );
#49 = DIRECTION ( 'NONE',  ( 0.000000000000000000, 0.000000000000000000, 1.000000000000000000 ) ) ;
#50 = PRESENTATION_LAYER_ASSIGNMENT (  '', '', ( #88 ) ) ;
#51 = CARTESIAN_POINT ( 'NONE',  ( 1.963515745446189373E-16, 0.8749999999999997780, 0.000000000000000000 ) ) ;
#52 = DIRECTION ( 'NONE',  ( 0.000000000000000000, 0.000000000000000000, 1.000000000000000000 ) ) ;
#53 = LENGTH_MEASURE_WITH_UNIT ( LENGTH_MEASURE( 0.02539999999999999897 ), #23 );
#54 =( GEOMETRIC_REPRESENTATION_CONTEXT ( 3 ) GLOBAL_UNCERTAINTY_ASSIGNED_CONTEXT ( ( #171 ) ) GLOBAL_UNIT_ASSIGNED_CONTEXT ( ( #122, #145, #141 ) ) REPRESENTATION_CONTEXT ( 'NONE', 'WORKASPACE' ) );
#55 = SURFACE_STYLE_USAGE ( .BOTH. , #234 ) ;
#56 =( NAMED_UNIT ( * ) SI_UNIT ( $, .STERADIAN. ) SOLID_ANGLE_UNIT ( ) );
#57 = CARTESIAN_POINT ( 'NONE',  ( 0.000000000000000000, 0.000000000000000000, 0.000000000000000000 ) ) ;
#58 = EDGE_CURVE ( 'NONE', #115, #287, #186, .T. ) ;
#59 = CARTESIAN_POINT ( 'NONE',  ( 0.000000000000000000, 0.000000000000000000, 0.000000000000000000 ) ) ;
#60 = CYLINDRICAL_SURFACE ( 'NONE', #21, 0.1874999999999999722 ) ;
#61 = PRESENTATION_LAYER_ASSIGNMENT (  '', '', ( #339 ) ) ;
#62 = AXIS2_PLACEMENT_3D ( 'NONE', #306, #36, #67 ) ;
#63 = DIRECTION ( 'NONE',  ( 6.123233995736778362E-17, 0.8660254037844380415, -0.5000000000000009992 ) ) ;
#64 = ORIENTED_EDGE ( 'NONE', *, *, #46, .F. ) ;
#65 = COLOUR_RGB ( '',0.7921568627450980005, 0.8196078431372548767, 0.9333333333333333481 ) ;
#66 = MECHANICAL_DESIGN_GEOMETRIC_PRESENTATION_REPRESENTATION (  '', ( #245 ), #314 ) ;
#67 = DIRECTION ( 'NONE',  ( 0.000000000000000000, 0.000000000000000000, -1.000000000000000000 ) ) ;
#68 = SURFACE_SIDE_STYLE ('',( #11 ) ) ;
#69 = APPLICATION_PROTOCOL_DEFINITION ( 'draft international standard', 'automotive_design', 1998, #101 ) ;
#70 = ORIENTED_EDGE ( 'NONE', *, *, #100, .T. ) ;
#71 = EDGE_LOOP ( 'NONE', ( #276, #119, #251 ) ) ;
#72 =( GEOMETRIC_REPRESENTATION_CONTEXT ( 3 ) GLOBAL_UNCERTAINTY_ASSIGNED_CONTEXT ( ( #318 ) ) GLOBAL_UNIT_ASSIGNED_CONTEXT ( ( #149, #205, #344 ) ) REPRESENTATION_CONTEXT ( 'NONE', 'WORKASPACE' ) );
#73 = CIRCLE ( 'NONE', #238, 0.1874999999999999722 ) ;
#74 = CARTESIAN_POINT ( 'NONE',  ( -0.1875000000000001110, 2.500000000000000000, 0.000000000000000000 ) ) ;
#75 =( CONVERSION_BASED_UNIT ( 'INCH', #28 ) LENGTH_UNIT ( ) NAMED_UNIT ( #285 ) );
#76 = DIRECTION ( 'NONE',  ( -1.585131781550686470E-16, 1.000000000000000000, -0.000000000000000000 ) ) ;
#77 = FILL_AREA_STYLE ('',( #254 ) ) ;
#78 = COLOUR_RGB ( '',1.000000000000000000, 0.000000000000000000, 0.000000000000000000 ) ;
#79 = CARTESIAN_POINT ( 'NONE',  ( 0.1874999999999998335, 2.500000000000000000, 2.296212748401286185E-17 ) ) ;
#80 = CARTESIAN_POINT ( 'NONE',  ( 2.296212748401286801E-17, 0.000000000000000000, 0.1874999999999999722 ) ) ;
#81 = DIRECTION ( 'NONE',  ( 1.585131781550686470E-16, -1.000000000000000000, 0.000000000000000000 ) ) ;
#82 = PRESENTATION_STYLE_ASSIGNMENT (( #55 ) ) ;
#83 = CLOSED_SHELL ( 'NONE', ( #116, #193, #224, #302 ) ) ;
#84 = AXIS2_PLACEMENT_3D ( 'NONE', #288, #52, #286 ) ;
#85 = EDGE_LOOP ( 'NONE', ( #148, #106 ) ) ;
#86 = DIRECTION ( 'NONE',  ( 0.000000000000000000, 0.000000000000000000, -1.000000000000000000 ) ) ;
#87 = SURFACE_STYLE_FILL_AREA ( #47 ) ;
#88 = STYLED_ITEM ( 'NONE', ( #260 ), #167 ) ;
#89 = DIRECTION ( 'NONE',  ( -0.000000000000000000, -1.000000000000000000, -0.000000000000000000 ) ) ;
#90 = DIRECTION ( 'NONE',  ( 0.000000000000000000, 1.000000000000000000, 0.000000000000000000 ) ) ;
#91 = ORIENTED_EDGE ( 'NONE', *, *, #284, .F. ) ;
#92 = DIMENSIONAL_EXPONENTS ( 1.000000000000000000, 0.000000000000000000, 0.000000000000000000, 0.000000000000000000, 0.000000000000000000, 0.000000000000000000, 0.000000000000000000 ) ;
#93 = DIRECTION ( 'NONE',  ( -0.000000000000000000, -1.000000000000000000, -0.000000000000000000 ) ) ;
#94 = UNCERTAINTY_MEASURE_WITH_UNIT (LENGTH_MEASURE( 1.000000000000000082E-05 ), #16, 'distance_accuracy_value', 'NONE');
#95 = AXIS2_PLACEMENT_3D ( 'NONE', #4, #166, #218 ) ;
#96 = FILL_AREA_STYLE ('',( #293 ) ) ;
#97 = UNCERTAINTY_MEASURE_WITH_UNIT (LENGTH_MEASURE( 1.000000000000000082E-05 ), #161, 'distance_accuracy_value', 'NONE');
#98 =( NAMED_UNIT ( * ) SI_UNIT ( $, .STERADIAN. ) SOLID_ANGLE_UNIT ( ) );
#99 =( NAMED_UNIT ( * ) SI_UNIT ( $, .STERADIAN. ) SOLID_ANGLE_UNIT ( ) );
#100 = EDGE_CURVE ( 'NONE', #177, #220, #290, .T. ) ;
#101 = APPLICATION_CONTEXT ( 'automotive_design' ) ;
#102 = CARTESIAN_POINT ( 'NONE',  ( 1.963515745446189373E-16, 0.8749999999999997780, 0.000000000000000000 ) ) ;
#103 =( NAMED_UNIT ( * ) PLANE_ANGLE_UNIT ( ) SI_UNIT ( $, .RADIAN. ) );
#104 = ADVANCED_FACE ( 'NONE', ( #189 ), #60, .T. ) ;
#105 = DIRECTION ( 'NONE',  ( -1.585131781550686470E-16, 1.000000000000000000, 0.000000000000000000 ) ) ;
#106 = ORIENTED_EDGE ( 'NONE', *, *, #151, .F. ) ;
#107 = CARTESIAN_POINT ( 'NONE',  ( 0.1874999999999999722, 2.500000000000000000, 2.296212748401287109E-17 ) ) ;
#108 =( GEOMETRIC_REPRESENTATION_CONTEXT ( 3 ) GLOBAL_UNCERTAINTY_ASSIGNED_CONTEXT ( ( #341 ) ) GLOBAL_UNIT_ASSIGNED_CONTEXT ( ( #18, #319, #98 ) ) REPRESENTATION_CONTEXT ( 'NONE', 'WORKASPACE' ) );
#109 = DIRECTION ( 'NONE',  ( -0.000000000000000000, -1.000000000000000000, -0.000000000000000000 ) ) ;
#110 = EDGE_CURVE ( 'NONE', #124, #287, #176, .T. ) ;
#111 =( GEOMETRIC_REPRESENTATION_CONTEXT ( 3 ) GLOBAL_UNCERTAINTY_ASSIGNED_CONTEXT ( ( #97 ) ) GLOBAL_UNIT_ASSIGNED_CONTEXT ( ( #161, #126, #99 ) ) REPRESENTATION_CONTEXT ( 'NONE', 'WORKASPACE' ) );
#112 = AXIS2_PLACEMENT_3D ( 'NONE', #296, #81, #250 ) ;
#113 = FILL_AREA_STYLE ('',( #8 ) ) ;
#114 = PRESENTATION_STYLE_ASSIGNMENT (( #172 ) ) ;
#115 = VERTEX_POINT ( 'NONE', #272 ) ;
#116 = ADVANCED_FACE ( 'NONE', ( #30 ), #132, .T. ) ;
#117 = LENGTH_MEASURE_WITH_UNIT ( LENGTH_MEASURE( 0.02539999999999999897 ), #333 );
#118 = ORIENTED_EDGE ( 'NONE', *, *, #279, .F. ) ;
#119 = ORIENTED_EDGE ( 'NONE', *, *, #246, .T. ) ;
#120 = SURFACE_STYLE_FILL_AREA ( #277 ) ;
#121 = DIRECTION ( 'NONE',  ( 0.000000000000000000, 0.000000000000000000, -1.000000000000000000 ) ) ;
#122 =( CONVERSION_BASED_UNIT ( 'INCH', #226 ) LENGTH_UNIT ( ) NAMED_UNIT ( #142 ) );
#123 = STYLED_ITEM ( 'NONE', ( #82 ), #104 ) ;
#124 = VERTEX_POINT ( 'NONE', #74 ) ;
#125 = VECTOR ( 'NONE', #212, 39.37007874015748143 ) ;
#126 =( NAMED_UNIT ( * ) PLANE_ANGLE_UNIT ( ) SI_UNIT ( $, .RADIAN. ) );
#127 = CARTESIAN_POINT ( 'NONE',  ( -0.1874999999999999722, 2.500000000000000000, 0.000000000000000000 ) ) ;
#128 = COLOUR_RGB ( '',1.000000000000000000, 0.000000000000000000, 0.000000000000000000 ) ;
#129 = ORIENTED_EDGE ( 'NONE', *, *, #20, .F. ) ;
#130 =( NAMED_UNIT ( * ) PLANE_ANGLE_UNIT ( ) SI_UNIT ( $, .RADIAN. ) );
#131 = DIRECTION ( 'NONE',  ( -0.000000000000000000, -1.000000000000000000, -0.000000000000000000 ) ) ;
#132 = CYLINDRICAL_SURFACE ( 'NONE', #95, 0.1874999999999999167 ) ;
#133 = MECHANICAL_DESIGN_GEOMETRIC_PRESENTATION_REPRESENTATION (  '', ( #88 ), #35 ) ;
#134 = PRESENTATION_LAYER_ASSIGNMENT (  '', '', ( #245 ) ) ;
#135 = ADVANCED_FACE ( 'NONE', ( #330 ), #32, .T. ) ;
#136 = FACE_OUTER_BOUND ( 'NONE', #13, .T. ) ;
#137 = ORIENTED_EDGE ( 'NONE', *, *, #151, .T. ) ;
#138 = MANIFOLD_SOLID_BREP ( 'Revolve - Cutting Edge', #187 ) ;
#139 = SURFACE_SIDE_STYLE ('',( #253 ) ) ;
#140 = ORIENTED_EDGE ( 'NONE', *, *, #46, .T. ) ;
#141 =( NAMED_UNIT ( * ) SI_UNIT ( $, .STERADIAN. ) SOLID_ANGLE_UNIT ( ) );
#142 = DIMENSIONAL_EXPONENTS ( 1.000000000000000000, 0.000000000000000000, 0.000000000000000000, 0.000000000000000000, 0.000000000000000000, 0.000000000000000000, 0.000000000000000000 ) ;
#143 = CARTESIAN_POINT ( 'NONE',  ( 2.296212748401286801E-17, 0.8750000000000000000, 0.1874999999999999722 ) ) ;
#144 = ORIENTED_EDGE ( 'NONE', *, *, #100, .F. ) ;
#145 =( NAMED_UNIT ( * ) PLANE_ANGLE_UNIT ( ) SI_UNIT ( $, .RADIAN. ) );
#146 = AXIS2_PLACEMENT_3D ( 'NONE', #44, #93, #258 ) ;
#147 = STYLED_ITEM ( 'NONE', ( #114 ), #324 ) ;
#148 = ORIENTED_EDGE ( 'NONE', *, *, #180, .F. ) ;
#149 =( CONVERSION_BASED_UNIT ( 'INCH', #281 ) LENGTH_UNIT ( ) NAMED_UNIT ( #37 ) );
#150 = MANIFOLD_SOLID_BREP ( 'Revolve - Tool Body (Straight Shanked)', #83 ) ;
#151 = EDGE_CURVE ( 'NONE', #115, #196, #312, .T. ) ;
#152 = VERTEX_POINT ( 'NONE', #207 ) ;
#153 = ORIENTED_EDGE ( 'NONE', *, *, #110, .F. ) ;
#154 = DIRECTION ( 'NONE',  ( 0.000000000000000000, 0.000000000000000000, 1.000000000000000000 ) ) ;
#155 = DIRECTION ( 'NONE',  ( -1.000000000000000000, -1.585131781550686470E-16, 0.000000000000000000 ) ) ;
#156 = FACE_OUTER_BOUND ( 'NONE', #199, .T. ) ;
#157 = ORIENTED_EDGE ( 'NONE', *, *, #110, .T. ) ;
#158 = STYLED_ITEM ( 'NONE', ( #24 ), #150 ) ;
#159 = UNCERTAINTY_MEASURE_WITH_UNIT (LENGTH_MEASURE( 1.000000000000000082E-05 ), #351, 'distance_accuracy_value', 'NONE');
#160 = AXIS2_PLACEMENT_3D ( 'NONE', #1, #105, #155 ) ;
#161 =( CONVERSION_BASED_UNIT ( 'INCH', #53 ) LENGTH_UNIT ( ) NAMED_UNIT ( #175 ) );
#162 = ORIENTED_EDGE ( 'NONE', *, *, #347, .F. ) ;
#163 = DIRECTION ( 'NONE',  ( -1.585131781550686470E-16, 1.000000000000000000, -0.000000000000000000 ) ) ;
#164 = DIRECTION ( 'NONE',  ( -1.000000000000000000, 0.000000000000000000, 0.000000000000000000 ) ) ;
#165 = FACE_OUTER_BOUND ( 'NONE', #71, .T. ) ;
#166 = DIRECTION ( 'NONE',  ( -1.585131781550686470E-16, 1.000000000000000000, -0.000000000000000000 ) ) ;
#167 = ADVANCED_FACE ( 'NONE', ( #156 ), #5, .T. ) ;
#168 = PLANE ( 'NONE',  #256 ) ;
#169 = ORIENTED_EDGE ( 'NONE', *, *, #217, .F. ) ;
#170 = AXIS2_PLACEMENT_3D ( 'NONE', #198, #163, #280 ) ;
#171 = UNCERTAINTY_MEASURE_WITH_UNIT (LENGTH_MEASURE( 1.000000000000000082E-05 ), #122, 'distance_accuracy_value', 'NONE');
#172 = SURFACE_STYLE_USAGE ( .BOTH. , #68 ) ;
#173 = DIRECTION ( 'NONE',  ( -0.000000000000000000, -1.000000000000000000, -0.000000000000000000 ) ) ;
#174 = ORIENTED_EDGE ( 'NONE', *, *, #347, .T. ) ;
#175 = DIMENSIONAL_EXPONENTS ( 1.000000000000000000, 0.000000000000000000, 0.000000000000000000, 0.000000000000000000, 0.000000000000000000, 0.000000000000000000, 0.000000000000000000 ) ;
#176 = CIRCLE ( 'NONE', #182, 0.1875000000000000555 ) ;
#177 = VERTEX_POINT ( 'NONE', #291 ) ;
#178 = SHAPE_DEFINITION_REPRESENTATION ( #10, #301 ) ;
#179 = FILL_AREA_STYLE_COLOUR ( '', #248 ) ;
#180 = EDGE_CURVE ( 'NONE', #196, #115, #27, .T. ) ;
#181 = FILL_AREA_STYLE ('',( #22 ) ) ;
#182 = AXIS2_PLACEMENT_3D ( 'NONE', #210, #243, #164 ) ;
#183 =( GEOMETRIC_REPRESENTATION_CONTEXT ( 3 ) GLOBAL_UNCERTAINTY_ASSIGNED_CONTEXT ( ( #94 ) ) GLOBAL_UNIT_ASSIGNED_CONTEXT ( ( #16, #225, #316 ) ) REPRESENTATION_CONTEXT ( 'NONE', 'WORKASPACE' ) );
#184 = SURFACE_STYLE_USAGE ( .BOTH. , #239 ) ;
#185 = CARTESIAN_POINT ( 'NONE',  ( 0.000000000000000000, 39.37007874015748143, 0.000000000000000000 ) ) ;
#186 = LINE ( 'NONE', #79, #43 ) ;
#187 = CLOSED_SHELL ( 'NONE', ( #324, #104, #232, #135, #167 ) ) ;
#188 = FILL_AREA_STYLE ('',( #326 ) ) ;
#189 = FACE_OUTER_BOUND ( 'NONE', #14, .T. ) ;
#190 = CARTESIAN_POINT ( 'NONE',  ( 0.000000000000000000, 0.000000000000000000, -0.1874999999999999722 ) ) ;
#191 = CIRCLE ( 'NONE', #267, 0.1875000000000000555 ) ;
#192 = CIRCLE ( 'NONE', #315, 0.1874999999999999722 ) ;
#193 = ADVANCED_FACE ( 'NONE', ( #206 ), #241, .F. ) ;
#194 =( NAMED_UNIT ( * ) PLANE_ANGLE_UNIT ( ) SI_UNIT ( $, .RADIAN. ) );
#195 = CYLINDRICAL_SURFACE ( 'NONE', #170, 0.1874999999999999167 ) ;
#196 = VERTEX_POINT ( 'NONE', #317 ) ;
#197 = VECTOR ( 'NONE', #63, 39.37007874015748143 ) ;
#198 = CARTESIAN_POINT ( 'NONE',  ( -6.123233995736766036E-17, 2.500000000000000000, 0.000000000000000000 ) ) ;
#199 = EDGE_LOOP ( 'NONE', ( #338, #257, #174 ) ) ;
#200 = APPLICATION_PROTOCOL_DEFINITION ( 'draft international standard', 'automotive_design', 1998, #308 ) ;
#201 = VERTEX_POINT ( 'NONE', #320 ) ;
#202 = AXIS2_PLACEMENT_3D ( 'NONE', #102, #76, #289 ) ;
#203 = LENGTH_MEASURE_WITH_UNIT ( LENGTH_MEASURE( 0.02539999999999999897 ), #230 );
#204 = DIRECTION ( 'NONE',  ( 0.000000000000000000, 0.000000000000000000, -1.000000000000000000 ) ) ;
#205 =( NAMED_UNIT ( * ) PLANE_ANGLE_UNIT ( ) SI_UNIT ( $, .RADIAN. ) );
#206 = FACE_OUTER_BOUND ( 'NONE', #85, .T. ) ;
#207 = CARTESIAN_POINT ( 'NONE',  ( 2.296212748401286801E-17, 0.3247595264191635578, 0.1874999999999999722 ) ) ;
#208 = COLOUR_RGB ( '',0.7921568627450980005, 0.8196078431372548767, 0.9333333333333333481 ) ;
#209 = SURFACE_SIDE_STYLE ('',( #348 ) ) ;
#210 = CARTESIAN_POINT ( 'NONE',  ( -6.123233995736764803E-17, 2.500000000000000000, 0.000000000000000000 ) ) ;
#211 = PRODUCT ( '83746', '83746', '', ( #229 ) ) ;
#212 = DIRECTION ( 'NONE',  ( -1.585131781550686470E-16, 1.000000000000000000, -0.000000000000000000 ) ) ;
#213 = CARTESIAN_POINT ( 'NONE',  ( -6.123233995736764803E-17, 2.500000000000000000, 0.000000000000000000 ) ) ;
#214 =( GEOMETRIC_REPRESENTATION_CONTEXT ( 3 ) GLOBAL_UNCERTAINTY_ASSIGNED_CONTEXT ( ( #159 ) ) GLOBAL_UNIT_ASSIGNED_CONTEXT ( ( #351, #103, #259 ) ) REPRESENTATION_CONTEXT ( 'NONE', 'WORKASPACE' ) );
#215 = AXIS2_PLACEMENT_3D ( 'NONE', #51, #235, #269 ) ;
#216 = CARTESIAN_POINT ( 'NONE',  ( 0.000000000000000000, 0.8750000000000000000, 0.000000000000000000 ) ) ;
#217 = EDGE_CURVE ( 'NONE', #196, #124, #263, .T. ) ;
#218 = DIRECTION ( 'NONE',  ( -1.000000000000000000, 0.000000000000000000, 0.000000000000000000 ) ) ;
#219 = DIRECTION ( 'NONE',  ( 0.000000000000000000, -0.000000000000000000, 1.000000000000000000 ) ) ;
#220 = VERTEX_POINT ( 'NONE', #143 ) ;
#221 = DIRECTION ( 'NONE',  ( 0.000000000000000000, 0.8660254037844380415, 0.5000000000000009992 ) ) ;
#222 = EDGE_LOOP ( 'NONE', ( #283, #42, #153, #169 ) ) ;
#223 = PRODUCT_DEFINITION_FORMATION_WITH_SPECIFIED_SOURCE ( 'ANY', '', #211, .NOT_KNOWN. ) ;
#224 = ADVANCED_FACE ( 'NONE', ( #275 ), #195, .T. ) ;
#225 =( NAMED_UNIT ( * ) PLANE_ANGLE_UNIT ( ) SI_UNIT ( $, .RADIAN. ) );
#226 = LENGTH_MEASURE_WITH_UNIT ( LENGTH_MEASURE( 0.02539999999999999897 ), #249 );
#227 = SURFACE_SIDE_STYLE ('',( #120 ) ) ;
#228 = UNCERTAINTY_MEASURE_WITH_UNIT (LENGTH_MEASURE( 1.000000000000000082E-05 ), #75, 'distance_accuracy_value', 'NONE');
#229 = PRODUCT_CONTEXT ( 'NONE', #308, 'mechanical' ) ;
#230 =( LENGTH_UNIT ( ) NAMED_UNIT ( * ) SI_UNIT ( $, .METRE. ) );
#231 = DIRECTION ( 'NONE',  ( -1.585131781550686470E-16, 1.000000000000000000, -0.000000000000000000 ) ) ;
#232 = ADVANCED_FACE ( 'NONE', ( #273 ), #168, .T. ) ;
#233 = VECTOR ( 'NONE', #109, 39.37007874015748143 ) ;
#234 = SURFACE_SIDE_STYLE ('',( #265 ) ) ;
#235 = DIRECTION ( 'NONE',  ( -1.585131781550686470E-16, 1.000000000000000000, -0.000000000000000000 ) ) ;
#236 = CARTESIAN_POINT ( 'NONE',  ( 0.000000000000000000, 0.3247595264191635578, 0.000000000000000000 ) ) ;
#237 = EDGE_CURVE ( 'NONE', #307, #152, #29, .T. ) ;
#238 = AXIS2_PLACEMENT_3D ( 'NONE', #3, #89, #86 ) ;
#239 = SURFACE_SIDE_STYLE ('',( #264 ) ) ;
#240 = CARTESIAN_POINT ( 'NONE',  ( 0.000000000000000000, 0.8750000000000000000, 0.000000000000000000 ) ) ;
#241 = PLANE ( 'NONE',  #160 ) ;
#242 = PRESENTATION_STYLE_ASSIGNMENT (( #39 ) ) ;
#243 = DIRECTION ( 'NONE',  ( -1.585131781550686470E-16, 1.000000000000000000, -0.000000000000000000 ) ) ;
#244 = MECHANICAL_DESIGN_GEOMETRIC_PRESENTATION_REPRESENTATION (  '', ( #123 ), #214 ) ;
#245 = STYLED_ITEM ( 'NONE', ( #242 ), #232 ) ;
#246 = EDGE_CURVE ( 'NONE', #307, #201, #299, .T. ) ;
#247 = CARTESIAN_POINT ( 'NONE',  ( 0.000000000000000000, 39.37007874015748143, 0.000000000000000000 ) ) ;
#248 = COLOUR_RGB ( '',1.000000000000000000, 0.000000000000000000, 0.000000000000000000 ) ;
#249 =( LENGTH_UNIT ( ) NAMED_UNIT ( * ) SI_UNIT ( $, .METRE. ) );
#250 = DIRECTION ( 'NONE',  ( 1.000000000000000000, 1.585131781550686470E-16, 0.000000000000000000 ) ) ;
#251 = ORIENTED_EDGE ( 'NONE', *, *, #284, .T. ) ;
#252 = EDGE_LOOP ( 'NONE', ( #144, #118 ) ) ;
#253 = SURFACE_STYLE_FILL_AREA ( #188 ) ;
#254 = FILL_AREA_STYLE_COLOUR ( '', #65 ) ;
#255 = MECHANICAL_DESIGN_GEOMETRIC_PRESENTATION_REPRESENTATION (  '', ( #25 ), #72 ) ;
#256 = AXIS2_PLACEMENT_3D ( 'NONE', #216, #271, #219 ) ;
#257 = ORIENTED_EDGE ( 'NONE', *, *, #237, .T. ) ;
#258 = DIRECTION ( 'NONE',  ( 0.000000000000000000, 0.000000000000000000, -1.000000000000000000 ) ) ;
#259 =( NAMED_UNIT ( * ) SI_UNIT ( $, .STERADIAN. ) SOLID_ANGLE_UNIT ( ) );
#260 = PRESENTATION_STYLE_ASSIGNMENT (( #184 ) ) ;
#261 = MECHANICAL_DESIGN_GEOMETRIC_PRESENTATION_REPRESENTATION (  '', ( #158 ), #111 ) ;
#262 = PRESENTATION_LAYER_ASSIGNMENT (  '', '', ( #147 ) ) ;
#263 = LINE ( 'NONE', #127, #125 ) ;
#264 = SURFACE_STYLE_FILL_AREA ( #181 ) ;
#265 = SURFACE_STYLE_FILL_AREA ( #96 ) ;
#266 = VECTOR ( 'NONE', #131, 39.37007874015748143 ) ;
#267 = AXIS2_PLACEMENT_3D ( 'NONE', #213, #274, #345 ) ;
#268 = CONICAL_SURFACE ( 'NONE', #350, 22.73032555864674364, 0.5235987755983000369 ) ;
#269 = DIRECTION ( 'NONE',  ( -1.000000000000000000, 0.000000000000000000, 0.000000000000000000 ) ) ;
#270 =( LENGTH_UNIT ( ) NAMED_UNIT ( * ) SI_UNIT ( $, .METRE. ) );
#271 = DIRECTION ( 'NONE',  ( 0.000000000000000000, 1.000000000000000000, 0.000000000000000000 ) ) ;
#272 = CARTESIAN_POINT ( 'NONE',  ( 0.1874999999999999722, 0.8749999999999997780, 2.296212748401287109E-17 ) ) ;
#273 = FACE_OUTER_BOUND ( 'NONE', #252, .T. ) ;
#274 = DIRECTION ( 'NONE',  ( -1.585131781550686470E-16, 1.000000000000000000, -0.000000000000000000 ) ) ;
#275 = FACE_OUTER_BOUND ( 'NONE', #17, .T. ) ;
#276 = ORIENTED_EDGE ( 'NONE', *, *, #237, .F. ) ;
#277 = FILL_AREA_STYLE ('',( #15 ) ) ;
#278 =( LENGTH_UNIT ( ) NAMED_UNIT ( * ) SI_UNIT ( $, .METRE. ) );
#279 = EDGE_CURVE ( 'NONE', #220, #177, #73, .T. ) ;
#280 = DIRECTION ( 'NONE',  ( -1.000000000000000000, 0.000000000000000000, 0.000000000000000000 ) ) ;
#281 = LENGTH_MEASURE_WITH_UNIT ( LENGTH_MEASURE( 0.02539999999999999897 ), #309 );
#282 = PRESENTATION_LAYER_ASSIGNMENT (  '', '', ( #123 ) ) ;
#283 = ORIENTED_EDGE ( 'NONE', *, *, #180, .T. ) ;
#284 = EDGE_CURVE ( 'NONE', #201, #152, #298, .T. ) ;
#285 = DIMENSIONAL_EXPONENTS ( 1.000000000000000000, 0.000000000000000000, 0.000000000000000000, 0.000000000000000000, 0.000000000000000000, 0.000000000000000000, 0.000000000000000000 ) ;
#286 = DIRECTION ( 'NONE',  ( 1.000000000000000000, 0.000000000000000000, 0.000000000000000000 ) ) ;
#287 = VERTEX_POINT ( 'NONE', #107 ) ;
#288 = CARTESIAN_POINT ( 'NONE',  ( 0.000000000000000000, 0.000000000000000000, 0.000000000000000000 ) ) ;
#289 = DIRECTION ( 'NONE',  ( -1.000000000000000000, 0.000000000000000000, 0.000000000000000000 ) ) ;
#290 = CIRCLE ( 'NONE', #297, 0.1874999999999999722 ) ;
#291 = CARTESIAN_POINT ( 'NONE',  ( 0.000000000000000000, 0.8750000000000000000, -0.1874999999999999722 ) ) ;
#292 = DIRECTION ( 'NONE',  ( 0.000000000000000000, 1.000000000000000000, 0.000000000000000000 ) ) ;
#293 = FILL_AREA_STYLE_COLOUR ( '', #294 ) ;
#294 = COLOUR_RGB ( '',1.000000000000000000, 0.000000000000000000, 0.000000000000000000 ) ;
#295 = LENGTH_MEASURE_WITH_UNIT ( LENGTH_MEASURE( 0.02539999999999999897 ), #270 );
#296 = CARTESIAN_POINT ( 'NONE',  ( 0.1874999999999999722, 2.500000000000000000, 0.000000000000000000 ) ) ;
#297 = AXIS2_PLACEMENT_3D ( 'NONE', #240, #325, #327 ) ;
#298 = CIRCLE ( 'NONE', #62, 0.1874999999999999722 ) ;
#299 = LINE ( 'NONE', #337, #197 ) ;
#300 = ORIENTED_EDGE ( 'NONE', *, *, #217, .T. ) ;
#301 = ADVANCED_BREP_SHAPE_REPRESENTATION ( '83746', ( #138, #150, #84 ), #183 ) ;
#302 = ADVANCED_FACE ( 'NONE', ( #136 ), #329, .F. ) ;
#303 =( CONVERSION_BASED_UNIT ( 'INCH', #117 ) LENGTH_UNIT ( ) NAMED_UNIT ( #336 ) );
#304 = COLOUR_RGB ( '',1.000000000000000000, 0.000000000000000000, 0.000000000000000000 ) ;
#305 = DIMENSIONAL_EXPONENTS ( 1.000000000000000000, 0.000000000000000000, 0.000000000000000000, 0.000000000000000000, 0.000000000000000000, 0.000000000000000000, 0.000000000000000000 ) ;
#306 = CARTESIAN_POINT ( 'NONE',  ( 0.000000000000000000, 0.3247595264191635578, 0.000000000000000000 ) ) ;
#307 = VERTEX_POINT ( 'NONE', #59 ) ;
#308 = APPLICATION_CONTEXT ( 'automotive_design' ) ;
#309 =( LENGTH_UNIT ( ) NAMED_UNIT ( * ) SI_UNIT ( $, .METRE. ) );
#310 = DIMENSIONAL_EXPONENTS ( 1.000000000000000000, 0.000000000000000000, 0.000000000000000000, 0.000000000000000000, 0.000000000000000000, 0.000000000000000000, 0.000000000000000000 ) ;
#311 = EDGE_LOOP ( 'NONE', ( #64, #335, #40, #162 ) ) ;
#312 = CIRCLE ( 'NONE', #202, 0.1874999999999997780 ) ;
#313 = PRESENTATION_STYLE_ASSIGNMENT (( #343 ) ) ;
#314 =( GEOMETRIC_REPRESENTATION_CONTEXT ( 3 ) GLOBAL_UNCERTAINTY_ASSIGNED_CONTEXT ( ( #38 ) ) GLOBAL_UNIT_ASSIGNED_CONTEXT ( ( #303, #194, #56 ) ) REPRESENTATION_CONTEXT ( 'NONE', 'WORKASPACE' ) );
#315 = AXIS2_PLACEMENT_3D ( 'NONE', #236, #173, #121 ) ;
#316 =( NAMED_UNIT ( * ) SI_UNIT ( $, .STERADIAN. ) SOLID_ANGLE_UNIT ( ) );
#317 = CARTESIAN_POINT ( 'NONE',  ( -0.1874999999999995837, 0.8749999999999997780, 0.000000000000000000 ) ) ;
#318 = UNCERTAINTY_MEASURE_WITH_UNIT (LENGTH_MEASURE( 1.000000000000000082E-05 ), #149, 'distance_accuracy_value', 'NONE');
#319 =( NAMED_UNIT ( * ) PLANE_ANGLE_UNIT ( ) SI_UNIT ( $, .RADIAN. ) );
#320 = CARTESIAN_POINT ( 'NONE',  ( 0.000000000000000000, 0.3247595264191635578, -0.1874999999999999722 ) ) ;
#321 = LENGTH_MEASURE_WITH_UNIT ( LENGTH_MEASURE( 0.02539999999999999897 ), #278 );
#322 = SURFACE_STYLE_USAGE ( .BOTH. , #209 ) ;
#323 = LINE ( 'NONE', #190, #266 ) ;
#324 = ADVANCED_FACE ( 'NONE', ( #165 ), #268, .T. ) ;
#325 = DIRECTION ( 'NONE',  ( -0.000000000000000000, -1.000000000000000000, -0.000000000000000000 ) ) ;
#326 = FILL_AREA_STYLE_COLOUR ( '', #78 ) ;
#327 = DIRECTION ( 'NONE',  ( 0.000000000000000000, 0.000000000000000000, -1.000000000000000000 ) ) ;
#328 = MECHANICAL_DESIGN_GEOMETRIC_PRESENTATION_REPRESENTATION (  '', ( #147 ), #108 ) ;
#329 = PLANE ( 'NONE',  #112 ) ;
#330 = FACE_OUTER_BOUND ( 'NONE', #311, .T. ) ;
#331 = PRESENTATION_STYLE_ASSIGNMENT (( #6 ) ) ;
#332 = SURFACE_SIDE_STYLE ('',( #87 ) ) ;
#333 =( LENGTH_UNIT ( ) NAMED_UNIT ( * ) SI_UNIT ( $, .METRE. ) );
#334 = PRODUCT_RELATED_PRODUCT_CATEGORY ( 'part', '', ( #211 ) ) ;
#335 = ORIENTED_EDGE ( 'NONE', *, *, #279, .T. ) ;
#336 = DIMENSIONAL_EXPONENTS ( 1.000000000000000000, 0.000000000000000000, 0.000000000000000000, 0.000000000000000000, 0.000000000000000000, 0.000000000000000000, 0.000000000000000000 ) ;
#337 = CARTESIAN_POINT ( 'NONE',  ( 0.000000000000000000, 0.000000000000000000, 0.000000000000000000 ) ) ;
#338 = ORIENTED_EDGE ( 'NONE', *, *, #246, .F. ) ;
#339 = STYLED_ITEM ( 'NONE', ( #331 ), #135 ) ;
#340 = VECTOR ( 'NONE', #221, 39.37007874015748143 ) ;
#341 = UNCERTAINTY_MEASURE_WITH_UNIT (LENGTH_MEASURE( 1.000000000000000082E-05 ), #18, 'distance_accuracy_value', 'NONE');
#342 = ORIENTED_EDGE ( 'NONE', *, *, #9, .F. ) ;
#343 = SURFACE_STYLE_USAGE ( .BOTH. , #227 ) ;
#344 =( NAMED_UNIT ( * ) SI_UNIT ( $, .STERADIAN. ) SOLID_ANGLE_UNIT ( ) );
#345 = DIRECTION ( 'NONE',  ( -1.000000000000000000, 0.000000000000000000, 0.000000000000000000 ) ) ;
#346 = AXIS2_PLACEMENT_3D ( 'NONE', #185, #292, #154 ) ;
#347 = EDGE_CURVE ( 'NONE', #152, #201, #192, .T. ) ;
#348 = SURFACE_STYLE_FILL_AREA ( #77 ) ;
#349 =( LENGTH_UNIT ( ) NAMED_UNIT ( * ) SI_UNIT ( $, .METRE. ) );
#350 = AXIS2_PLACEMENT_3D ( 'NONE', #247, #90, #49 ) ;
#351 =( CONVERSION_BASED_UNIT ( 'INCH', #295 ) LENGTH_UNIT ( ) NAMED_UNIT ( #92 ) );
ENDSEC;
END-ISO-10303-21;
