ISO-10303-21;
HEADER;
FILE_DESCRIPTION (( 'STEP AP214' ),
    '1' );
FILE_NAME ('Micro_SEM-250-02.STEP',
    '2021-09-02T02:28:07',
    ( '' ),
    ( '' ),
    'SwSTEP 2.0',
    'SolidWorks 2020',
    '' );
FILE_SCHEMA (( 'AUTOMOTIVE_DESIGN' ));
ENDSEC;

DATA;
#1 = ORIENTED_EDGE ( 'NONE', *, *, #165, .T. ) ;
#2 = CARTESIAN_POINT ( 'NONE',  ( 0.1248749999999999999, 1.529277690435257475E-17, -1.529277690435257475E-17 ) ) ;
#3 = ORIENTED_EDGE ( 'NONE', *, *, #79, .T. ) ;
#4 = EDGE_CURVE ( 'NONE', #43, #110, #214, .T. ) ;
#5 = ORIENTED_EDGE ( 'NONE', *, *, #130, .F. ) ;
#6 = STYLED_ITEM ( 'NONE', ( #285 ), #159 ) ;
#7 = STYLED_ITEM ( 'NONE', ( #166 ), #232 ) ;
#8 = EDGE_LOOP ( 'NONE', ( #218, #164 ) ) ;
#9 = SURFACE_SIDE_STYLE ('',( #121 ) ) ;
#10 = CARTESIAN_POINT ( 'NONE',  ( 0.1248749999999999999, 1.529277690435257475E-17, 0.0000000000000000000 ) ) ;
#11 = PRESENTATION_LAYER_ASSIGNMENT (  '', '', ( #7 ) ) ;
#12 = DIRECTION ( 'NONE',  ( 0.0000000000000000000, 0.0000000000000000000, -1.000000000000000000 ) ) ;
#13 = ADVANCED_FACE ( 'NONE', ( #88 ), #231, .T. ) ;
#14 = SURFACE_STYLE_USAGE ( .BOTH. , #9 ) ;
#15 = DIRECTION ( 'NONE',  ( -1.224646799147353207E-16, -0.0000000000000000000, -1.000000000000000000 ) ) ;
#16 = AXIS2_PLACEMENT_3D ( 'NONE', #83, #81, #178 ) ;
#17 = FACE_OUTER_BOUND ( 'NONE', #112, .T. ) ;
#18 = CYLINDRICAL_SURFACE ( 'NONE', #16, 0.1248749999999999999 ) ;
#19 = ORIENTED_EDGE ( 'NONE', *, *, #155, .F. ) ;
#20 =( NAMED_UNIT ( * ) PLANE_ANGLE_UNIT ( ) SI_UNIT ( $, .RADIAN. ) );
#21 = VERTEX_POINT ( 'NONE', #185 ) ;
#22 = VECTOR ( 'NONE', #136, 39.37007874015748143 ) ;
#23 = ORIENTED_EDGE ( 'NONE', *, *, #57, .F. ) ;
#24 = COLOUR_RGB ( '',0.7921568627450980005, 0.8196078431372548767, 0.9333333333333333481 ) ;
#25 = FILL_AREA_STYLE ('',( #111 ) ) ;
#26 = DIRECTION ( 'NONE',  ( -0.1736481776669312194, 2.126576849575783625E-17, 0.9848077530122080203 ) ) ;
#27 = ORIENTED_EDGE ( 'NONE', *, *, #286, .F. ) ;
#28 = VERTEX_POINT ( 'NONE', #139 ) ;
#29 = DIRECTION ( 'NONE',  ( 1.000000000000000000, 0.0000000000000000000, 0.0000000000000000000 ) ) ;
#30 =( NAMED_UNIT ( * ) SI_UNIT ( $, .STERADIAN. ) SOLID_ANGLE_UNIT ( ) );
#31 = DIRECTION ( 'NONE',  ( -1.000000000000000000, 0.0000000000000000000, 1.224646799147353454E-16 ) ) ;
#32 = AXIS2_PLACEMENT_3D ( 'NONE', #146, #34, #29 ) ;
#33 = MECHANICAL_DESIGN_GEOMETRIC_PRESENTATION_REPRESENTATION (  '', ( #7 ), #176 ) ;
#34 = DIRECTION ( 'NONE',  ( 0.0000000000000000000, 0.0000000000000000000, 1.000000000000000000 ) ) ;
#35 = CYLINDRICAL_SURFACE ( 'NONE', #99, 0.1248749999999999999 ) ;
#36 = DIRECTION ( 'NONE',  ( -1.000000000000000000, 0.0000000000000000000, 1.224646799147353454E-16 ) ) ;
#37 = AXIS2_PLACEMENT_3D ( 'NONE', #100, #40, #103 ) ;
#38 = DIRECTION ( 'NONE',  ( 0.0000000000000000000, 0.0000000000000000000, 1.000000000000000000 ) ) ;
#39 = DIRECTION ( 'NONE',  ( 1.224646799147353207E-16, 0.0000000000000000000, 1.000000000000000000 ) ) ;
#40 = DIRECTION ( 'NONE',  ( -0.0000000000000000000, -0.0000000000000000000, -1.000000000000000000 ) ) ;
#41 = AXIS2_PLACEMENT_3D ( 'NONE', #163, #63, #206 ) ;
#42 = ORIENTED_EDGE ( 'NONE', *, *, #130, .T. ) ;
#43 = VERTEX_POINT ( 'NONE', #44 ) ;
#44 = CARTESIAN_POINT ( 'NONE',  ( -0.1250000000000000000, 0.0000000000000000000, 1.984999999999999432 ) ) ;
#45 = ORIENTED_EDGE ( 'NONE', *, *, #57, .T. ) ;
#46 =( NAMED_UNIT ( * ) PLANE_ANGLE_UNIT ( ) SI_UNIT ( $, .RADIAN. ) );
#47 = DIRECTION ( 'NONE',  ( 1.000000000000000000, 0.0000000000000000000, 0.0000000000000000000 ) ) ;
#48 = EDGE_CURVE ( 'NONE', #258, #107, #167, .T. ) ;
#49 = CIRCLE ( 'NONE', #151, 0.1250000000000000000 ) ;
#50 = DIRECTION ( 'NONE',  ( -0.0000000000000000000, -0.0000000000000000000, -1.000000000000000000 ) ) ;
#51 = CARTESIAN_POINT ( 'NONE',  ( 0.0000000000000000000, 0.0000000000000000000, 0.0000000000000000000 ) ) ;
#52 = FACE_OUTER_BOUND ( 'NONE', #160, .T. ) ;
#53 = EDGE_CURVE ( 'NONE', #110, #179, #82, .T. ) ;
#54 = AXIS2_PLACEMENT_3D ( 'NONE', #233, #264, #47 ) ;
#55 = LINE ( 'NONE', #148, #162 ) ;
#56 = CARTESIAN_POINT ( 'NONE',  ( 0.0000000000000000000, 0.0000000000000000000, 0.0000000000000000000 ) ) ;
#57 = EDGE_CURVE ( 'NONE', #205, #110, #236, .T. ) ;
#58 = CARTESIAN_POINT ( 'NONE',  ( -0.1248749999999999999, 0.0000000000000000000, 3.058555380870514950E-17 ) ) ;
#59 = VECTOR ( 'NONE', #288, 39.37007874015748143 ) ;
#60 = VECTOR ( 'NONE', #294, 39.37007874015748143 ) ;
#61 = DIRECTION ( 'NONE',  ( -1.000000000000000000, 0.0000000000000000000, 1.224646799147353454E-16 ) ) ;
#62 = ADVANCED_FACE ( 'NONE', ( #168 ), #235, .T. ) ;
#63 = DIRECTION ( 'NONE',  ( 0.0000000000000000000, 0.0000000000000000000, 1.000000000000000000 ) ) ;
#64 = AXIS2_PLACEMENT_3D ( 'NONE', #145, #175, #61 ) ;
#65 = ORIENTED_EDGE ( 'NONE', *, *, #229, .F. ) ;
#66 = VERTEX_POINT ( 'NONE', #267 ) ;
#67 = AXIS2_PLACEMENT_3D ( 'NONE', #190, #97, #192 ) ;
#68 = ORIENTED_EDGE ( 'NONE', *, *, #4, .T. ) ;
#69 = DIMENSIONAL_EXPONENTS ( 1.000000000000000000, 0.0000000000000000000, 0.0000000000000000000, 0.0000000000000000000, 0.0000000000000000000, 0.0000000000000000000, 0.0000000000000000000 ) ;
#70 = SURFACE_STYLE_FILL_AREA ( #25 ) ;
#71 = CARTESIAN_POINT ( 'NONE',  ( 0.0000000000000000000, 0.0000000000000000000, 2.000000000000000000 ) ) ;
#72 = CARTESIAN_POINT ( 'NONE',  ( -0.1248749999999999444, 1.529277690435257475E-17, 0.5000000000000000000 ) ) ;
#73 = FILL_AREA_STYLE ('',( #247 ) ) ;
#74 = APPLICATION_CONTEXT ( 'automotive_design' ) ;
#75 = ADVANCED_FACE ( 'NONE', ( #224 ), #35, .T. ) ;
#76 = LINE ( 'NONE', #93, #186 ) ;
#77 = DIRECTION ( 'NONE',  ( 0.0000000000000000000, 0.0000000000000000000, -1.000000000000000000 ) ) ;
#78 = CARTESIAN_POINT ( 'NONE',  ( -0.1099999999999996397, 0.0000000000000000000, 2.000000000000000000 ) ) ;
#79 = EDGE_CURVE ( 'NONE', #66, #43, #49, .T. ) ;
#80 = CYLINDRICAL_SURFACE ( 'NONE', #91, 0.1250000000000000000 ) ;
#81 = DIRECTION ( 'NONE',  ( -1.224646799147353207E-16, -0.0000000000000000000, -1.000000000000000000 ) ) ;
#82 = CIRCLE ( 'NONE', #54, 0.1250000000000000000 ) ;
#83 = CARTESIAN_POINT ( 'NONE',  ( 0.0000000000000000000, 0.0000000000000000000, 0.0000000000000000000 ) ) ;
#84 =( LENGTH_UNIT ( ) NAMED_UNIT ( * ) SI_UNIT ( $, .METRE. ) );
#85 = FACE_OUTER_BOUND ( 'NONE', #129, .T. ) ;
#86 = ORIENTED_EDGE ( 'NONE', *, *, #48, .F. ) ;
#87 = ORIENTED_EDGE ( 'NONE', *, *, #229, .T. ) ;
#88 = FACE_OUTER_BOUND ( 'NONE', #8, .T. ) ;
#89 = CIRCLE ( 'NONE', #270, 0.1250000000000000000 ) ;
#90 = ORIENTED_EDGE ( 'NONE', *, *, #217, .F. ) ;
#91 = AXIS2_PLACEMENT_3D ( 'NONE', #292, #128, #252 ) ;
#92 = ORIENTED_EDGE ( 'NONE', *, *, #169, .F. ) ;
#93 = CARTESIAN_POINT ( 'NONE',  ( -0.1248749999999999999, 0.0000000000000000000, 1.529277690435257475E-17 ) ) ;
#94 = CARTESIAN_POINT ( 'NONE',  ( 6.123233995736766036E-17, 0.0000000000000000000, 0.5000000000000000000 ) ) ;
#95 = VECTOR ( 'NONE', #125, 39.37007874015748143 ) ;
#96 = CARTESIAN_POINT ( 'NONE',  ( 6.123233995736766036E-17, 0.0000000000000000000, 0.5000000000000000000 ) ) ;
#97 = DIRECTION ( 'NONE',  ( 1.224646799147353207E-16, 0.0000000000000000000, 1.000000000000000000 ) ) ;
#98 = ADVANCED_FACE ( 'NONE', ( #119 ), #226, .T. ) ;
#99 = AXIS2_PLACEMENT_3D ( 'NONE', #51, #269, #31 ) ;
#100 = CARTESIAN_POINT ( 'NONE',  ( 0.0000000000000000000, 0.0000000000000000000, 2.000000000000000000 ) ) ;
#101 = LENGTH_MEASURE_WITH_UNIT ( LENGTH_MEASURE( 0.02539999999999999897 ), #84 );
#102 = EDGE_LOOP ( 'NONE', ( #212, #207, #180, #115 ) ) ;
#103 = DIRECTION ( 'NONE',  ( -1.000000000000000000, 0.0000000000000000000, 0.0000000000000000000 ) ) ;
#104 = EDGE_CURVE ( 'NONE', #21, #43, #289, .T. ) ;
#105 =( CONVERSION_BASED_UNIT ( 'INCH', #101 ) LENGTH_UNIT ( ) NAMED_UNIT ( #157 ) );
#106 = DIRECTION ( 'NONE',  ( -1.224646799147353207E-16, -0.0000000000000000000, -1.000000000000000000 ) ) ;
#107 = VERTEX_POINT ( 'NONE', #10 ) ;
#108 = ORIENTED_EDGE ( 'NONE', *, *, #79, .F. ) ;
#109 = EDGE_CURVE ( 'NONE', #66, #179, #55, .T. ) ;
#110 = VERTEX_POINT ( 'NONE', #123 ) ;
#111 = FILL_AREA_STYLE_COLOUR ( '', #24 ) ;
#112 = EDGE_LOOP ( 'NONE', ( #23, #19, #182, #283 ) ) ;
#113 = PRODUCT_DEFINITION_CONTEXT ( 'detailed design', #296, 'design' ) ;
#114 = ADVANCED_FACE ( 'NONE', ( #52 ), #202, .T. ) ;
#115 = ORIENTED_EDGE ( 'NONE', *, *, #4, .F. ) ;
#116 = CLOSED_SHELL ( 'NONE', ( #172, #114, #62, #263, #184, #13, #98, #254, #75, #234 ) ) ;
#117 = PRESENTATION_LAYER_ASSIGNMENT (  '', '', ( #6 ) ) ;
#118 = EDGE_LOOP ( 'NONE', ( #189, #87, #276, #153 ) ) ;
#119 = FACE_OUTER_BOUND ( 'NONE', #143, .T. ) ;
#120 = CIRCLE ( 'NONE', #64, 0.1248749999999999999 ) ;
#121 = SURFACE_STYLE_FILL_AREA ( #73 ) ;
#122 = EDGE_CURVE ( 'NONE', #28, #21, #147, .T. ) ;
#123 = CARTESIAN_POINT ( 'NONE',  ( -0.1249999999999999306, 0.0000000000000000000, 0.5007089102274522308 ) ) ;
#124 = PRODUCT_DEFINITION_SHAPE ( 'NONE', 'NONE',  #299 ) ;
#125 = DIRECTION ( 'NONE',  ( 0.1736481776669314137, 0.0000000000000000000, 0.9848077530122077983 ) ) ;
#126 = AXIS2_PLACEMENT_3D ( 'NONE', #56, #253, #154 ) ;
#127 = CARTESIAN_POINT ( 'NONE',  ( 0.1250000000000000555, 1.530808498934192125E-17, 0.5007089102274522308 ) ) ;
#128 = DIRECTION ( 'NONE',  ( -0.0000000000000000000, -0.0000000000000000000, -1.000000000000000000 ) ) ;
#129 = EDGE_LOOP ( 'NONE', ( #239, #241 ) ) ;
#130 = EDGE_CURVE ( 'NONE', #205, #282, #76, .T. ) ;
#131 = AXIS2_PLACEMENT_3D ( 'NONE', #96, #219, #193 ) ;
#132 =( GEOMETRIC_REPRESENTATION_CONTEXT ( 3 ) GLOBAL_UNCERTAINTY_ASSIGNED_CONTEXT ( ( #237 ) ) GLOBAL_UNIT_ASSIGNED_CONTEXT ( ( #105, #20, #201 ) ) REPRESENTATION_CONTEXT ( 'NONE', 'WORKASPACE' ) );
#133 = LINE ( 'NONE', #273, #60 ) ;
#134 = ORIENTED_EDGE ( 'NONE', *, *, #198, .F. ) ;
#135 = ORIENTED_EDGE ( 'NONE', *, *, #155, .T. ) ;
#136 = DIRECTION ( 'NONE',  ( -1.224646799147353207E-16, -0.0000000000000000000, -1.000000000000000000 ) ) ;
#137 = EDGE_LOOP ( 'NONE', ( #1, #278, #92, #5 ) ) ;
#138 = PRODUCT_CONTEXT ( 'NONE', #74, 'mechanical' ) ;
#139 = CARTESIAN_POINT ( 'NONE',  ( 0.1099999999999996397, 1.438959988998137757E-17, 2.000000000000000000 ) ) ;
#140 = UNCERTAINTY_MEASURE_WITH_UNIT (LENGTH_MEASURE( 1.000000000000000082E-05 ), #211, 'distance_accuracy_value', 'NONE');
#141 = EDGE_CURVE ( 'NONE', #43, #66, #89, .T. ) ;
#142 =( NAMED_UNIT ( * ) SI_UNIT ( $, .STERADIAN. ) SOLID_ANGLE_UNIT ( ) );
#143 = EDGE_LOOP ( 'NONE', ( #65, #27, #200, #108 ) ) ;
#144 =( NAMED_UNIT ( * ) PLANE_ANGLE_UNIT ( ) SI_UNIT ( $, .RADIAN. ) );
#145 = CARTESIAN_POINT ( 'NONE',  ( 1.872825028598994811E-33, 0.0000000000000000000, 1.529277690435257475E-17 ) ) ;
#146 = CARTESIAN_POINT ( 'NONE',  ( 0.0000000000000000000, 0.0000000000000000000, 2.000000000000000000 ) ) ;
#147 = CIRCLE ( 'NONE', #32, 0.1099999999999996397 ) ;
#148 = CARTESIAN_POINT ( 'NONE',  ( 0.1250000000000000000, 1.530808498934191509E-17, 2.000000000000000000 ) ) ;
#149 = DIRECTION ( 'NONE',  ( 1.000000000000000000, 0.0000000000000000000, 0.0000000000000000000 ) ) ;
#150 = DIRECTION ( 'NONE',  ( 1.000000000000000000, 0.0000000000000000000, 0.0000000000000000000 ) ) ;
#151 = AXIS2_PLACEMENT_3D ( 'NONE', #287, #272, #223 ) ;
#152 = FACE_OUTER_BOUND ( 'NONE', #137, .T. ) ;
#153 = ORIENTED_EDGE ( 'NONE', *, *, #104, .F. ) ;
#154 = DIRECTION ( 'NONE',  ( 1.000000000000000000, 0.0000000000000000000, -0.0000000000000000000 ) ) ;
#155 = EDGE_CURVE ( 'NONE', #258, #205, #256, .T. ) ;
#156 = AXIS2_PLACEMENT_3D ( 'NONE', #174, #39, #149 ) ;
#157 = DIMENSIONAL_EXPONENTS ( 1.000000000000000000, 0.0000000000000000000, 0.0000000000000000000, 0.0000000000000000000, 0.0000000000000000000, 0.0000000000000000000, 0.0000000000000000000 ) ;
#158 = SURFACE_STYLE_USAGE ( .BOTH. , #216 ) ;
#159 = MANIFOLD_SOLID_BREP ( 'Cut-Revolve1', #116 ) ;
#160 = EDGE_LOOP ( 'NONE', ( #260, #45, #209, #262 ) ) ;
#161 = EDGE_LOOP ( 'NONE', ( #86, #135, #42, #134 ) ) ;
#162 = VECTOR ( 'NONE', #50, 39.37007874015748143 ) ;
#163 = CARTESIAN_POINT ( 'NONE',  ( 0.0000000000000000000, 0.0000000000000000000, 0.0000000000000000000 ) ) ;
#164 = ORIENTED_EDGE ( 'NONE', *, *, #122, .T. ) ;
#165 = EDGE_CURVE ( 'NONE', #205, #258, #227, .T. ) ;
#166 = PRESENTATION_STYLE_ASSIGNMENT (( #158 ) ) ;
#167 = LINE ( 'NONE', #2, #22 ) ;
#168 = FACE_OUTER_BOUND ( 'NONE', #118, .T. ) ;
#169 = EDGE_CURVE ( 'NONE', #282, #107, #120, .T. ) ;
#170 = DIRECTION ( 'NONE',  ( -1.224646799147353207E-16, -0.0000000000000000000, -1.000000000000000000 ) ) ;
#171 = DIRECTION ( 'NONE',  ( -1.000000000000000000, 0.0000000000000000000, 0.0000000000000000000 ) ) ;
#172 = ADVANCED_FACE ( 'NONE', ( #152 ), #18, .T. ) ;
#173 = DIRECTION ( 'NONE',  ( 1.000000000000000000, 0.0000000000000000000, 0.0000000000000000000 ) ) ;
#174 = CARTESIAN_POINT ( 'NONE',  ( 6.123233995736766036E-17, 0.0000000000000000000, 0.5000000000000000000 ) ) ;
#175 = DIRECTION ( 'NONE',  ( -1.224646799147353207E-16, -0.0000000000000000000, -1.000000000000000000 ) ) ;
#176 =( GEOMETRIC_REPRESENTATION_CONTEXT ( 3 ) GLOBAL_UNCERTAINTY_ASSIGNED_CONTEXT ( ( #140 ) ) GLOBAL_UNIT_ASSIGNED_CONTEXT ( ( #211, #46, #142 ) ) REPRESENTATION_CONTEXT ( 'NONE', 'WORKASPACE' ) );
#177 = FACE_OUTER_BOUND ( 'NONE', #102, .T. ) ;
#178 = DIRECTION ( 'NONE',  ( -1.000000000000000000, 0.0000000000000000000, 1.224646799147353454E-16 ) ) ;
#179 = VERTEX_POINT ( 'NONE', #127 ) ;
#180 = ORIENTED_EDGE ( 'NONE', *, *, #53, .F. ) ;
#181 =( GEOMETRIC_REPRESENTATION_CONTEXT ( 3 ) GLOBAL_UNCERTAINTY_ASSIGNED_CONTEXT ( ( #210 ) ) GLOBAL_UNIT_ASSIGNED_CONTEXT ( ( #291, #144, #30 ) ) REPRESENTATION_CONTEXT ( 'NONE', 'WORKASPACE' ) );
#182 = ORIENTED_EDGE ( 'NONE', *, *, #222, .T. ) ;
#183 = ORIENTED_EDGE ( 'NONE', *, *, #109, .F. ) ;
#184 = ADVANCED_FACE ( 'NONE', ( #249 ), #80, .T. ) ;
#185 = CARTESIAN_POINT ( 'NONE',  ( -0.1099999999999996397, 0.0000000000000000000, 2.000000000000000000 ) ) ;
#186 = VECTOR ( 'NONE', #15, 39.37007874015748143 ) ;
#187 = SHAPE_DEFINITION_REPRESENTATION ( #124, #232 ) ;
#188 = CARTESIAN_POINT ( 'NONE',  ( -0.1250000000000000000, 0.0000000000000000000, 2.000000000000000000 ) ) ;
#189 = ORIENTED_EDGE ( 'NONE', *, *, #122, .F. ) ;
#190 = CARTESIAN_POINT ( 'NONE',  ( 6.123233995736766036E-17, 0.0000000000000000000, 0.5000000000000000000 ) ) ;
#191 = AXIS2_PLACEMENT_3D ( 'NONE', #194, #77, #243 ) ;
#192 = DIRECTION ( 'NONE',  ( 1.000000000000000000, 0.0000000000000000000, 0.0000000000000000000 ) ) ;
#193 = DIRECTION ( 'NONE',  ( -1.000000000000000000, 0.0000000000000000000, 0.0000000000000000000 ) ) ;
#194 = CARTESIAN_POINT ( 'NONE',  ( 0.0000000000000000000, 0.0000000000000000000, 2.000000000000000000 ) ) ;
#195 = LENGTH_MEASURE_WITH_UNIT ( LENGTH_MEASURE( 0.02539999999999999897 ), #244 );
#196 = CIRCLE ( 'NONE', #295, 0.1099999999999996397 ) ;
#197 = CARTESIAN_POINT ( 'NONE',  ( 1.872825028598994811E-33, 0.0000000000000000000, 1.529277690435257475E-17 ) ) ;
#198 = EDGE_CURVE ( 'NONE', #107, #282, #215, .T. ) ;
#199 = PRODUCT ( 'Micro_SEM-250-02', 'Micro_SEM-250-02', '', ( #138 ) ) ;
#200 = ORIENTED_EDGE ( 'NONE', *, *, #104, .T. ) ;
#201 =( NAMED_UNIT ( * ) SI_UNIT ( $, .STERADIAN. ) SOLID_ANGLE_UNIT ( ) );
#202 = CONICAL_SURFACE ( 'NONE', #67, 0.1248749999999999999, 0.1745329251994339192 ) ;
#203 = DIMENSIONAL_EXPONENTS ( 1.000000000000000000, 0.0000000000000000000, 0.0000000000000000000, 0.0000000000000000000, 0.0000000000000000000, 0.0000000000000000000, 0.0000000000000000000 ) ;
#204 = APPLICATION_PROTOCOL_DEFINITION ( 'draft international standard', 'automotive_design', 1998, #74 ) ;
#205 = VERTEX_POINT ( 'NONE', #298 ) ;
#206 = DIRECTION ( 'NONE',  ( 1.000000000000000000, 0.0000000000000000000, 0.0000000000000000000 ) ) ;
#207 = ORIENTED_EDGE ( 'NONE', *, *, #109, .T. ) ;
#208 = AXIS2_PLACEMENT_3D ( 'NONE', #94, #170, #268 ) ;
#209 = ORIENTED_EDGE ( 'NONE', *, *, #53, .T. ) ;
#210 = UNCERTAINTY_MEASURE_WITH_UNIT (LENGTH_MEASURE( 1.000000000000000082E-05 ), #291, 'distance_accuracy_value', 'NONE');
#211 =( CONVERSION_BASED_UNIT ( 'INCH', #213 ) LENGTH_UNIT ( ) NAMED_UNIT ( #69 ) );
#212 = ORIENTED_EDGE ( 'NONE', *, *, #141, .T. ) ;
#213 = LENGTH_MEASURE_WITH_UNIT ( LENGTH_MEASURE( 0.02539999999999999897 ), #240 );
#214 = LINE ( 'NONE', #188, #245 ) ;
#215 = CIRCLE ( 'NONE', #261, 0.1248749999999999999 ) ;
#216 = SURFACE_SIDE_STYLE ('',( #70 ) ) ;
#217 = EDGE_CURVE ( 'NONE', #179, #110, #271, .T. ) ;
#218 = ORIENTED_EDGE ( 'NONE', *, *, #286, .T. ) ;
#219 = DIRECTION ( 'NONE',  ( -1.224646799147353207E-16, -0.0000000000000000000, -1.000000000000000000 ) ) ;
#220 = AXIS2_PLACEMENT_3D ( 'NONE', #71, #280, #259 ) ;
#221 = CARTESIAN_POINT ( 'NONE',  ( 0.0000000000000000000, 0.0000000000000000000, 1.984999999999999432 ) ) ;
#222 = EDGE_CURVE ( 'NONE', #258, #179, #274, .T. ) ;
#223 = DIRECTION ( 'NONE',  ( 1.000000000000000000, 0.0000000000000000000, 0.0000000000000000000 ) ) ;
#224 = FACE_OUTER_BOUND ( 'NONE', #161, .T. ) ;
#225 = PLANE ( 'NONE',  #126 ) ;
#226 = CONICAL_SURFACE ( 'NONE', #191, 0.1099999999999996397, 0.7853981633974426169 ) ;
#227 = CIRCLE ( 'NONE', #208, 0.1248749999999999999 ) ;
#228 = CARTESIAN_POINT ( 'NONE',  ( 0.1248750000000000693, 0.0000000000000000000, 0.5000000000000000000 ) ) ;
#229 = EDGE_CURVE ( 'NONE', #28, #66, #133, .T. ) ;
#230 = CARTESIAN_POINT ( 'NONE',  ( 6.131915642146087268E-17, 0.0000000000000000000, 0.5007089102274522308 ) ) ;
#231 = PLANE ( 'NONE',  #220 ) ;
#232 = ADVANCED_BREP_SHAPE_REPRESENTATION ( 'Micro_SEM-250-02', ( #159, #41 ), #132 ) ;
#233 = CARTESIAN_POINT ( 'NONE',  ( 6.131915642146087268E-17, 0.0000000000000000000, 0.5007089102274522308 ) ) ;
#234 = ADVANCED_FACE ( 'NONE', ( #85 ), #225, .F. ) ;
#235 = CONICAL_SURFACE ( 'NONE', #251, 0.1099999999999996397, 0.7853981633974426169 ) ;
#236 = LINE ( 'NONE', #72, #246 ) ;
#237 = UNCERTAINTY_MEASURE_WITH_UNIT (LENGTH_MEASURE( 1.000000000000000082E-05 ), #105, 'distance_accuracy_value', 'NONE');
#238 = APPLICATION_PROTOCOL_DEFINITION ( 'draft international standard', 'automotive_design', 1998, #296 ) ;
#239 = ORIENTED_EDGE ( 'NONE', *, *, #169, .T. ) ;
#240 =( LENGTH_UNIT ( ) NAMED_UNIT ( * ) SI_UNIT ( $, .METRE. ) );
#241 = ORIENTED_EDGE ( 'NONE', *, *, #198, .T. ) ;
#242 = CONICAL_SURFACE ( 'NONE', #156, 0.1248749999999999999, 0.1745329251994339192 ) ;
#243 = DIRECTION ( 'NONE',  ( -1.000000000000000000, 0.0000000000000000000, 0.0000000000000000000 ) ) ;
#244 =( LENGTH_UNIT ( ) NAMED_UNIT ( * ) SI_UNIT ( $, .METRE. ) );
#245 = VECTOR ( 'NONE', #284, 39.37007874015748143 ) ;
#246 = VECTOR ( 'NONE', #26, 39.37007874015747433 ) ;
#247 = FILL_AREA_STYLE_COLOUR ( '', #279 ) ;
#248 = PRODUCT_RELATED_PRODUCT_CATEGORY ( 'part', '', ( #199 ) ) ;
#249 = FACE_OUTER_BOUND ( 'NONE', #255, .T. ) ;
#250 = DIRECTION ( 'NONE',  ( -1.224646799147353207E-16, -0.0000000000000000000, -1.000000000000000000 ) ) ;
#251 = AXIS2_PLACEMENT_3D ( 'NONE', #281, #265, #171 ) ;
#252 = DIRECTION ( 'NONE',  ( -1.000000000000000000, 0.0000000000000000000, 0.0000000000000000000 ) ) ;
#253 = DIRECTION ( 'NONE',  ( 0.0000000000000000000, 0.0000000000000000000, 1.000000000000000000 ) ) ;
#254 = ADVANCED_FACE ( 'NONE', ( #17 ), #242, .T. ) ;
#255 = EDGE_LOOP ( 'NONE', ( #183, #3, #68, #90 ) ) ;
#256 = CIRCLE ( 'NONE', #131, 0.1248749999999999999 ) ;
#257 = PRODUCT_DEFINITION_FORMATION_WITH_SPECIFIED_SOURCE ( 'ANY', '', #199, .NOT_KNOWN. ) ;
#258 = VERTEX_POINT ( 'NONE', #277 ) ;
#259 = DIRECTION ( 'NONE',  ( 1.000000000000000000, 0.0000000000000000000, -0.0000000000000000000 ) ) ;
#260 = ORIENTED_EDGE ( 'NONE', *, *, #165, .F. ) ;
#261 = AXIS2_PLACEMENT_3D ( 'NONE', #197, #106, #36 ) ;
#262 = ORIENTED_EDGE ( 'NONE', *, *, #222, .F. ) ;
#263 = ADVANCED_FACE ( 'NONE', ( #177 ), #275, .T. ) ;
#264 = DIRECTION ( 'NONE',  ( -1.224646799147353207E-16, -0.0000000000000000000, -1.000000000000000000 ) ) ;
#265 = DIRECTION ( 'NONE',  ( 0.0000000000000000000, 0.0000000000000000000, -1.000000000000000000 ) ) ;
#266 = AXIS2_PLACEMENT_3D ( 'NONE', #230, #250, #297 ) ;
#267 = CARTESIAN_POINT ( 'NONE',  ( 0.1250000000000000000, 1.530808498934191509E-17, 1.984999999999999432 ) ) ;
#268 = DIRECTION ( 'NONE',  ( -1.000000000000000000, 0.0000000000000000000, 0.0000000000000000000 ) ) ;
#269 = DIRECTION ( 'NONE',  ( -1.224646799147353207E-16, -0.0000000000000000000, -1.000000000000000000 ) ) ;
#270 = AXIS2_PLACEMENT_3D ( 'NONE', #221, #12, #173 ) ;
#271 = CIRCLE ( 'NONE', #266, 0.1250000000000000000 ) ;
#272 = DIRECTION ( 'NONE',  ( 0.0000000000000000000, 0.0000000000000000000, -1.000000000000000000 ) ) ;
#273 = CARTESIAN_POINT ( 'NONE',  ( 0.1099999999999996397, 1.347111479062084158E-17, 2.000000000000000000 ) ) ;
#274 = LINE ( 'NONE', #228, #95 ) ;
#275 = CYLINDRICAL_SURFACE ( 'NONE', #37, 0.1250000000000000000 ) ;
#276 = ORIENTED_EDGE ( 'NONE', *, *, #141, .F. ) ;
#277 = CARTESIAN_POINT ( 'NONE',  ( 0.1248750000000000693, 0.0000000000000000000, 0.5000000000000000000 ) ) ;
#278 = ORIENTED_EDGE ( 'NONE', *, *, #48, .T. ) ;
#279 = COLOUR_RGB ( '',0.7921568627450980005, 0.8196078431372548767, 0.9333333333333333481 ) ;
#280 = DIRECTION ( 'NONE',  ( 0.0000000000000000000, 0.0000000000000000000, 1.000000000000000000 ) ) ;
#281 = CARTESIAN_POINT ( 'NONE',  ( 0.0000000000000000000, 0.0000000000000000000, 2.000000000000000000 ) ) ;
#282 = VERTEX_POINT ( 'NONE', #58 ) ;
#283 = ORIENTED_EDGE ( 'NONE', *, *, #217, .T. ) ;
#284 = DIRECTION ( 'NONE',  ( -0.0000000000000000000, -0.0000000000000000000, -1.000000000000000000 ) ) ;
#285 = PRESENTATION_STYLE_ASSIGNMENT (( #14 ) ) ;
#286 = EDGE_CURVE ( 'NONE', #21, #28, #196, .T. ) ;
#287 = CARTESIAN_POINT ( 'NONE',  ( 0.0000000000000000000, 0.0000000000000000000, 1.984999999999999432 ) ) ;
#288 = DIRECTION ( 'NONE',  ( -0.7071067811865434649, 0.0000000000000000000, -0.7071067811865515695 ) ) ;
#289 = LINE ( 'NONE', #78, #59 ) ;
#290 = MECHANICAL_DESIGN_GEOMETRIC_PRESENTATION_REPRESENTATION (  '', ( #6 ), #181 ) ;
#291 =( CONVERSION_BASED_UNIT ( 'INCH', #195 ) LENGTH_UNIT ( ) NAMED_UNIT ( #203 ) );
#292 = CARTESIAN_POINT ( 'NONE',  ( 0.0000000000000000000, 0.0000000000000000000, 2.000000000000000000 ) ) ;
#293 = CARTESIAN_POINT ( 'NONE',  ( 0.0000000000000000000, 0.0000000000000000000, 2.000000000000000000 ) ) ;
#294 = DIRECTION ( 'NONE',  ( 0.7071067811865434649, 8.659560562354883554E-17, -0.7071067811865515695 ) ) ;
#295 = AXIS2_PLACEMENT_3D ( 'NONE', #293, #38, #150 ) ;
#296 = APPLICATION_CONTEXT ( 'automotive_design' ) ;
#297 = DIRECTION ( 'NONE',  ( 1.000000000000000000, 0.0000000000000000000, 0.0000000000000000000 ) ) ;
#298 = CARTESIAN_POINT ( 'NONE',  ( -0.1248749999999999444, 1.530043094684724646E-17, 0.5000000000000000000 ) ) ;
#299 = PRODUCT_DEFINITION ( 'UNKNOWN', '', #257, #113 ) ;
ENDSEC;
END-ISO-10303-21;
