ISO-10303-21;
HEADER;
FILE_DESCRIPTION (( 'STEP AP214' ),
    '1' );
FILE_NAME ('84586.STEP',
    '2023-07-12T13:08:41',
    ( '' ),
    ( '' ),
    'SwSTEP 2.0',
    'SolidWorks 2023',
    '' );
FILE_SCHEMA (( 'AUTOMOTIVE_DESIGN' ));
ENDSEC;

DATA;
#1 = DIRECTION ( 'NONE',  ( 2.996036790656715962E-33, -1.000000000000000000, -0.000000000000000000 ) ) ;
#2 = STYLED_ITEM ( 'NONE', ( #136 ), #67 ) ;
#3 = AXIS2_PLACEMENT_3D ( 'NONE', #29, #255, #49 ) ;
#4 = FACE_OUTER_BOUND ( 'NONE', #202, .T. ) ;
#5 = ORIENTED_EDGE ( 'NONE', *, *, #236, .T. ) ;
#6 = ADVANCED_FACE ( 'NONE', ( #274 ), #32, .F. ) ;
#7 = DIRECTION ( 'NONE',  ( -1.000000000000000000, -2.996036790656715962E-33, 0.000000000000000000 ) ) ;
#8 =( NAMED_UNIT ( * ) SI_UNIT ( $, .STERADIAN. ) SOLID_ANGLE_UNIT ( ) );
#9 = STYLED_ITEM ( 'NONE', ( #233 ), #106 ) ;
#10 =( GEOMETRIC_REPRESENTATION_CONTEXT ( 3 ) GLOBAL_UNCERTAINTY_ASSIGNED_CONTEXT ( ( #137 ) ) GLOBAL_UNIT_ASSIGNED_CONTEXT ( ( #205, #187, #162 ) ) REPRESENTATION_CONTEXT ( 'NONE', 'WORKASPACE' ) );
#11 = ORIENTED_EDGE ( 'NONE', *, *, #251, .T. ) ;
#12 = DIRECTION ( 'NONE',  ( -1.000000000000000000, 0.000000000000000000, 0.000000000000000000 ) ) ;
#13 = ORIENTED_EDGE ( 'NONE', *, *, #86, .T. ) ;
#14 = PRODUCT_DEFINITION_SHAPE ( 'NONE', 'NONE',  #93 ) ;
#15 = DIRECTION ( 'NONE',  ( -1.000000000000000000, 0.000000000000000000, 0.000000000000000000 ) ) ;
#16 = EDGE_CURVE ( 'NONE', #36, #133, #112, .T. ) ;
#17 = LENGTH_MEASURE_WITH_UNIT ( LENGTH_MEASURE( 0.02539999999999999897 ), #219 );
#18 = PRESENTATION_LAYER_ASSIGNMENT (  '', '', ( #24 ) ) ;
#19 =( GEOMETRIC_REPRESENTATION_CONTEXT ( 3 ) GLOBAL_UNCERTAINTY_ASSIGNED_CONTEXT ( ( #165 ) ) GLOBAL_UNIT_ASSIGNED_CONTEXT ( ( #63, #111, #90 ) ) REPRESENTATION_CONTEXT ( 'NONE', 'WORKASPACE' ) );
#20 = FILL_AREA_STYLE ('',( #243 ) ) ;
#21 = DIRECTION ( 'NONE',  ( -2.996036790656716304E-33, 1.000000000000000000, 0.000000000000000000 ) ) ;
#22 = DIMENSIONAL_EXPONENTS ( 1.000000000000000000, 0.000000000000000000, 0.000000000000000000, 0.000000000000000000, 0.000000000000000000, 0.000000000000000000, 0.000000000000000000 ) ;
#23 = ORIENTED_EDGE ( 'NONE', *, *, #55, .T. ) ;
#24 = STYLED_ITEM ( 'NONE', ( #286 ), #44 ) ;
#25 = PRESENTATION_LAYER_ASSIGNMENT (  '', '', ( #262 ) ) ;
#26 = CARTESIAN_POINT ( 'NONE',  ( 0.09374999999999987510, 2.000000000000000000, 1.148106374200642938E-17 ) ) ;
#27 = FILL_AREA_STYLE ('',( #223 ) ) ;
#28 = FILL_AREA_STYLE_COLOUR ( '', #156 ) ;
#29 = CARTESIAN_POINT ( 'NONE',  ( -2.369500423704768587E-34, 0.07908782799644412109, 0.000000000000000000 ) ) ;
#30 = DIMENSIONAL_EXPONENTS ( 1.000000000000000000, 0.000000000000000000, 0.000000000000000000, 0.000000000000000000, 0.000000000000000000, 0.000000000000000000, 0.000000000000000000 ) ;
#31 =( NAMED_UNIT ( * ) PLANE_ANGLE_UNIT ( ) SI_UNIT ( $, .RADIAN. ) );
#32 = PLANE ( 'NONE',  #288 ) ;
#33 =( LENGTH_UNIT ( ) NAMED_UNIT ( * ) SI_UNIT ( $, .METRE. ) );
#34 = DIRECTION ( 'NONE',  ( 2.996036790656716304E-33, -1.000000000000000000, -0.000000000000000000 ) ) ;
#35 = CARTESIAN_POINT ( 'NONE',  ( -0.09375000000000012490, 2.000000000000000000, 0.000000000000000000 ) ) ;
#36 = VERTEX_POINT ( 'NONE', #226 ) ;
#37 =( LENGTH_UNIT ( ) NAMED_UNIT ( * ) SI_UNIT ( $, .METRE. ) );
#38 = AXIS2_PLACEMENT_3D ( 'NONE', #230, #34, #212 ) ;
#39 = APPLICATION_CONTEXT ( 'automotive_design' ) ;
#40 =( LENGTH_UNIT ( ) NAMED_UNIT ( * ) SI_UNIT ( $, .METRE. ) );
#41 = SURFACE_STYLE_FILL_AREA ( #20 ) ;
#42 = EDGE_LOOP ( 'NONE', ( #221, #213, #13, #214 ) ) ;
#43 = EDGE_CURVE ( 'NONE', #177, #249, #295, .T. ) ;
#44 = MANIFOLD_SOLID_BREP ( 'Revolve - Cutting Edge', #301 ) ;
#45 = EDGE_LOOP ( 'NONE', ( #130, #85, #5, #217 ) ) ;
#46 = DIMENSIONAL_EXPONENTS ( 1.000000000000000000, 0.000000000000000000, 0.000000000000000000, 0.000000000000000000, 0.000000000000000000, 0.000000000000000000, 0.000000000000000000 ) ;
#47 = SURFACE_SIDE_STYLE ('',( #275 ) ) ;
#48 = CIRCLE ( 'NONE', #206, 0.09375000000000005551 ) ;
#49 = DIRECTION ( 'NONE',  ( -1.000000000000000000, -2.996036790656715962E-33, 0.000000000000000000 ) ) ;
#50 =( CONVERSION_BASED_UNIT ( 'INCH', #167 ) LENGTH_UNIT ( ) NAMED_UNIT ( #168 ) );
#51 = COLOUR_RGB ( '',1.000000000000000000, 0.000000000000000000, 0.000000000000000000 ) ;
#52 = CARTESIAN_POINT ( 'NONE',  ( 2.244059112742149073E-67, -7.490091976641790545E-35, 0.000000000000000000 ) ) ;
#53 = DIRECTION ( 'NONE',  ( -1.000000000000000000, 0.000000000000000000, 0.000000000000000000 ) ) ;
#54 = ORIENTED_EDGE ( 'NONE', *, *, #267, .T. ) ;
#55 = EDGE_CURVE ( 'NONE', #182, #155, #139, .T. ) ;
#56 = FILL_AREA_STYLE ('',( #265 ) ) ;
#57 = VECTOR ( 'NONE', #298, 39.37007874015748854 ) ;
#58 = SURFACE_SIDE_STYLE ('',( #41 ) ) ;
#59 = SURFACE_STYLE_FILL_AREA ( #101 ) ;
#60 = FILL_AREA_STYLE_COLOUR ( '', #144 ) ;
#61 = EDGE_CURVE ( 'NONE', #177, #182, #210, .T. ) ;
#62 = SURFACE_STYLE_USAGE ( .BOTH. , #47 ) ;
#63 =( CONVERSION_BASED_UNIT ( 'INCH', #17 ) LENGTH_UNIT ( ) NAMED_UNIT ( #253 ) );
#64 = SURFACE_SIDE_STYLE ('',( #203 ) ) ;
#65 =( NAMED_UNIT ( * ) SI_UNIT ( $, .STERADIAN. ) SOLID_ANGLE_UNIT ( ) );
#66 = LENGTH_MEASURE_WITH_UNIT ( LENGTH_MEASURE( 0.02539999999999999897 ), #281 );
#67 = ADVANCED_FACE ( 'NONE', ( #118 ), #166, .T. ) ;
#68 =( NAMED_UNIT ( * ) SI_UNIT ( $, .STERADIAN. ) SOLID_ANGLE_UNIT ( ) );
#69 = DIRECTION ( 'NONE',  ( -1.000000000000000000, -1.821231995776178930E-16, 0.000000000000000000 ) ) ;
#70 = AXIS2_PLACEMENT_3D ( 'NONE', #146, #142, #188 ) ;
#71 =( LENGTH_UNIT ( ) NAMED_UNIT ( * ) SI_UNIT ( $, .METRE. ) );
#72 = UNCERTAINTY_MEASURE_WITH_UNIT (LENGTH_MEASURE( 1.000000000000000082E-05 ), #305, 'distance_accuracy_value', 'NONE');
#73 = PRODUCT_RELATED_PRODUCT_CATEGORY ( 'part', '', ( #108 ) ) ;
#74 = UNCERTAINTY_MEASURE_WITH_UNIT (LENGTH_MEASURE( 1.000000000000000082E-05 ), #299, 'distance_accuracy_value', 'NONE');
#75 = MECHANICAL_DESIGN_GEOMETRIC_PRESENTATION_REPRESENTATION (  '', ( #157 ), #19 ) ;
#76 = DIRECTION ( 'NONE',  ( 1.000000000000000000, 2.996036790656715962E-33, 0.000000000000000000 ) ) ;
#77 = ORIENTED_EDGE ( 'NONE', *, *, #194, .T. ) ;
#78 = VECTOR ( 'NONE', #307, 39.37007874015748143 ) ;
#79 = CIRCLE ( 'NONE', #266, 0.02500000000000000139 ) ;
#80 = DIRECTION ( 'NONE',  ( -1.221677243039647880E-16, 1.000000000000000000, 0.000000000000000000 ) ) ;
#81 = ORIENTED_EDGE ( 'NONE', *, *, #16, .F. ) ;
#82 =( NAMED_UNIT ( * ) PLANE_ANGLE_UNIT ( ) SI_UNIT ( $, .RADIAN. ) );
#83 = DIRECTION ( 'NONE',  ( 2.996036790656716304E-33, -1.000000000000000000, -0.000000000000000000 ) ) ;
#84 = CLOSED_SHELL ( 'NONE', ( #152, #129, #179, #6 ) ) ;
#85 = ORIENTED_EDGE ( 'NONE', *, *, #225, .F. ) ;
#86 = EDGE_CURVE ( 'NONE', #249, #155, #263, .T. ) ;
#87 = SURFACE_STYLE_USAGE ( .BOTH. , #138 ) ;
#88 = PRESENTATION_STYLE_ASSIGNMENT (( #114 ) ) ;
#89 = ORIENTED_EDGE ( 'NONE', *, *, #43, .F. ) ;
#90 =( NAMED_UNIT ( * ) SI_UNIT ( $, .STERADIAN. ) SOLID_ANGLE_UNIT ( ) );
#91 = ADVANCED_BREP_SHAPE_REPRESENTATION ( '84586', ( #44, #245, #70 ), #135 ) ;
#92 = AXIS2_PLACEMENT_3D ( 'NONE', #52, #158, #7 ) ;
#93 = PRODUCT_DEFINITION ( 'UNKNOWN', '', #149, #208 ) ;
#94 = DIRECTION ( 'NONE',  ( -1.000000000000000000, 0.000000000000000000, 0.000000000000000000 ) ) ;
#95 = CARTESIAN_POINT ( 'NONE',  ( 0.02500000000000000139, 0.000000000000000000, 3.061616997868383172E-18 ) ) ;
#96 = UNCERTAINTY_MEASURE_WITH_UNIT (LENGTH_MEASURE( 1.000000000000000082E-05 ), #103, 'distance_accuracy_value', 'NONE');
#97 =( CONVERSION_BASED_UNIT ( 'INCH', #193 ) LENGTH_UNIT ( ) NAMED_UNIT ( #30 ) );
#98 =( NAMED_UNIT ( * ) PLANE_ANGLE_UNIT ( ) SI_UNIT ( $, .RADIAN. ) );
#99 = PRESENTATION_LAYER_ASSIGNMENT (  '', '', ( #126 ) ) ;
#100 = FACE_OUTER_BOUND ( 'NONE', #252, .T. ) ;
#101 = FILL_AREA_STYLE ('',( #28 ) ) ;
#102 = EDGE_LOOP ( 'NONE', ( #110, #23 ) ) ;
#103 =( CONVERSION_BASED_UNIT ( 'INCH', #131 ) LENGTH_UNIT ( ) NAMED_UNIT ( #250 ) );
#104 =( GEOMETRIC_REPRESENTATION_CONTEXT ( 3 ) GLOBAL_UNCERTAINTY_ASSIGNED_CONTEXT ( ( #96 ) ) GLOBAL_UNIT_ASSIGNED_CONTEXT ( ( #103, #82, #8 ) ) REPRESENTATION_CONTEXT ( 'NONE', 'WORKASPACE' ) );
#105 = CARTESIAN_POINT ( 'NONE',  ( 0.02500000000000000139, 0.000000000000000000, 7.271340369937408974E-18 ) ) ;
#106 = ADVANCED_FACE ( 'NONE', ( #4 ), #215, .T. ) ;
#107 = PLANE ( 'NONE',  #229 ) ;
#108 = PRODUCT ( '84586', '84586', '', ( #211 ) ) ;
#109 = CYLINDRICAL_SURFACE ( 'NONE', #117, 0.09374999999999994449 ) ;
#110 = ORIENTED_EDGE ( 'NONE', *, *, #128, .T. ) ;
#111 =( NAMED_UNIT ( * ) PLANE_ANGLE_UNIT ( ) SI_UNIT ( $, .RADIAN. ) );
#112 = CIRCLE ( 'NONE', #143, 0.09374999999999998612 ) ;
#113 = CONICAL_SURFACE ( 'NONE', #186, 0.02500000000000000139, 0.7155849933176767763 ) ;
#114 = SURFACE_STYLE_USAGE ( .BOTH. , #58 ) ;
#115 = LENGTH_MEASURE_WITH_UNIT ( LENGTH_MEASURE( 0.02539999999999999897 ), #222 );
#116 = ORIENTED_EDGE ( 'NONE', *, *, #267, .F. ) ;
#117 = AXIS2_PLACEMENT_3D ( 'NONE', #237, #201, #12 ) ;
#118 = FACE_OUTER_BOUND ( 'NONE', #269, .T. ) ;
#119 = DIRECTION ( 'NONE',  ( -0.6560590289905084971, 0.7547095802227710148, 0.000000000000000000 ) ) ;
#120 = CARTESIAN_POINT ( 'NONE',  ( 1.734411286840929472E-16, 0.07908782799644425987, 0.000000000000000000 ) ) ;
#121 = CARTESIAN_POINT ( 'NONE',  ( 0.09374999999999998612, 2.000000000000000000, 0.000000000000000000 ) ) ;
#122 = MECHANICAL_DESIGN_GEOMETRIC_PRESENTATION_REPRESENTATION (  '', ( #2 ), #231 ) ;
#123 = CIRCLE ( 'NONE', #170, 0.09374999999999998612 ) ;
#124 = DIRECTION ( 'NONE',  ( 1.221677243039647880E-16, -1.000000000000000000, 0.000000000000000000 ) ) ;
#125 = DIRECTION ( 'NONE',  ( 1.000000000000000000, 1.221677243039647880E-16, 0.000000000000000000 ) ) ;
#126 = STYLED_ITEM ( 'NONE', ( #88 ), #289 ) ;
#127 = SURFACE_STYLE_USAGE ( .BOTH. , #291 ) ;
#128 = EDGE_CURVE ( 'NONE', #155, #182, #48, .T. ) ;
#129 = ADVANCED_FACE ( 'NONE', ( #100 ), #107, .F. ) ;
#130 = ORIENTED_EDGE ( 'NONE', *, *, #251, .F. ) ;
#131 = LENGTH_MEASURE_WITH_UNIT ( LENGTH_MEASURE( 0.02539999999999999897 ), #37 );
#132 = PRESENTATION_STYLE_ASSIGNMENT (( #159 ) ) ;
#133 = VERTEX_POINT ( 'NONE', #285 ) ;
#134 = PLANE ( 'NONE',  #3 ) ;
#135 =( GEOMETRIC_REPRESENTATION_CONTEXT ( 3 ) GLOBAL_UNCERTAINTY_ASSIGNED_CONTEXT ( ( #72 ) ) GLOBAL_UNIT_ASSIGNED_CONTEXT ( ( #305, #98, #228 ) ) REPRESENTATION_CONTEXT ( 'NONE', 'WORKASPACE' ) );
#136 = PRESENTATION_STYLE_ASSIGNMENT (( #62 ) ) ;
#137 = UNCERTAINTY_MEASURE_WITH_UNIT (LENGTH_MEASURE( 1.000000000000000082E-05 ), #205, 'distance_accuracy_value', 'NONE');
#138 = SURFACE_SIDE_STYLE ('',( #204 ) ) ;
#139 = CIRCLE ( 'NONE', #261, 0.09375000000000005551 ) ;
#140 =( GEOMETRIC_REPRESENTATION_CONTEXT ( 3 ) GLOBAL_UNCERTAINTY_ASSIGNED_CONTEXT ( ( #296 ) ) GLOBAL_UNIT_ASSIGNED_CONTEXT ( ( #50, #31, #68 ) ) REPRESENTATION_CONTEXT ( 'NONE', 'WORKASPACE' ) );
#141 = LENGTH_MEASURE_WITH_UNIT ( LENGTH_MEASURE( 0.02539999999999999897 ), #71 );
#142 = DIRECTION ( 'NONE',  ( 0.000000000000000000, 0.000000000000000000, 1.000000000000000000 ) ) ;
#143 = AXIS2_PLACEMENT_3D ( 'NONE', #207, #308, #257 ) ;
#144 = COLOUR_RGB ( '',1.000000000000000000, 0.000000000000000000, 0.000000000000000000 ) ;
#145 = DIRECTION ( 'NONE',  ( 1.000000000000000000, 2.996036790656715962E-33, 0.000000000000000000 ) ) ;
#146 = CARTESIAN_POINT ( 'NONE',  ( 0.000000000000000000, 0.000000000000000000, 0.000000000000000000 ) ) ;
#147 = DIRECTION ( 'NONE',  ( 1.000000000000000000, 0.000000000000000000, 0.000000000000000000 ) ) ;
#148 = ORIENTED_EDGE ( 'NONE', *, *, #184, .F. ) ;
#149 = PRODUCT_DEFINITION_FORMATION_WITH_SPECIFIED_SOURCE ( 'ANY', '', #108, .NOT_KNOWN. ) ;
#150 = SURFACE_STYLE_FILL_AREA ( #56 ) ;
#151 = SURFACE_SIDE_STYLE ('',( #59 ) ) ;
#152 = ADVANCED_FACE ( 'NONE', ( #176 ), #240, .T. ) ;
#153 = DIRECTION ( 'NONE',  ( -1.000000000000000000, -1.221677243039647880E-16, 0.000000000000000000 ) ) ;
#154 = CARTESIAN_POINT ( 'NONE',  ( -6.123233995736763571E-17, 2.000000000000000000, 0.000000000000000000 ) ) ;
#155 = VERTEX_POINT ( 'NONE', #35 ) ;
#156 = COLOUR_RGB ( '',0.7921568627450980005, 0.8196078431372548767, 0.9333333333333333481 ) ;
#157 = STYLED_ITEM ( 'NONE', ( #246 ), #242 ) ;
#158 = DIRECTION ( 'NONE',  ( -2.996036790656716304E-33, 1.000000000000000000, 0.000000000000000000 ) ) ;
#159 = SURFACE_STYLE_USAGE ( .BOTH. , #64 ) ;
#160 = DIRECTION ( 'NONE',  ( -1.000000000000000000, -1.821231995776178930E-16, 0.000000000000000000 ) ) ;
#161 = FACE_OUTER_BOUND ( 'NONE', #45, .T. ) ;
#162 =( NAMED_UNIT ( * ) SI_UNIT ( $, .STERADIAN. ) SOLID_ANGLE_UNIT ( ) );
#163 = EDGE_LOOP ( 'NONE', ( #54, #238, #174, #268 ) ) ;
#164 = CARTESIAN_POINT ( 'NONE',  ( -6.123233995736763571E-17, 2.000000000000000000, 0.000000000000000000 ) ) ;
#165 = UNCERTAINTY_MEASURE_WITH_UNIT (LENGTH_MEASURE( 1.000000000000000082E-05 ), #63, 'distance_accuracy_value', 'NONE');
#166 = PLANE ( 'NONE',  #282 ) ;
#167 = LENGTH_MEASURE_WITH_UNIT ( LENGTH_MEASURE( 0.02539999999999999897 ), #33 );
#168 = DIMENSIONAL_EXPONENTS ( 1.000000000000000000, 0.000000000000000000, 0.000000000000000000, 0.000000000000000000, 0.000000000000000000, 0.000000000000000000, 0.000000000000000000 ) ;
#169 = MECHANICAL_DESIGN_GEOMETRIC_PRESENTATION_REPRESENTATION (  '', ( #24 ), #271 ) ;
#170 = AXIS2_PLACEMENT_3D ( 'NONE', #293, #83, #147 ) ;
#171 = VERTEX_POINT ( 'NONE', #105 ) ;
#172 = CARTESIAN_POINT ( 'NONE',  ( 1.122029556371074537E-67, -3.745045988320895273E-35, 0.000000000000000000 ) ) ;
#173 = CARTESIAN_POINT ( 'NONE',  ( -0.02500000000000000139, -1.498018395328358109E-34, 0.000000000000000000 ) ) ;
#174 = ORIENTED_EDGE ( 'NONE', *, *, #128, .F. ) ;
#175 = MECHANICAL_DESIGN_GEOMETRIC_PRESENTATION_REPRESENTATION (  '', ( #9 ), #104 ) ;
#176 = FACE_OUTER_BOUND ( 'NONE', #163, .T. ) ;
#177 = VERTEX_POINT ( 'NONE', #199 ) ;
#178 = CARTESIAN_POINT ( 'NONE',  ( 2.244059112742149073E-67, -7.490091976641790545E-35, 0.000000000000000000 ) ) ;
#179 = ADVANCED_FACE ( 'NONE', ( #216 ), #109, .T. ) ;
#180 = CARTESIAN_POINT ( 'NONE',  ( 1.734411286840929472E-16, 0.07908782799644412109, 0.000000000000000000 ) ) ;
#181 = DIRECTION ( 'NONE',  ( -1.221677243039647880E-16, 1.000000000000000000, -0.000000000000000000 ) ) ;
#182 = VERTEX_POINT ( 'NONE', #200 ) ;
#183 = FILL_AREA_STYLE ('',( #209 ) ) ;
#184 = EDGE_CURVE ( 'NONE', #133, #36, #123, .T. ) ;
#185 = DIRECTION ( 'NONE',  ( -1.000000000000000000, -2.996036790656715962E-33, 0.000000000000000000 ) ) ;
#186 = AXIS2_PLACEMENT_3D ( 'NONE', #300, #21, #185 ) ;
#187 =( NAMED_UNIT ( * ) PLANE_ANGLE_UNIT ( ) SI_UNIT ( $, .RADIAN. ) );
#188 = DIRECTION ( 'NONE',  ( 1.000000000000000000, 0.000000000000000000, 0.000000000000000000 ) ) ;
#189 = COLOUR_RGB ( '',1.000000000000000000, 0.000000000000000000, 0.000000000000000000 ) ;
#190 = APPLICATION_PROTOCOL_DEFINITION ( 'draft international standard', 'automotive_design', 1998, #39 ) ;
#191 = APPLICATION_PROTOCOL_DEFINITION ( 'draft international standard', 'automotive_design', 1998, #259 ) ;
#192 = MECHANICAL_DESIGN_GEOMETRIC_PRESENTATION_REPRESENTATION (  '', ( #262 ), #10 ) ;
#193 = LENGTH_MEASURE_WITH_UNIT ( LENGTH_MEASURE( 0.02539999999999999897 ), #40 );
#194 = EDGE_CURVE ( 'NONE', #171, #197, #290, .T. ) ;
#195 = DIRECTION ( 'NONE',  ( 2.996036790656716304E-33, -1.000000000000000000, -0.000000000000000000 ) ) ;
#196 = SURFACE_STYLE_USAGE ( .BOTH. , #151 ) ;
#197 = VERTEX_POINT ( 'NONE', #292 ) ;
#198 = DIRECTION ( 'NONE',  ( -1.221677243039647880E-16, 1.000000000000000000, -0.000000000000000000 ) ) ;
#199 = CARTESIAN_POINT ( 'NONE',  ( 0.09374999999999998612, 0.07908782799644427375, 1.148106374200643555E-17 ) ) ;
#200 = CARTESIAN_POINT ( 'NONE',  ( 0.09374999999999998612, 2.000000000000000000, 1.148106374200643555E-17 ) ) ;
#201 = DIRECTION ( 'NONE',  ( -1.221677243039647880E-16, 1.000000000000000000, -0.000000000000000000 ) ) ;
#202 = EDGE_LOOP ( 'NONE', ( #220, #11, #294, #287 ) ) ;
#203 = SURFACE_STYLE_FILL_AREA ( #27 ) ;
#204 = SURFACE_STYLE_FILL_AREA ( #278 ) ;
#205 =( CONVERSION_BASED_UNIT ( 'INCH', #115 ) LENGTH_UNIT ( ) NAMED_UNIT ( #260 ) );
#206 = AXIS2_PLACEMENT_3D ( 'NONE', #218, #234, #53 ) ;
#207 = CARTESIAN_POINT ( 'NONE',  ( -2.369500423704768587E-34, 0.07908782799644412109, 0.000000000000000000 ) ) ;
#208 = PRODUCT_DEFINITION_CONTEXT ( 'detailed design', #259, 'design' ) ;
#209 = FILL_AREA_STYLE_COLOUR ( '', #189 ) ;
#210 = LINE ( 'NONE', #26, #78 ) ;
#211 = PRODUCT_CONTEXT ( 'NONE', #39, 'mechanical' ) ;
#212 = DIRECTION ( 'NONE',  ( 1.000000000000000000, 2.996036790656715962E-33, 0.000000000000000000 ) ) ;
#213 = ORIENTED_EDGE ( 'NONE', *, *, #43, .T. ) ;
#214 = ORIENTED_EDGE ( 'NONE', *, *, #55, .F. ) ;
#215 = CONICAL_SURFACE ( 'NONE', #92, 0.02500000000000000139, 0.7155849933176767763 ) ;
#216 = FACE_OUTER_BOUND ( 'NONE', #42, .T. ) ;
#217 = ORIENTED_EDGE ( 'NONE', *, *, #16, .T. ) ;
#218 = CARTESIAN_POINT ( 'NONE',  ( -6.123233995736763571E-17, 2.000000000000000000, 0.000000000000000000 ) ) ;
#219 =( LENGTH_UNIT ( ) NAMED_UNIT ( * ) SI_UNIT ( $, .METRE. ) );
#220 = ORIENTED_EDGE ( 'NONE', *, *, #194, .F. ) ;
#221 = ORIENTED_EDGE ( 'NONE', *, *, #61, .F. ) ;
#222 =( LENGTH_UNIT ( ) NAMED_UNIT ( * ) SI_UNIT ( $, .METRE. ) );
#223 = FILL_AREA_STYLE_COLOUR ( '', #277 ) ;
#224 = AXIS2_PLACEMENT_3D ( 'NONE', #273, #181, #160 ) ;
#225 = EDGE_CURVE ( 'NONE', #197, #171, #79, .T. ) ;
#226 = CARTESIAN_POINT ( 'NONE',  ( -0.09374999999999998612, 0.07908782799644412109, 0.000000000000000000 ) ) ;
#227 =( NAMED_UNIT ( * ) SI_UNIT ( $, .STERADIAN. ) SOLID_ANGLE_UNIT ( ) );
#228 =( NAMED_UNIT ( * ) SI_UNIT ( $, .STERADIAN. ) SOLID_ANGLE_UNIT ( ) );
#229 = AXIS2_PLACEMENT_3D ( 'NONE', #180, #80, #153 ) ;
#230 = CARTESIAN_POINT ( 'NONE',  ( 2.244059112742149073E-67, -7.490091976641790545E-35, 0.000000000000000000 ) ) ;
#231 =( GEOMETRIC_REPRESENTATION_CONTEXT ( 3 ) GLOBAL_UNCERTAINTY_ASSIGNED_CONTEXT ( ( #74 ) ) GLOBAL_UNIT_ASSIGNED_CONTEXT ( ( #299, #248, #227 ) ) REPRESENTATION_CONTEXT ( 'NONE', 'WORKASPACE' ) );
#232 = COLOUR_RGB ( '',1.000000000000000000, 0.000000000000000000, 0.000000000000000000 ) ;
#233 = PRESENTATION_STYLE_ASSIGNMENT (( #127 ) ) ;
#234 = DIRECTION ( 'NONE',  ( -1.221677243039647880E-16, 1.000000000000000000, -0.000000000000000000 ) ) ;
#235 = ORIENTED_EDGE ( 'NONE', *, *, #225, .T. ) ;
#236 = EDGE_CURVE ( 'NONE', #197, #36, #270, .T. ) ;
#237 = CARTESIAN_POINT ( 'NONE',  ( -6.123233995736763571E-17, 2.000000000000000000, 0.000000000000000000 ) ) ;
#238 = ORIENTED_EDGE ( 'NONE', *, *, #61, .T. ) ;
#239 = PRESENTATION_LAYER_ASSIGNMENT (  '', '', ( #157 ) ) ;
#240 = CYLINDRICAL_SURFACE ( 'NONE', #244, 0.09374999999999994449 ) ;
#241 = CARTESIAN_POINT ( 'NONE',  ( -0.09375000000000001388, 2.000000000000000000, 0.000000000000000000 ) ) ;
#242 = ADVANCED_FACE ( 'NONE', ( #161 ), #113, .T. ) ;
#243 = FILL_AREA_STYLE_COLOUR ( '', #232 ) ;
#244 = AXIS2_PLACEMENT_3D ( 'NONE', #154, #198, #15 ) ;
#245 = MANIFOLD_SOLID_BREP ( 'Revolve - Tool Body (Tipped Off)', #84 ) ;
#246 = PRESENTATION_STYLE_ASSIGNMENT (( #87 ) ) ;
#247 = EDGE_LOOP ( 'NONE', ( #81, #148 ) ) ;
#248 =( NAMED_UNIT ( * ) PLANE_ANGLE_UNIT ( ) SI_UNIT ( $, .RADIAN. ) );
#249 = VERTEX_POINT ( 'NONE', #297 ) ;
#250 = DIMENSIONAL_EXPONENTS ( 1.000000000000000000, 0.000000000000000000, 0.000000000000000000, 0.000000000000000000, 0.000000000000000000, 0.000000000000000000, 0.000000000000000000 ) ;
#251 = EDGE_CURVE ( 'NONE', #171, #133, #304, .T. ) ;
#252 = EDGE_LOOP ( 'NONE', ( #116, #89 ) ) ;
#253 = DIMENSIONAL_EXPONENTS ( 1.000000000000000000, 0.000000000000000000, 0.000000000000000000, 0.000000000000000000, 0.000000000000000000, 0.000000000000000000, 0.000000000000000000 ) ;
#254 = PRESENTATION_LAYER_ASSIGNMENT (  '', '', ( #2 ) ) ;
#255 = DIRECTION ( 'NONE',  ( -2.996036790656715962E-33, 1.000000000000000000, 0.000000000000000000 ) ) ;
#256 = CIRCLE ( 'NONE', #224, 0.09374999999999981959 ) ;
#257 = DIRECTION ( 'NONE',  ( 1.000000000000000000, 0.000000000000000000, 0.000000000000000000 ) ) ;
#258 = SHAPE_DEFINITION_REPRESENTATION ( #14, #91 ) ;
#259 = APPLICATION_CONTEXT ( 'automotive_design' ) ;
#260 = DIMENSIONAL_EXPONENTS ( 1.000000000000000000, 0.000000000000000000, 0.000000000000000000, 0.000000000000000000, 0.000000000000000000, 0.000000000000000000, 0.000000000000000000 ) ;
#261 = AXIS2_PLACEMENT_3D ( 'NONE', #164, #303, #94 ) ;
#262 = STYLED_ITEM ( 'NONE', ( #132 ), #245 ) ;
#263 = LINE ( 'NONE', #241, #306 ) ;
#264 = DIRECTION ( 'NONE',  ( -1.221677243039647880E-16, 1.000000000000000000, -0.000000000000000000 ) ) ;
#265 = FILL_AREA_STYLE_COLOUR ( '', #51 ) ;
#266 = AXIS2_PLACEMENT_3D ( 'NONE', #178, #195, #76 ) ;
#267 = EDGE_CURVE ( 'NONE', #249, #177, #256, .T. ) ;
#268 = ORIENTED_EDGE ( 'NONE', *, *, #86, .F. ) ;
#269 = EDGE_LOOP ( 'NONE', ( #235, #77 ) ) ;
#270 = LINE ( 'NONE', #173, #284 ) ;
#271 =( GEOMETRIC_REPRESENTATION_CONTEXT ( 3 ) GLOBAL_UNCERTAINTY_ASSIGNED_CONTEXT ( ( #309 ) ) GLOBAL_UNIT_ASSIGNED_CONTEXT ( ( #97, #302, #65 ) ) REPRESENTATION_CONTEXT ( 'NONE', 'WORKASPACE' ) );
#272 = MECHANICAL_DESIGN_GEOMETRIC_PRESENTATION_REPRESENTATION (  '', ( #126 ), #140 ) ;
#273 = CARTESIAN_POINT ( 'NONE',  ( 1.734411286840929472E-16, 0.07908782799644425987, 0.000000000000000000 ) ) ;
#274 = FACE_OUTER_BOUND ( 'NONE', #102, .T. ) ;
#275 = SURFACE_STYLE_FILL_AREA ( #183 ) ;
#276 = FACE_OUTER_BOUND ( 'NONE', #247, .T. ) ;
#277 = COLOUR_RGB ( '',0.7921568627450980005, 0.8196078431372548767, 0.9333333333333333481 ) ;
#278 = FILL_AREA_STYLE ('',( #60 ) ) ;
#279 = DIRECTION ( 'NONE',  ( -1.221677243039647880E-16, 1.000000000000000000, -0.000000000000000000 ) ) ;
#280 = PRESENTATION_LAYER_ASSIGNMENT (  '', '', ( #9 ) ) ;
#281 =( LENGTH_UNIT ( ) NAMED_UNIT ( * ) SI_UNIT ( $, .METRE. ) );
#282 = AXIS2_PLACEMENT_3D ( 'NONE', #172, #1, #145 ) ;
#283 = AXIS2_PLACEMENT_3D ( 'NONE', #120, #279, #69 ) ;
#284 = VECTOR ( 'NONE', #119, 39.37007874015748854 ) ;
#285 = CARTESIAN_POINT ( 'NONE',  ( 0.09374999999999998612, 0.07908782799644412109, 1.148106374200643401E-17 ) ) ;
#286 = PRESENTATION_STYLE_ASSIGNMENT (( #196 ) ) ;
#287 = ORIENTED_EDGE ( 'NONE', *, *, #236, .F. ) ;
#288 = AXIS2_PLACEMENT_3D ( 'NONE', #121, #124, #125 ) ;
#289 = ADVANCED_FACE ( 'NONE', ( #276 ), #134, .T. ) ;
#290 = CIRCLE ( 'NONE', #38, 0.02500000000000000139 ) ;
#291 = SURFACE_SIDE_STYLE ('',( #150 ) ) ;
#292 = CARTESIAN_POINT ( 'NONE',  ( -0.02500000000000000139, -1.498018395328358109E-34, 0.000000000000000000 ) ) ;
#293 = CARTESIAN_POINT ( 'NONE',  ( -2.369500423704768587E-34, 0.07908782799644412109, 0.000000000000000000 ) ) ;
#294 = ORIENTED_EDGE ( 'NONE', *, *, #184, .T. ) ;
#295 = CIRCLE ( 'NONE', #283, 0.09374999999999981959 ) ;
#296 = UNCERTAINTY_MEASURE_WITH_UNIT (LENGTH_MEASURE( 1.000000000000000082E-05 ), #50, 'distance_accuracy_value', 'NONE');
#297 = CARTESIAN_POINT ( 'NONE',  ( -0.09374999999999965306, 0.07908782799644424599, 0.000000000000000000 ) ) ;
#298 = DIRECTION ( 'NONE',  ( 0.6560590289905084971, 0.7547095802227710148, 8.034405899049468590E-17 ) ) ;
#299 =( CONVERSION_BASED_UNIT ( 'INCH', #66 ) LENGTH_UNIT ( ) NAMED_UNIT ( #46 ) );
#300 = CARTESIAN_POINT ( 'NONE',  ( 2.244059112742149073E-67, -7.490091976641790545E-35, 0.000000000000000000 ) ) ;
#301 = CLOSED_SHELL ( 'NONE', ( #106, #289, #242, #67 ) ) ;
#302 =( NAMED_UNIT ( * ) PLANE_ANGLE_UNIT ( ) SI_UNIT ( $, .RADIAN. ) );
#303 = DIRECTION ( 'NONE',  ( -1.221677243039647880E-16, 1.000000000000000000, -0.000000000000000000 ) ) ;
#304 = LINE ( 'NONE', #95, #57 ) ;
#305 =( CONVERSION_BASED_UNIT ( 'INCH', #141 ) LENGTH_UNIT ( ) NAMED_UNIT ( #22 ) );
#306 = VECTOR ( 'NONE', #264, 39.37007874015748143 ) ;
#307 = DIRECTION ( 'NONE',  ( -1.221677243039647880E-16, 1.000000000000000000, -0.000000000000000000 ) ) ;
#308 = DIRECTION ( 'NONE',  ( 2.996036790656716304E-33, -1.000000000000000000, -0.000000000000000000 ) ) ;
#309 = UNCERTAINTY_MEASURE_WITH_UNIT (LENGTH_MEASURE( 1.000000000000000082E-05 ), #97, 'distance_accuracy_value', 'NONE');
ENDSEC;
END-ISO-10303-21;
