ISO-10303-21;
HEADER;
FILE_DESCRIPTION (( 'STEP AP214' ),
    '1' );
FILE_NAME ('84766.STEP',
    '2023-06-30T23:51:45',
    ( '' ),
    ( '' ),
    'SwSTEP 2.0',
    'SolidWorks 2023',
    '' );
FILE_SCHEMA (( 'AUTOMOTIVE_DESIGN' ));
ENDSEC;

DATA;
#1 = COLOUR_RGB ( '',0.7921568627450980005, 0.8196078431372548767, 0.9333333333333333481 ) ;
#2 = VECTOR ( 'NONE', #250, 39.37007874015748143 ) ;
#3 = VERTEX_POINT ( 'NONE', #296 ) ;
#4 = PRESENTATION_STYLE_ASSIGNMENT (( #95 ) ) ;
#5 = EDGE_LOOP ( 'NONE', ( #89, #233, #353, #260 ) ) ;
#6 = EDGE_LOOP ( 'NONE', ( #294, #201, #287, #346, #176 ) ) ;
#7 = PRODUCT_DEFINITION_CONTEXT ( 'detailed design', #336, 'design' ) ;
#8 = CIRCLE ( 'NONE', #46, 0.2500000000000000000 ) ;
#9 = ORIENTED_EDGE ( 'NONE', *, *, #255, .F. ) ;
#10 = EDGE_LOOP ( 'NONE', ( #120, #92, #9, #155, #34 ) ) ;
#11 =( NAMED_UNIT ( * ) SI_UNIT ( $, .STERADIAN. ) SOLID_ANGLE_UNIT ( ) );
#12 = SURFACE_STYLE_USAGE ( .BOTH. , #271 ) ;
#13 = CARTESIAN_POINT ( 'NONE',  ( 3.061616997868379936E-17, 2.500000000000000000, 0.2499999999999996947 ) ) ;
#14 = AXIS2_PLACEMENT_3D ( 'NONE', #252, #253, #344 ) ;
#15 = CIRCLE ( 'NONE', #125, 0.2500000000000000000 ) ;
#16 = DIMENSIONAL_EXPONENTS ( 1.000000000000000000, 0.000000000000000000, 0.000000000000000000, 0.000000000000000000, 0.000000000000000000, 0.000000000000000000, 0.000000000000000000 ) ;
#17 =( LENGTH_UNIT ( ) NAMED_UNIT ( * ) SI_UNIT ( $, .METRE. ) );
#18 = EDGE_CURVE ( 'NONE', #268, #60, #205, .T. ) ;
#19 = CARTESIAN_POINT ( 'NONE',  ( 0.000000000000000000, 0.2500000000000000000, -0.2500000000000000000 ) ) ;
#20 = DIMENSIONAL_EXPONENTS ( 1.000000000000000000, 0.000000000000000000, 0.000000000000000000, 0.000000000000000000, 0.000000000000000000, 0.000000000000000000, 0.000000000000000000 ) ;
#21 = DIRECTION ( 'NONE',  ( -1.223475599646961589E-16, 1.000000000000000000, -0.000000000000000000 ) ) ;
#22 = AXIS2_PLACEMENT_3D ( 'NONE', #226, #293, #315 ) ;
#23 = FILL_AREA_STYLE ('',( #337 ) ) ;
#24 = CARTESIAN_POINT ( 'NONE',  ( 0.000000000000000000, 2.500000000000000000, 0.000000000000000000 ) ) ;
#25 =( NAMED_UNIT ( * ) PLANE_ANGLE_UNIT ( ) SI_UNIT ( $, .RADIAN. ) );
#26 = FILL_AREA_STYLE_COLOUR ( '', #224 ) ;
#27 = FILL_AREA_STYLE_COLOUR ( '', #77 ) ;
#28 = UNCERTAINTY_MEASURE_WITH_UNIT (LENGTH_MEASURE( 1.000000000000000082E-05 ), #105, 'distance_accuracy_value', 'NONE');
#29 = ORIENTED_EDGE ( 'NONE', *, *, #199, .T. ) ;
#30 = PRESENTATION_LAYER_ASSIGNMENT (  '', '', ( #279 ) ) ;
#31 = AXIS2_PLACEMENT_3D ( 'NONE', #24, #48, #54 ) ;
#32 = DIRECTION ( 'NONE',  ( 1.000000000000000000, 0.000000000000000000, -1.224646799147353207E-16 ) ) ;
#33 = PRODUCT ( '84766', '84766', '', ( #116 ) ) ;
#34 = ORIENTED_EDGE ( 'NONE', *, *, #367, .F. ) ;
#35 = FILL_AREA_STYLE ('',( #26 ) ) ;
#36 = VERTEX_POINT ( 'NONE', #178 ) ;
#37 = SURFACE_STYLE_USAGE ( .BOTH. , #177 ) ;
#38 = EDGE_LOOP ( 'NONE', ( #204, #196 ) ) ;
#39 = CIRCLE ( 'NONE', #179, 0.2499999999999995559 ) ;
#40 = EDGE_CURVE ( 'NONE', #150, #268, #39, .T. ) ;
#41 =( NAMED_UNIT ( * ) PLANE_ANGLE_UNIT ( ) SI_UNIT ( $, .RADIAN. ) );
#42 = LINE ( 'NONE', #76, #68 ) ;
#43 = LENGTH_MEASURE_WITH_UNIT ( LENGTH_MEASURE( 0.02539999999999999897 ), #180 );
#44 = ADVANCED_FACE ( 'NONE', ( #172 ), #318, .T. ) ;
#45 = FILL_AREA_STYLE_COLOUR ( '', #213 ) ;
#46 = AXIS2_PLACEMENT_3D ( 'NONE', #163, #132, #106 ) ;
#47 = FACE_OUTER_BOUND ( 'NONE', #38, .T. ) ;
#48 = DIRECTION ( 'NONE',  ( -0.000000000000000000, -1.000000000000000000, -0.000000000000000000 ) ) ;
#49 = PRESENTATION_STYLE_ASSIGNMENT (( #209 ) ) ;
#50 =( CONVERSION_BASED_UNIT ( 'INCH', #372 ) LENGTH_UNIT ( ) NAMED_UNIT ( #114 ) );
#51 = AXIS2_PLACEMENT_3D ( 'NONE', #371, #277, #137 ) ;
#52 = DIMENSIONAL_EXPONENTS ( 1.000000000000000000, 0.000000000000000000, 0.000000000000000000, 0.000000000000000000, 0.000000000000000000, 0.000000000000000000, 0.000000000000000000 ) ;
#53 = DIRECTION ( 'NONE',  ( 0.000000000000000000, 0.000000000000000000, -1.000000000000000000 ) ) ;
#54 = DIRECTION ( 'NONE',  ( 0.000000000000000000, 0.000000000000000000, -1.000000000000000000 ) ) ;
#55 = PRESENTATION_STYLE_ASSIGNMENT (( #80 ) ) ;
#56 = CARTESIAN_POINT ( 'NONE',  ( 0.000000000000000000, 0.000000000000000000, 0.000000000000000000 ) ) ;
#57 = PRESENTATION_LAYER_ASSIGNMENT (  '', '', ( #168 ) ) ;
#58 =( GEOMETRIC_REPRESENTATION_CONTEXT ( 3 ) GLOBAL_UNCERTAINTY_ASSIGNED_CONTEXT ( ( #267 ) ) GLOBAL_UNIT_ASSIGNED_CONTEXT ( ( #85, #219, #308 ) ) REPRESENTATION_CONTEXT ( 'NONE', 'WORKASPACE' ) );
#59 = CIRCLE ( 'NONE', #153, 0.2499999999999995559 ) ;
#60 = VERTEX_POINT ( 'NONE', #328 ) ;
#61 = AXIS2_PLACEMENT_3D ( 'NONE', #194, #314, #32 ) ;
#62 = AXIS2_PLACEMENT_3D ( 'NONE', #363, #74, #110 ) ;
#63 = ORIENTED_EDGE ( 'NONE', *, *, #40, .F. ) ;
#64 = ORIENTED_EDGE ( 'NONE', *, *, #104, .T. ) ;
#65 =( NAMED_UNIT ( * ) SI_UNIT ( $, .STERADIAN. ) SOLID_ANGLE_UNIT ( ) );
#66 = CARTESIAN_POINT ( 'NONE',  ( 0.2499999999999995559, 5.000000000000000000, 3.061616997868379320E-17 ) ) ;
#67 = EDGE_CURVE ( 'NONE', #36, #225, #364, .T. ) ;
#68 = VECTOR ( 'NONE', #212, 39.37007874015748143 ) ;
#69 =( GEOMETRIC_REPRESENTATION_CONTEXT ( 3 ) GLOBAL_UNCERTAINTY_ASSIGNED_CONTEXT ( ( #373 ) ) GLOBAL_UNIT_ASSIGNED_CONTEXT ( ( #142, #200, #289 ) ) REPRESENTATION_CONTEXT ( 'NONE', 'WORKASPACE' ) );
#70 = PLANE ( 'NONE',  #256 ) ;
#71 = DIRECTION ( 'NONE',  ( 0.000000000000000000, 0.000000000000000000, -1.000000000000000000 ) ) ;
#72 = CARTESIAN_POINT ( 'NONE',  ( 0.000000000000000000, 2.500000000000000000, 0.000000000000000000 ) ) ;
#73 = EDGE_CURVE ( 'NONE', #145, #3, #42, .T. ) ;
#74 = DIRECTION ( 'NONE',  ( -0.000000000000000000, -1.000000000000000000, -0.000000000000000000 ) ) ;
#75 = SURFACE_SIDE_STYLE ('',( #297 ) ) ;
#76 = CARTESIAN_POINT ( 'NONE',  ( 3.061616997868381785E-17, 0.000000000000000000, 0.2499999999999998612 ) ) ;
#77 = COLOUR_RGB ( '',1.000000000000000000, 0.000000000000000000, 0.000000000000000000 ) ;
#78 = DIRECTION ( 'NONE',  ( 0.000000000000000000, 0.000000000000000000, -1.000000000000000000 ) ) ;
#79 = SURFACE_SIDE_STYLE ('',( #214 ) ) ;
#80 = SURFACE_STYLE_USAGE ( .BOTH. , #135 ) ;
#81 = COLOUR_RGB ( '',1.000000000000000000, 0.000000000000000000, 0.000000000000000000 ) ;
#82 = LINE ( 'NONE', #306, #2 ) ;
#83 = EDGE_CURVE ( 'NONE', #123, #350, #273, .T. ) ;
#84 = FACE_OUTER_BOUND ( 'NONE', #127, .T. ) ;
#85 =( CONVERSION_BASED_UNIT ( 'INCH', #310 ) LENGTH_UNIT ( ) NAMED_UNIT ( #20 ) );
#86 = CIRCLE ( 'NONE', #320, 0.2499999999999998612 ) ;
#87 = CIRCLE ( 'NONE', #94, 0.2499999999999996947 ) ;
#88 = DIRECTION ( 'NONE',  ( -1.223475599646961589E-16, 1.000000000000000000, -0.000000000000000000 ) ) ;
#89 = ORIENTED_EDGE ( 'NONE', *, *, #40, .T. ) ;
#90 = PRODUCT_DEFINITION ( 'UNKNOWN', '', #321, #7 ) ;
#91 = CARTESIAN_POINT ( 'NONE',  ( 1.221718800396374531E-16, 2.500000000000000000, 0.000000000000000000 ) ) ;
#92 = ORIENTED_EDGE ( 'NONE', *, *, #73, .T. ) ;
#93 = COLOUR_RGB ( '',1.000000000000000000, 0.000000000000000000, 0.000000000000000000 ) ;
#94 = AXIS2_PLACEMENT_3D ( 'NONE', #234, #184, #78 ) ;
#95 = SURFACE_STYLE_USAGE ( .BOTH. , #122 ) ;
#96 = ORIENTED_EDGE ( 'NONE', *, *, #67, .T. ) ;
#97 = CARTESIAN_POINT ( 'NONE',  ( -3.061616997868383018E-17, 0.2500000000000000000, 0.000000000000000000 ) ) ;
#98 = ORIENTED_EDGE ( 'NONE', *, *, #174, .F. ) ;
#99 = CARTESIAN_POINT ( 'NONE',  ( 0.000000000000000000, 0.2500000000000000000, 0.000000000000000000 ) ) ;
#100 =( CONVERSION_BASED_UNIT ( 'INCH', #354 ) LENGTH_UNIT ( ) NAMED_UNIT ( #52 ) );
#101 = MECHANICAL_DESIGN_GEOMETRIC_PRESENTATION_REPRESENTATION (  '', ( #124 ), #339 ) ;
#102 = AXIS2_PLACEMENT_3D ( 'NONE', #190, #245, #343 ) ;
#103 = CARTESIAN_POINT ( 'NONE',  ( 1.221718800396374531E-16, 2.500000000000000000, 0.000000000000000000 ) ) ;
#104 = EDGE_CURVE ( 'NONE', #228, #60, #86, .T. ) ;
#105 =( CONVERSION_BASED_UNIT ( 'INCH', #269 ) LENGTH_UNIT ( ) NAMED_UNIT ( #192 ) );
#106 = DIRECTION ( 'NONE',  ( 0.000000000000000000, 0.000000000000000000, -1.000000000000000000 ) ) ;
#107 = ADVANCED_BREP_SHAPE_REPRESENTATION ( '84766', ( #288, #157, #102 ), #313 ) ;
#108 = DIRECTION ( 'NONE',  ( -1.223475599646961589E-16, 1.000000000000000000, -0.000000000000000000 ) ) ;
#109 = CARTESIAN_POINT ( 'NONE',  ( -1.836970198721029688E-16, 5.000000000000000000, 0.000000000000000000 ) ) ;
#110 = DIRECTION ( 'NONE',  ( 0.000000000000000000, 0.000000000000000000, -1.000000000000000000 ) ) ;
#111 = FILL_AREA_STYLE_COLOUR ( '', #93 ) ;
#112 = EDGE_CURVE ( 'NONE', #3, #36, #8, .T. ) ;
#113 = SHAPE_DEFINITION_REPRESENTATION ( #140, #107 ) ;
#114 = DIMENSIONAL_EXPONENTS ( 1.000000000000000000, 0.000000000000000000, 0.000000000000000000, 0.000000000000000000, 0.000000000000000000, 0.000000000000000000, 0.000000000000000000 ) ;
#115 = VECTOR ( 'NONE', #152, 39.37007874015748143 ) ;
#116 = PRODUCT_CONTEXT ( 'NONE', #248, 'mechanical' ) ;
#117 = DIRECTION ( 'NONE',  ( 0.000000000000000000, 0.000000000000000000, 1.000000000000000000 ) ) ;
#118 =( GEOMETRIC_REPRESENTATION_CONTEXT ( 3 ) GLOBAL_UNCERTAINTY_ASSIGNED_CONTEXT ( ( #223 ) ) GLOBAL_UNIT_ASSIGNED_CONTEXT ( ( #195, #203, #65 ) ) REPRESENTATION_CONTEXT ( 'NONE', 'WORKASPACE' ) );
#119 = SPHERICAL_SURFACE ( 'NONE', #22, 0.2500000000000000000 ) ;
#120 = ORIENTED_EDGE ( 'NONE', *, *, #362, .T. ) ;
#121 = ORIENTED_EDGE ( 'NONE', *, *, #324, .F. ) ;
#122 = SURFACE_SIDE_STYLE ('',( #232 ) ) ;
#123 = VERTEX_POINT ( 'NONE', #304 ) ;
#124 = STYLED_ITEM ( 'NONE', ( #49 ), #143 ) ;
#125 = AXIS2_PLACEMENT_3D ( 'NONE', #327, #237, #300 ) ;
#126 = EDGE_LOOP ( 'NONE', ( #63, #230 ) ) ;
#127 = EDGE_LOOP ( 'NONE', ( #64, #292 ) ) ;
#128 = PRESENTATION_LAYER_ASSIGNMENT (  '', '', ( #312 ) ) ;
#129 =( GEOMETRIC_REPRESENTATION_CONTEXT ( 3 ) GLOBAL_UNCERTAINTY_ASSIGNED_CONTEXT ( ( #28 ) ) GLOBAL_UNIT_ASSIGNED_CONTEXT ( ( #105, #303, #11 ) ) REPRESENTATION_CONTEXT ( 'NONE', 'WORKASPACE' ) );
#130 = CARTESIAN_POINT ( 'NONE',  ( -0.2499999999999994171, 2.500000000000000000, 0.000000000000000000 ) ) ;
#131 = FILL_AREA_STYLE ('',( #156 ) ) ;
#132 = DIRECTION ( 'NONE',  ( -0.000000000000000000, -1.000000000000000000, -0.000000000000000000 ) ) ;
#133 = DIMENSIONAL_EXPONENTS ( 1.000000000000000000, 0.000000000000000000, 0.000000000000000000, 0.000000000000000000, 0.000000000000000000, 0.000000000000000000, 0.000000000000000000 ) ;
#134 = ADVANCED_FACE ( 'NONE', ( #332 ), #70, .F. ) ;
#135 = SURFACE_SIDE_STYLE ('',( #338 ) ) ;
#136 = DIMENSIONAL_EXPONENTS ( 1.000000000000000000, 0.000000000000000000, 0.000000000000000000, 0.000000000000000000, 0.000000000000000000, 0.000000000000000000, 0.000000000000000000 ) ;
#137 = DIRECTION ( 'NONE',  ( -1.000000000000000000, 0.000000000000000000, 0.000000000000000000 ) ) ;
#138 = FACE_OUTER_BOUND ( 'NONE', #348, .T. ) ;
#139 = STYLED_ITEM ( 'NONE', ( #55 ), #151 ) ;
#140 = PRODUCT_DEFINITION_SHAPE ( 'NONE', 'NONE',  #90 ) ;
#141 =( NAMED_UNIT ( * ) SI_UNIT ( $, .STERADIAN. ) SOLID_ANGLE_UNIT ( ) );
#142 =( CONVERSION_BASED_UNIT ( 'INCH', #261 ) LENGTH_UNIT ( ) NAMED_UNIT ( #241 ) );
#143 = ADVANCED_FACE ( 'NONE', ( #47 ), #330, .T. ) ;
#144 = CYLINDRICAL_SURFACE ( 'NONE', #62, 0.2499999999999998612 ) ;
#145 = VERTEX_POINT ( 'NONE', #13 ) ;
#146 = PRESENTATION_LAYER_ASSIGNMENT (  '', '', ( #257 ) ) ;
#147 =( LENGTH_UNIT ( ) NAMED_UNIT ( * ) SI_UNIT ( $, .METRE. ) );
#148 = ORIENTED_EDGE ( 'NONE', *, *, #174, .T. ) ;
#149 = PRESENTATION_STYLE_ASSIGNMENT (( #37 ) ) ;
#150 = VERTEX_POINT ( 'NONE', #130 ) ;
#151 = ADVANCED_FACE ( 'NONE', ( #238 ), #185, .T. ) ;
#152 = DIRECTION ( 'NONE',  ( -1.223475599646961589E-16, 1.000000000000000000, -0.000000000000000000 ) ) ;
#153 = AXIS2_PLACEMENT_3D ( 'NONE', #331, #161, #274 ) ;
#154 = SURFACE_STYLE_USAGE ( .BOTH. , #75 ) ;
#155 = ORIENTED_EDGE ( 'NONE', *, *, #221, .F. ) ;
#156 = FILL_AREA_STYLE_COLOUR ( '', #280 ) ;
#157 = MANIFOLD_SOLID_BREP ( 'Revolve - Tool Body (Straight Shanked)', #217 ) ;
#158 = PRESENTATION_STYLE_ASSIGNMENT (( #154 ) ) ;
#159 = CARTESIAN_POINT ( 'NONE',  ( -3.061616997868383018E-17, 0.2500000000000000000, 0.000000000000000000 ) ) ;
#160 = CLOSED_SHELL ( 'NONE', ( #187, #151, #143, #211, #181 ) ) ;
#161 = DIRECTION ( 'NONE',  ( -1.223475599646961589E-16, 1.000000000000000000, -0.000000000000000000 ) ) ;
#162 = DIRECTION ( 'NONE',  ( -1.000000000000000000, 0.000000000000000000, 0.000000000000000000 ) ) ;
#163 = CARTESIAN_POINT ( 'NONE',  ( 0.000000000000000000, 0.2500000000000000000, 0.000000000000000000 ) ) ;
#164 =( NAMED_UNIT ( * ) SI_UNIT ( $, .STERADIAN. ) SOLID_ANGLE_UNIT ( ) );
#165 = AXIS2_PLACEMENT_3D ( 'NONE', #56, #216, #53 ) ;
#166 = PRESENTATION_STYLE_ASSIGNMENT (( #247 ) ) ;
#167 =( LENGTH_UNIT ( ) NAMED_UNIT ( * ) SI_UNIT ( $, .METRE. ) );
#168 = STYLED_ITEM ( 'NONE', ( #166 ), #157 ) ;
#169 = ADVANCED_FACE ( 'NONE', ( #84 ), #309, .F. ) ;
#170 = ORIENTED_EDGE ( 'NONE', *, *, #83, .T. ) ;
#171 = FILL_AREA_STYLE ('',( #197 ) ) ;
#172 = FACE_OUTER_BOUND ( 'NONE', #5, .T. ) ;
#173 = PRESENTATION_LAYER_ASSIGNMENT (  '', '', ( #139 ) ) ;
#174 = EDGE_CURVE ( 'NONE', #36, #350, #231, .T. ) ;
#175 = ORIENTED_EDGE ( 'NONE', *, *, #18, .F. ) ;
#176 = ORIENTED_EDGE ( 'NONE', *, *, #112, .F. ) ;
#177 = SURFACE_SIDE_STYLE ('',( #347 ) ) ;
#178 = CARTESIAN_POINT ( 'NONE',  ( -0.2500000000000000000, 0.2500000000000000000, 3.061616997868382402E-17 ) ) ;
#179 = AXIS2_PLACEMENT_3D ( 'NONE', #91, #298, #198 ) ;
#180 =( LENGTH_UNIT ( ) NAMED_UNIT ( * ) SI_UNIT ( $, .METRE. ) );
#181 = ADVANCED_FACE ( 'NONE', ( #323 ), #119, .T. ) ;
#182 = DIRECTION ( 'NONE',  ( -0.000000000000000000, -1.000000000000000000, -0.000000000000000000 ) ) ;
#183 = DIRECTION ( 'NONE',  ( 0.000000000000000000, 1.000000000000000000, 0.000000000000000000 ) ) ;
#184 = DIRECTION ( 'NONE',  ( -0.000000000000000000, -1.000000000000000000, -0.000000000000000000 ) ) ;
#185 = CYLINDRICAL_SURFACE ( 'NONE', #165, 0.2499999999999998612 ) ;
#186 = AXIS2_PLACEMENT_3D ( 'NONE', #99, #182, #71 ) ;
#187 = ADVANCED_FACE ( 'NONE', ( #229 ), #317, .T. ) ;
#188 = DIRECTION ( 'NONE',  ( -1.000000000000000000, 0.000000000000000000, 0.000000000000000000 ) ) ;
#189 = DIRECTION ( 'NONE',  ( -1.000000000000000000, -1.223475599646961589E-16, 0.000000000000000000 ) ) ;
#190 = CARTESIAN_POINT ( 'NONE',  ( 0.000000000000000000, 0.000000000000000000, 0.000000000000000000 ) ) ;
#191 =( LENGTH_UNIT ( ) NAMED_UNIT ( * ) SI_UNIT ( $, .METRE. ) );
#192 = DIMENSIONAL_EXPONENTS ( 1.000000000000000000, 0.000000000000000000, 0.000000000000000000, 0.000000000000000000, 0.000000000000000000, 0.000000000000000000, 0.000000000000000000 ) ;
#193 =( CONVERSION_BASED_UNIT ( 'INCH', #244 ) LENGTH_UNIT ( ) NAMED_UNIT ( #16 ) );
#194 = CARTESIAN_POINT ( 'NONE',  ( -3.061616997868383018E-17, 0.2500000000000000000, 0.000000000000000000 ) ) ;
#195 =( CONVERSION_BASED_UNIT ( 'INCH', #259 ) LENGTH_UNIT ( ) NAMED_UNIT ( #133 ) );
#196 = ORIENTED_EDGE ( 'NONE', *, *, #282, .F. ) ;
#197 = FILL_AREA_STYLE_COLOUR ( '', #81 ) ;
#198 = DIRECTION ( 'NONE',  ( -1.000000000000000000, 0.000000000000000000, 0.000000000000000000 ) ) ;
#199 = EDGE_CURVE ( 'NONE', #150, #228, #319, .T. ) ;
#200 =( NAMED_UNIT ( * ) PLANE_ANGLE_UNIT ( ) SI_UNIT ( $, .RADIAN. ) );
#201 = ORIENTED_EDGE ( 'NONE', *, *, #282, .T. ) ;
#202 = AXIS2_PLACEMENT_3D ( 'NONE', #361, #335, #235 ) ;
#203 =( NAMED_UNIT ( * ) PLANE_ANGLE_UNIT ( ) SI_UNIT ( $, .RADIAN. ) );
#204 = ORIENTED_EDGE ( 'NONE', *, *, #362, .F. ) ;
#205 = LINE ( 'NONE', #66, #115 ) ;
#206 = PRESENTATION_STYLE_ASSIGNMENT (( #12 ) ) ;
#207 = CARTESIAN_POINT ( 'NONE',  ( -1.836970198721029688E-16, 5.000000000000000000, 0.000000000000000000 ) ) ;
#208 = PRESENTATION_LAYER_ASSIGNMENT (  '', '', ( #218 ) ) ;
#209 = SURFACE_STYLE_USAGE ( .BOTH. , #79 ) ;
#210 = FILL_AREA_STYLE ('',( #111 ) ) ;
#211 = ADVANCED_FACE ( 'NONE', ( #286 ), #144, .T. ) ;
#212 = DIRECTION ( 'NONE',  ( -0.000000000000000000, -1.000000000000000000, -0.000000000000000000 ) ) ;
#213 = COLOUR_RGB ( '',1.000000000000000000, 0.000000000000000000, 0.000000000000000000 ) ;
#214 = SURFACE_STYLE_FILL_AREA ( #210 ) ;
#215 = APPLICATION_PROTOCOL_DEFINITION ( 'draft international standard', 'automotive_design', 1998, #248 ) ;
#216 = DIRECTION ( 'NONE',  ( -0.000000000000000000, -1.000000000000000000, -0.000000000000000000 ) ) ;
#217 = CLOSED_SHELL ( 'NONE', ( #44, #134, #358, #169 ) ) ;
#218 = STYLED_ITEM ( 'NONE', ( #206 ), #211 ) ;
#219 =( NAMED_UNIT ( * ) PLANE_ANGLE_UNIT ( ) SI_UNIT ( $, .RADIAN. ) );
#220 = UNCERTAINTY_MEASURE_WITH_UNIT (LENGTH_MEASURE( 1.000000000000000082E-05 ), #100, 'distance_accuracy_value', 'NONE');
#221 = EDGE_CURVE ( 'NONE', #225, #123, #370, .T. ) ;
#222 = DIRECTION ( 'NONE',  ( 1.000000000000000000, 0.000000000000000000, 0.000000000000000000 ) ) ;
#223 = UNCERTAINTY_MEASURE_WITH_UNIT (LENGTH_MEASURE( 1.000000000000000082E-05 ), #195, 'distance_accuracy_value', 'NONE');
#224 = COLOUR_RGB ( '',1.000000000000000000, 0.000000000000000000, 0.000000000000000000 ) ;
#225 = VERTEX_POINT ( 'NONE', #19 ) ;
#226 = CARTESIAN_POINT ( 'NONE',  ( -3.061616997868383018E-17, 0.2500000000000000000, 0.000000000000000000 ) ) ;
#227 = UNCERTAINTY_MEASURE_WITH_UNIT (LENGTH_MEASURE( 1.000000000000000082E-05 ), #266, 'distance_accuracy_value', 'NONE');
#228 = VERTEX_POINT ( 'NONE', #355 ) ;
#229 = FACE_OUTER_BOUND ( 'NONE', #352, .T. ) ;
#230 = ORIENTED_EDGE ( 'NONE', *, *, #301, .F. ) ;
#231 = CIRCLE ( 'NONE', #61, 0.2500000000000000000 ) ;
#232 = SURFACE_STYLE_FILL_AREA ( #295 ) ;
#233 = ORIENTED_EDGE ( 'NONE', *, *, #18, .T. ) ;
#234 = CARTESIAN_POINT ( 'NONE',  ( 0.000000000000000000, 2.500000000000000000, 0.000000000000000000 ) ) ;
#235 = DIRECTION ( 'NONE',  ( 0.000000000000000000, 0.000000000000000000, -1.000000000000000000 ) ) ;
#236 = MECHANICAL_DESIGN_GEOMETRIC_PRESENTATION_REPRESENTATION (  '', ( #257 ), #129 ) ;
#237 = DIRECTION ( 'NONE',  ( -0.000000000000000000, -1.000000000000000000, -0.000000000000000000 ) ) ;
#238 = FACE_OUTER_BOUND ( 'NONE', #10, .T. ) ;
#239 = CARTESIAN_POINT ( 'NONE',  ( 0.000000000000000000, 2.500000000000000000, -0.2499999999999996947 ) ) ;
#240 = DIRECTION ( 'NONE',  ( -1.223475599646961589E-16, 1.000000000000000000, -0.000000000000000000 ) ) ;
#241 = DIMENSIONAL_EXPONENTS ( 1.000000000000000000, 0.000000000000000000, 0.000000000000000000, 0.000000000000000000, 0.000000000000000000, 0.000000000000000000, 0.000000000000000000 ) ;
#242 =( NAMED_UNIT ( * ) SI_UNIT ( $, .STERADIAN. ) SOLID_ANGLE_UNIT ( ) );
#243 =( GEOMETRIC_REPRESENTATION_CONTEXT ( 3 ) GLOBAL_UNCERTAINTY_ASSIGNED_CONTEXT ( ( #345 ) ) GLOBAL_UNIT_ASSIGNED_CONTEXT ( ( #50, #25, #141 ) ) REPRESENTATION_CONTEXT ( 'NONE', 'WORKASPACE' ) );
#244 = LENGTH_MEASURE_WITH_UNIT ( LENGTH_MEASURE( 0.02539999999999999897 ), #368 );
#245 = DIRECTION ( 'NONE',  ( 0.000000000000000000, 0.000000000000000000, 1.000000000000000000 ) ) ;
#246 = PRODUCT_RELATED_PRODUCT_CATEGORY ( 'part', '', ( #33 ) ) ;
#247 = SURFACE_STYLE_USAGE ( .BOTH. , #284 ) ;
#248 = APPLICATION_CONTEXT ( 'automotive_design' ) ;
#249 = CARTESIAN_POINT ( 'NONE',  ( -1.530808498934191509E-17, 0.000000000000000000, 0.000000000000000000 ) ) ;
#250 = DIRECTION ( 'NONE',  ( -0.000000000000000000, -1.000000000000000000, -0.000000000000000000 ) ) ;
#251 = PRESENTATION_LAYER_ASSIGNMENT (  '', '', ( #124 ) ) ;
#252 = CARTESIAN_POINT ( 'NONE',  ( 0.2499999999999996947, 5.000000000000000000, 0.000000000000000000 ) ) ;
#253 = DIRECTION ( 'NONE',  ( 1.223475599646961589E-16, -1.000000000000000000, 0.000000000000000000 ) ) ;
#254 = CARTESIAN_POINT ( 'NONE',  ( -0.2499999999999998890, 5.000000000000000000, 0.000000000000000000 ) ) ;
#255 = EDGE_CURVE ( 'NONE', #123, #3, #15, .T. ) ;
#256 = AXIS2_PLACEMENT_3D ( 'NONE', #103, #356, #189 ) ;
#257 = STYLED_ITEM ( 'NONE', ( #158 ), #288 ) ;
#258 = EDGE_LOOP ( 'NONE', ( #98, #96, #322, #170 ) ) ;
#259 = LENGTH_MEASURE_WITH_UNIT ( LENGTH_MEASURE( 0.02539999999999999897 ), #349 );
#260 = ORIENTED_EDGE ( 'NONE', *, *, #199, .F. ) ;
#261 = LENGTH_MEASURE_WITH_UNIT ( LENGTH_MEASURE( 0.02539999999999999897 ), #147 );
#262 = ORIENTED_EDGE ( 'NONE', *, *, #83, .F. ) ;
#263 = ORIENTED_EDGE ( 'NONE', *, *, #112, .T. ) ;
#264 = MECHANICAL_DESIGN_GEOMETRIC_PRESENTATION_REPRESENTATION (  '', ( #168 ), #243 ) ;
#265 = AXIS2_PLACEMENT_3D ( 'NONE', #360, #108, #162 ) ;
#266 =( CONVERSION_BASED_UNIT ( 'INCH', #43 ) LENGTH_UNIT ( ) NAMED_UNIT ( #136 ) );
#267 = UNCERTAINTY_MEASURE_WITH_UNIT (LENGTH_MEASURE( 1.000000000000000082E-05 ), #85, 'distance_accuracy_value', 'NONE');
#268 = VERTEX_POINT ( 'NONE', #334 ) ;
#269 = LENGTH_MEASURE_WITH_UNIT ( LENGTH_MEASURE( 0.02539999999999999897 ), #17 );
#270 =( NAMED_UNIT ( * ) SI_UNIT ( $, .STERADIAN. ) SOLID_ANGLE_UNIT ( ) );
#271 = SURFACE_SIDE_STYLE ('',( #276 ) ) ;
#272 = DIRECTION ( 'NONE',  ( 0.000000000000000000, -0.000000000000000000, 1.000000000000000000 ) ) ;
#273 = CIRCLE ( 'NONE', #369, 0.2500000000000000000 ) ;
#274 = DIRECTION ( 'NONE',  ( -1.000000000000000000, 0.000000000000000000, 0.000000000000000000 ) ) ;
#275 = DIRECTION ( 'NONE',  ( -1.000000000000000000, 0.000000000000000000, 0.000000000000000000 ) ) ;
#276 = SURFACE_STYLE_FILL_AREA ( #171 ) ;
#277 = DIRECTION ( 'NONE',  ( -1.223475599646961589E-16, 1.000000000000000000, -0.000000000000000000 ) ) ;
#278 =( LENGTH_UNIT ( ) NAMED_UNIT ( * ) SI_UNIT ( $, .METRE. ) );
#279 = STYLED_ITEM ( 'NONE', ( #149 ), #187 ) ;
#280 = COLOUR_RGB ( '',0.7921568627450980005, 0.8196078431372548767, 0.9333333333333333481 ) ;
#281 = FILL_AREA_STYLE ('',( #45 ) ) ;
#282 = EDGE_CURVE ( 'NONE', #145, #316, #87, .T. ) ;
#283 = MECHANICAL_DESIGN_GEOMETRIC_PRESENTATION_REPRESENTATION (  '', ( #312 ), #118 ) ;
#284 = SURFACE_SIDE_STYLE ('',( #366 ) ) ;
#285 = VECTOR ( 'NONE', #88, 39.37007874015748143 ) ;
#286 = FACE_OUTER_BOUND ( 'NONE', #6, .T. ) ;
#287 = ORIENTED_EDGE ( 'NONE', *, *, #367, .T. ) ;
#288 = MANIFOLD_SOLID_BREP ( 'Revolve - Cutting Edge', #160 ) ;
#289 =( NAMED_UNIT ( * ) SI_UNIT ( $, .STERADIAN. ) SOLID_ANGLE_UNIT ( ) );
#290 = MECHANICAL_DESIGN_GEOMETRIC_PRESENTATION_REPRESENTATION (  '', ( #139 ), #58 ) ;
#291 = CIRCLE ( 'NONE', #31, 0.2499999999999996947 ) ;
#292 = ORIENTED_EDGE ( 'NONE', *, *, #324, .T. ) ;
#293 = DIRECTION ( 'NONE',  ( 0.000000000000000000, 0.000000000000000000, 1.000000000000000000 ) ) ;
#294 = ORIENTED_EDGE ( 'NONE', *, *, #73, .F. ) ;
#295 = FILL_AREA_STYLE ('',( #27 ) ) ;
#296 = CARTESIAN_POINT ( 'NONE',  ( 3.061616997868383018E-17, 0.2500000000000000000, 0.2499999999999999722 ) ) ;
#297 = SURFACE_STYLE_FILL_AREA ( #131 ) ;
#298 = DIRECTION ( 'NONE',  ( -1.223475599646961589E-16, 1.000000000000000000, -0.000000000000000000 ) ) ;
#299 = AXIS2_PLACEMENT_3D ( 'NONE', #207, #240, #305 ) ;
#300 = DIRECTION ( 'NONE',  ( 0.000000000000000000, 0.000000000000000000, -1.000000000000000000 ) ) ;
#301 = EDGE_CURVE ( 'NONE', #268, #150, #59, .T. ) ;
#302 =( NAMED_UNIT ( * ) PLANE_ANGLE_UNIT ( ) SI_UNIT ( $, .RADIAN. ) );
#303 =( NAMED_UNIT ( * ) PLANE_ANGLE_UNIT ( ) SI_UNIT ( $, .RADIAN. ) );
#304 = CARTESIAN_POINT ( 'NONE',  ( 0.2500000000000000000, 0.2500000000000000000, 0.000000000000000000 ) ) ;
#305 = DIRECTION ( 'NONE',  ( -1.000000000000000000, 0.000000000000000000, 0.000000000000000000 ) ) ;
#306 = CARTESIAN_POINT ( 'NONE',  ( 0.000000000000000000, 0.000000000000000000, -0.2499999999999998612 ) ) ;
#307 =( GEOMETRIC_REPRESENTATION_CONTEXT ( 3 ) GLOBAL_UNCERTAINTY_ASSIGNED_CONTEXT ( ( #227 ) ) GLOBAL_UNIT_ASSIGNED_CONTEXT ( ( #266, #302, #242 ) ) REPRESENTATION_CONTEXT ( 'NONE', 'WORKASPACE' ) );
#308 =( NAMED_UNIT ( * ) SI_UNIT ( $, .STERADIAN. ) SOLID_ANGLE_UNIT ( ) );
#309 = PLANE ( 'NONE',  #14 ) ;
#310 = LENGTH_MEASURE_WITH_UNIT ( LENGTH_MEASURE( 0.02539999999999999897 ), #167 );
#311 = UNCERTAINTY_MEASURE_WITH_UNIT (LENGTH_MEASURE( 1.000000000000000082E-05 ), #193, 'distance_accuracy_value', 'NONE');
#312 = STYLED_ITEM ( 'NONE', ( #4 ), #181 ) ;
#313 =( GEOMETRIC_REPRESENTATION_CONTEXT ( 3 ) GLOBAL_UNCERTAINTY_ASSIGNED_CONTEXT ( ( #311 ) ) GLOBAL_UNIT_ASSIGNED_CONTEXT ( ( #193, #342, #164 ) ) REPRESENTATION_CONTEXT ( 'NONE', 'WORKASPACE' ) );
#314 = DIRECTION ( 'NONE',  ( 1.224646799147353207E-16, -0.000000000000000000, 1.000000000000000000 ) ) ;
#315 = DIRECTION ( 'NONE',  ( 1.000000000000000000, 0.000000000000000000, 0.000000000000000000 ) ) ;
#316 = VERTEX_POINT ( 'NONE', #239 ) ;
#317 = SPHERICAL_SURFACE ( 'NONE', #351, 0.2500000000000000000 ) ;
#318 = CYLINDRICAL_SURFACE ( 'NONE', #299, 0.2499999999999997224 ) ;
#319 = LINE ( 'NONE', #254, #285 ) ;
#320 = AXIS2_PLACEMENT_3D ( 'NONE', #109, #21, #188 ) ;
#321 = PRODUCT_DEFINITION_FORMATION_WITH_SPECIFIED_SOURCE ( 'ANY', '', #33, .NOT_KNOWN. ) ;
#322 = ORIENTED_EDGE ( 'NONE', *, *, #221, .T. ) ;
#323 = FACE_OUTER_BOUND ( 'NONE', #258, .T. ) ;
#324 = EDGE_CURVE ( 'NONE', #60, #228, #340, .T. ) ;
#325 = ORIENTED_EDGE ( 'NONE', *, *, #255, .T. ) ;
#326 = ORIENTED_EDGE ( 'NONE', *, *, #301, .T. ) ;
#327 = CARTESIAN_POINT ( 'NONE',  ( 0.000000000000000000, 0.2500000000000000000, 0.000000000000000000 ) ) ;
#328 = CARTESIAN_POINT ( 'NONE',  ( 0.2499999999999996947, 5.000000000000000000, 3.061616997868380553E-17 ) ) ;
#329 = MECHANICAL_DESIGN_GEOMETRIC_PRESENTATION_REPRESENTATION (  '', ( #279 ), #69 ) ;
#330 = PLANE ( 'NONE',  #357 ) ;
#331 = CARTESIAN_POINT ( 'NONE',  ( 1.221718800396374531E-16, 2.500000000000000000, 0.000000000000000000 ) ) ;
#332 = FACE_OUTER_BOUND ( 'NONE', #126, .T. ) ;
#333 = MECHANICAL_DESIGN_GEOMETRIC_PRESENTATION_REPRESENTATION (  '', ( #218 ), #307 ) ;
#334 = CARTESIAN_POINT ( 'NONE',  ( 0.2499999999999996947, 2.500000000000000000, 3.061616997868380553E-17 ) ) ;
#335 = DIRECTION ( 'NONE',  ( -0.000000000000000000, -1.000000000000000000, -0.000000000000000000 ) ) ;
#336 = APPLICATION_CONTEXT ( 'automotive_design' ) ;
#337 = FILL_AREA_STYLE_COLOUR ( '', #1 ) ;
#338 = SURFACE_STYLE_FILL_AREA ( #281 ) ;
#339 =( GEOMETRIC_REPRESENTATION_CONTEXT ( 3 ) GLOBAL_UNCERTAINTY_ASSIGNED_CONTEXT ( ( #220 ) ) GLOBAL_UNIT_ASSIGNED_CONTEXT ( ( #100, #41, #270 ) ) REPRESENTATION_CONTEXT ( 'NONE', 'WORKASPACE' ) );
#340 = CIRCLE ( 'NONE', #265, 0.2499999999999998612 ) ;
#341 = CYLINDRICAL_SURFACE ( 'NONE', #51, 0.2499999999999997224 ) ;
#342 =( NAMED_UNIT ( * ) PLANE_ANGLE_UNIT ( ) SI_UNIT ( $, .RADIAN. ) );
#343 = DIRECTION ( 'NONE',  ( 1.000000000000000000, 0.000000000000000000, 0.000000000000000000 ) ) ;
#344 = DIRECTION ( 'NONE',  ( 1.000000000000000000, 1.223475599646961589E-16, 0.000000000000000000 ) ) ;
#345 = UNCERTAINTY_MEASURE_WITH_UNIT (LENGTH_MEASURE( 1.000000000000000082E-05 ), #50, 'distance_accuracy_value', 'NONE');
#346 = ORIENTED_EDGE ( 'NONE', *, *, #67, .F. ) ;
#347 = SURFACE_STYLE_FILL_AREA ( #35 ) ;
#348 = EDGE_LOOP ( 'NONE', ( #175, #326, #29, #121 ) ) ;
#349 =( LENGTH_UNIT ( ) NAMED_UNIT ( * ) SI_UNIT ( $, .METRE. ) );
#350 = VERTEX_POINT ( 'NONE', #249 ) ;
#351 = AXIS2_PLACEMENT_3D ( 'NONE', #97, #117, #222 ) ;
#352 = EDGE_LOOP ( 'NONE', ( #263, #148, #262, #325 ) ) ;
#353 = ORIENTED_EDGE ( 'NONE', *, *, #104, .F. ) ;
#354 = LENGTH_MEASURE_WITH_UNIT ( LENGTH_MEASURE( 0.02539999999999999897 ), #278 );
#355 = CARTESIAN_POINT ( 'NONE',  ( -0.2500000000000000555, 5.000000000000000000, 0.000000000000000000 ) ) ;
#356 = DIRECTION ( 'NONE',  ( -1.223475599646961589E-16, 1.000000000000000000, 0.000000000000000000 ) ) ;
#357 = AXIS2_PLACEMENT_3D ( 'NONE', #72, #183, #272 ) ;
#358 = ADVANCED_FACE ( 'NONE', ( #138 ), #341, .T. ) ;
#359 = DIRECTION ( 'NONE',  ( 0.000000000000000000, 0.000000000000000000, -1.000000000000000000 ) ) ;
#360 = CARTESIAN_POINT ( 'NONE',  ( -1.836970198721029688E-16, 5.000000000000000000, 0.000000000000000000 ) ) ;
#361 = CARTESIAN_POINT ( 'NONE',  ( 0.000000000000000000, 0.2500000000000000000, 0.000000000000000000 ) ) ;
#362 = EDGE_CURVE ( 'NONE', #316, #145, #291, .T. ) ;
#363 = CARTESIAN_POINT ( 'NONE',  ( 0.000000000000000000, 0.000000000000000000, 0.000000000000000000 ) ) ;
#364 = CIRCLE ( 'NONE', #202, 0.2500000000000000000 ) ;
#365 = APPLICATION_PROTOCOL_DEFINITION ( 'draft international standard', 'automotive_design', 1998, #336 ) ;
#366 = SURFACE_STYLE_FILL_AREA ( #23 ) ;
#367 = EDGE_CURVE ( 'NONE', #316, #225, #82, .T. ) ;
#368 =( LENGTH_UNIT ( ) NAMED_UNIT ( * ) SI_UNIT ( $, .METRE. ) );
#369 = AXIS2_PLACEMENT_3D ( 'NONE', #159, #359, #275 ) ;
#370 = CIRCLE ( 'NONE', #186, 0.2500000000000000000 ) ;
#371 = CARTESIAN_POINT ( 'NONE',  ( -1.836970198721029688E-16, 5.000000000000000000, 0.000000000000000000 ) ) ;
#372 = LENGTH_MEASURE_WITH_UNIT ( LENGTH_MEASURE( 0.02539999999999999897 ), #191 );
#373 = UNCERTAINTY_MEASURE_WITH_UNIT (LENGTH_MEASURE( 1.000000000000000082E-05 ), #142, 'distance_accuracy_value', 'NONE');
ENDSEC;
END-ISO-10303-21;
