ISO-10303-21;
HEADER;
FILE_DESCRIPTION (( 'STEP AP214' ),
    '1' );
FILE_NAME ('81645.STEP',
    '2023-06-23T02:25:08',
    ( '' ),
    ( '' ),
    'SwSTEP 2.0',
    'SolidWorks 2023',
    '' );
FILE_SCHEMA (( 'AUTOMOTIVE_DESIGN' ));
ENDSEC;

DATA;
#1 = VERTEX_POINT ( 'NONE', #20 ) ;
#2 = ADVANCED_FACE ( 'NONE', ( #232 ), #185, .T. ) ;
#3 = FACE_OUTER_BOUND ( 'NONE', #182, .T. ) ;
#4 = STYLED_ITEM ( 'NONE', ( #60 ), #169 ) ;
#5 = CARTESIAN_POINT ( 'NONE',  ( 0.2500000000000000555, 2.000000000000000000, 3.061616997868384251E-17 ) ) ;
#6 = PRODUCT_DEFINITION_CONTEXT ( 'detailed design', #265, 'design' ) ;
#7 = LENGTH_MEASURE_WITH_UNIT ( LENGTH_MEASURE( 0.02539999999999999897 ), #130 );
#8 =( CONVERSION_BASED_UNIT ( 'INCH', #76 ) LENGTH_UNIT ( ) NAMED_UNIT ( #145 ) );
#9 = EDGE_CURVE ( 'NONE', #207, #45, #85, .T. ) ;
#10 = AXIS2_PLACEMENT_3D ( 'NONE', #219, #155, #174 ) ;
#11 =( NAMED_UNIT ( * ) SI_UNIT ( $, .STERADIAN. ) SOLID_ANGLE_UNIT ( ) );
#12 = SURFACE_STYLE_FILL_AREA ( #79 ) ;
#13 = LINE ( 'NONE', #294, #77 ) ;
#14 = CARTESIAN_POINT ( 'NONE',  ( -1.224646799147352714E-16, 4.000000000000000000, 0.000000000000000000 ) ) ;
#15 = EDGE_CURVE ( 'NONE', #306, #308, #73, .T. ) ;
#16 = DIRECTION ( 'NONE',  ( 0.000000000000000000, 0.000000000000000000, 1.000000000000000000 ) ) ;
#17 = CIRCLE ( 'NONE', #229, 0.2500000000000000000 ) ;
#18 = PRESENTATION_STYLE_ASSIGNMENT (( #113 ) ) ;
#19 = SHAPE_DEFINITION_REPRESENTATION ( #25, #276 ) ;
#20 = CARTESIAN_POINT ( 'NONE',  ( 0.000000000000000000, 2.000000000000000000, -0.2500000000000000000 ) ) ;
#21 = LENGTH_MEASURE_WITH_UNIT ( LENGTH_MEASURE( 0.02539999999999999897 ), #23 );
#22 = EDGE_CURVE ( 'NONE', #201, #308, #148, .T. ) ;
#23 =( LENGTH_UNIT ( ) NAMED_UNIT ( * ) SI_UNIT ( $, .METRE. ) );
#24 = ORIENTED_EDGE ( 'NONE', *, *, #307, .F. ) ;
#25 = PRODUCT_DEFINITION_SHAPE ( 'NONE', 'NONE',  #281 ) ;
#26 = ORIENTED_EDGE ( 'NONE', *, *, #208, .T. ) ;
#27 = SURFACE_STYLE_USAGE ( .BOTH. , #236 ) ;
#28 =( LENGTH_UNIT ( ) NAMED_UNIT ( * ) SI_UNIT ( $, .METRE. ) );
#29 = CARTESIAN_POINT ( 'NONE',  ( 0.000000000000000000, 0.000000000000000000, 0.000000000000000000 ) ) ;
#30 = MECHANICAL_DESIGN_GEOMETRIC_PRESENTATION_REPRESENTATION (  '', ( #4 ), #70 ) ;
#31 = CYLINDRICAL_SURFACE ( 'NONE', #272, 0.2500000000000000000 ) ;
#32 = ADVANCED_FACE ( 'NONE', ( #3 ), #238, .F. ) ;
#33 = FILL_AREA_STYLE ('',( #127 ) ) ;
#34 =( LENGTH_UNIT ( ) NAMED_UNIT ( * ) SI_UNIT ( $, .METRE. ) );
#35 = DIRECTION ( 'NONE',  ( -6.123233995736763571E-17, 1.000000000000000000, -0.000000000000000000 ) ) ;
#36 = UNCERTAINTY_MEASURE_WITH_UNIT (LENGTH_MEASURE( 1.000000000000000082E-05 ), #171, 'distance_accuracy_value', 'NONE');
#37 = DIRECTION ( 'NONE',  ( 0.000000000000000000, 0.000000000000000000, -1.000000000000000000 ) ) ;
#38 = FACE_OUTER_BOUND ( 'NONE', #181, .T. ) ;
#39 = LINE ( 'NONE', #246, #97 ) ;
#40 = LENGTH_MEASURE_WITH_UNIT ( LENGTH_MEASURE( 0.02539999999999999897 ), #109 );
#41 =( GEOMETRIC_REPRESENTATION_CONTEXT ( 3 ) GLOBAL_UNCERTAINTY_ASSIGNED_CONTEXT ( ( #163 ) ) GLOBAL_UNIT_ASSIGNED_CONTEXT ( ( #67, #291, #170 ) ) REPRESENTATION_CONTEXT ( 'NONE', 'WORKASPACE' ) );
#42 = COLOUR_RGB ( '',1.000000000000000000, 0.000000000000000000, 0.000000000000000000 ) ;
#43 = ORIENTED_EDGE ( 'NONE', *, *, #149, .F. ) ;
#44 = APPLICATION_PROTOCOL_DEFINITION ( 'draft international standard', 'automotive_design', 1998, #265 ) ;
#45 = VERTEX_POINT ( 'NONE', #189 ) ;
#46 = APPLICATION_PROTOCOL_DEFINITION ( 'draft international standard', 'automotive_design', 1998, #118 ) ;
#47 = ORIENTED_EDGE ( 'NONE', *, *, #242, .F. ) ;
#48 = CIRCLE ( 'NONE', #167, 0.2500000000000000000 ) ;
#49 = SURFACE_STYLE_FILL_AREA ( #262 ) ;
#50 = SURFACE_STYLE_USAGE ( .BOTH. , #98 ) ;
#51 = ADVANCED_FACE ( 'NONE', ( #153 ), #31, .T. ) ;
#52 = DIRECTION ( 'NONE',  ( 0.000000000000000000, 0.000000000000000000, -1.000000000000000000 ) ) ;
#53 = CARTESIAN_POINT ( 'NONE',  ( 0.000000000000000000, 0.000000000000000000, 0.000000000000000000 ) ) ;
#54 = CARTESIAN_POINT ( 'NONE',  ( 3.061616997868383018E-17, 0.000000000000000000, 0.2500000000000000000 ) ) ;
#55 = CARTESIAN_POINT ( 'NONE',  ( -1.224646799147352714E-16, 4.000000000000000000, 0.000000000000000000 ) ) ;
#56 = CARTESIAN_POINT ( 'NONE',  ( 0.2500000000000000000, 4.000000000000000000, 0.000000000000000000 ) ) ;
#57 = AXIS2_PLACEMENT_3D ( 'NONE', #248, #274, #196 ) ;
#58 = FILL_AREA_STYLE ('',( #108 ) ) ;
#59 = DIRECTION ( 'NONE',  ( -0.000000000000000000, -1.000000000000000000, -0.000000000000000000 ) ) ;
#60 = PRESENTATION_STYLE_ASSIGNMENT (( #296 ) ) ;
#61 =( NAMED_UNIT ( * ) SI_UNIT ( $, .STERADIAN. ) SOLID_ANGLE_UNIT ( ) );
#62 =( GEOMETRIC_REPRESENTATION_CONTEXT ( 3 ) GLOBAL_UNCERTAINTY_ASSIGNED_CONTEXT ( ( #237 ) ) GLOBAL_UNIT_ASSIGNED_CONTEXT ( ( #222, #300, #11 ) ) REPRESENTATION_CONTEXT ( 'NONE', 'WORKASPACE' ) );
#63 = CIRCLE ( 'NONE', #211, 0.2500000000000001110 ) ;
#64 = CARTESIAN_POINT ( 'NONE',  ( 0.000000000000000000, 0.000000000000000000, 0.000000000000000000 ) ) ;
#65 = SURFACE_SIDE_STYLE ('',( #12 ) ) ;
#66 = PRESENTATION_STYLE_ASSIGNMENT (( #27 ) ) ;
#67 =( CONVERSION_BASED_UNIT ( 'INCH', #183 ) LENGTH_UNIT ( ) NAMED_UNIT ( #190 ) );
#68 = ORIENTED_EDGE ( 'NONE', *, *, #208, .F. ) ;
#69 = EDGE_LOOP ( 'NONE', ( #304, #143, #83, #141 ) ) ;
#70 =( GEOMETRIC_REPRESENTATION_CONTEXT ( 3 ) GLOBAL_UNCERTAINTY_ASSIGNED_CONTEXT ( ( #36 ) ) GLOBAL_UNIT_ASSIGNED_CONTEXT ( ( #171, #103, #225 ) ) REPRESENTATION_CONTEXT ( 'NONE', 'WORKASPACE' ) );
#71 = FILL_AREA_STYLE ('',( #186 ) ) ;
#72 = DIRECTION ( 'NONE',  ( 0.000000000000000000, 0.000000000000000000, -1.000000000000000000 ) ) ;
#73 = CIRCLE ( 'NONE', #111, 0.2500000000000000000 ) ;
#74 = AXIS2_PLACEMENT_3D ( 'NONE', #64, #233, #204 ) ;
#75 = FACE_OUTER_BOUND ( 'NONE', #69, .T. ) ;
#76 = LENGTH_MEASURE_WITH_UNIT ( LENGTH_MEASURE( 0.02539999999999999897 ), #192 );
#77 = VECTOR ( 'NONE', #35, 39.37007874015748143 ) ;
#78 = FACE_OUTER_BOUND ( 'NONE', #305, .T. ) ;
#79 = FILL_AREA_STYLE ('',( #136 ) ) ;
#80 = CARTESIAN_POINT ( 'NONE',  ( 0.000000000000000000, 2.000000000000000000, 0.000000000000000000 ) ) ;
#81 = DIRECTION ( 'NONE',  ( -6.123233995736763571E-17, 1.000000000000000000, -0.000000000000000000 ) ) ;
#82 =( NAMED_UNIT ( * ) PLANE_ANGLE_UNIT ( ) SI_UNIT ( $, .RADIAN. ) );
#83 = ORIENTED_EDGE ( 'NONE', *, *, #267, .T. ) ;
#84 = ORIENTED_EDGE ( 'NONE', *, *, #197, .F. ) ;
#85 = CIRCLE ( 'NONE', #146, 0.2500000000000001110 ) ;
#86 = STYLED_ITEM ( 'NONE', ( #194 ), #299 ) ;
#87 = ORIENTED_EDGE ( 'NONE', *, *, #220, .F. ) ;
#88 = ORIENTED_EDGE ( 'NONE', *, *, #175, .F. ) ;
#89 = DIRECTION ( 'NONE',  ( 0.000000000000000000, -1.000000000000000000, -0.000000000000000000 ) ) ;
#90 = COLOUR_RGB ( '',0.7921568627450980005, 0.8196078431372548767, 0.9333333333333333481 ) ;
#91 =( CONVERSION_BASED_UNIT ( 'INCH', #290 ) LENGTH_UNIT ( ) NAMED_UNIT ( #286 ) );
#92 =( CONVERSION_BASED_UNIT ( 'INCH', #21 ) LENGTH_UNIT ( ) NAMED_UNIT ( #160 ) );
#93 = DIRECTION ( 'NONE',  ( -0.000000000000000000, -1.000000000000000000, -0.000000000000000000 ) ) ;
#94 = MANIFOLD_SOLID_BREP ( 'Revolve - Cutting Edge', #215 ) ;
#95 = SURFACE_STYLE_USAGE ( .BOTH. , #128 ) ;
#96 = DIRECTION ( 'NONE',  ( -0.000000000000000000, -1.000000000000000000, -0.000000000000000000 ) ) ;
#97 = VECTOR ( 'NONE', #157, 39.37007874015748143 ) ;
#98 = SURFACE_SIDE_STYLE ('',( #164 ) ) ;
#99 = STYLED_ITEM ( 'NONE', ( #18 ), #191 ) ;
#100 = FILL_AREA_STYLE ('',( #104 ) ) ;
#101 = CARTESIAN_POINT ( 'NONE',  ( -0.2500000000000000000, 2.000000000000000000, 0.000000000000000000 ) ) ;
#102 = UNCERTAINTY_MEASURE_WITH_UNIT (LENGTH_MEASURE( 1.000000000000000082E-05 ), #202, 'distance_accuracy_value', 'NONE');
#103 =( NAMED_UNIT ( * ) PLANE_ANGLE_UNIT ( ) SI_UNIT ( $, .RADIAN. ) );
#104 = FILL_AREA_STYLE_COLOUR ( '', #42 ) ;
#105 = CIRCLE ( 'NONE', #74, 0.2500000000000000000 ) ;
#106 = ADVANCED_FACE ( 'NONE', ( #75 ), #239, .T. ) ;
#107 = DIRECTION ( 'NONE',  ( -1.000000000000000000, 0.000000000000000000, 0.000000000000000000 ) ) ;
#108 = FILL_AREA_STYLE_COLOUR ( '', #112 ) ;
#109 =( LENGTH_UNIT ( ) NAMED_UNIT ( * ) SI_UNIT ( $, .METRE. ) );
#110 = DIRECTION ( 'NONE',  ( 1.000000000000000000, 0.000000000000000000, 0.000000000000000000 ) ) ;
#111 = AXIS2_PLACEMENT_3D ( 'NONE', #152, #150, #72 ) ;
#112 = COLOUR_RGB ( '',1.000000000000000000, 0.000000000000000000, 0.000000000000000000 ) ;
#113 = SURFACE_STYLE_USAGE ( .BOTH. , #65 ) ;
#114 = ORIENTED_EDGE ( 'NONE', *, *, #22, .T. ) ;
#115 = EDGE_LOOP ( 'NONE', ( #117, #235 ) ) ;
#116 = DIMENSIONAL_EXPONENTS ( 1.000000000000000000, 0.000000000000000000, 0.000000000000000000, 0.000000000000000000, 0.000000000000000000, 0.000000000000000000, 0.000000000000000000 ) ;
#117 = ORIENTED_EDGE ( 'NONE', *, *, #15, .T. ) ;
#118 = APPLICATION_CONTEXT ( 'automotive_design' ) ;
#119 = VECTOR ( 'NONE', #93, 39.37007874015748143 ) ;
#120 = ORIENTED_EDGE ( 'NONE', *, *, #149, .T. ) ;
#121 = DIRECTION ( 'NONE',  ( 0.000000000000000000, 0.000000000000000000, -1.000000000000000000 ) ) ;
#122 = CARTESIAN_POINT ( 'NONE',  ( 1.516480271171051896E-32, 2.000000000000000000, 0.000000000000000000 ) ) ;
#123 = DIRECTION ( 'NONE',  ( -6.123233995736763571E-17, 1.000000000000000000, 0.000000000000000000 ) ) ;
#124 = AXIS2_PLACEMENT_3D ( 'NONE', #264, #123, #269 ) ;
#125 = AXIS2_PLACEMENT_3D ( 'NONE', #56, #179, #131 ) ;
#126 = DIRECTION ( 'NONE',  ( -1.000000000000000000, 0.000000000000000000, 0.000000000000000000 ) ) ;
#127 = FILL_AREA_STYLE_COLOUR ( '', #90 ) ;
#128 = SURFACE_SIDE_STYLE ('',( #212 ) ) ;
#129 = MECHANICAL_DESIGN_GEOMETRIC_PRESENTATION_REPRESENTATION (  '', ( #293 ), #251 ) ;
#130 =( LENGTH_UNIT ( ) NAMED_UNIT ( * ) SI_UNIT ( $, .METRE. ) );
#131 = DIRECTION ( 'NONE',  ( 1.000000000000000000, 6.123233995736763571E-17, 0.000000000000000000 ) ) ;
#132 = UNCERTAINTY_MEASURE_WITH_UNIT (LENGTH_MEASURE( 1.000000000000000082E-05 ), #8, 'distance_accuracy_value', 'NONE');
#133 =( NAMED_UNIT ( * ) PLANE_ANGLE_UNIT ( ) SI_UNIT ( $, .RADIAN. ) );
#134 = DIRECTION ( 'NONE',  ( -6.123233995736763571E-17, 1.000000000000000000, -0.000000000000000000 ) ) ;
#135 =( GEOMETRIC_REPRESENTATION_CONTEXT ( 3 ) GLOBAL_UNCERTAINTY_ASSIGNED_CONTEXT ( ( #102 ) ) GLOBAL_UNIT_ASSIGNED_CONTEXT ( ( #202, #227, #253 ) ) REPRESENTATION_CONTEXT ( 'NONE', 'WORKASPACE' ) );
#136 = FILL_AREA_STYLE_COLOUR ( '', #217 ) ;
#137 = DIRECTION ( 'NONE',  ( 0.000000000000000000, 1.000000000000000000, 0.000000000000000000 ) ) ;
#138 = LINE ( 'NONE', #158, #273 ) ;
#139 = EDGE_CURVE ( 'NONE', #161, #207, #39, .T. ) ;
#140 = CARTESIAN_POINT ( 'NONE',  ( 3.061616997868383018E-17, 0.000000000000000000, 0.2500000000000000000 ) ) ;
#141 = ORIENTED_EDGE ( 'NONE', *, *, #9, .F. ) ;
#142 = MECHANICAL_DESIGN_GEOMETRIC_PRESENTATION_REPRESENTATION (  '', ( #178 ), #62 ) ;
#143 = ORIENTED_EDGE ( 'NONE', *, *, #175, .T. ) ;
#144 = ORIENTED_EDGE ( 'NONE', *, *, #15, .F. ) ;
#145 = DIMENSIONAL_EXPONENTS ( 1.000000000000000000, 0.000000000000000000, 0.000000000000000000, 0.000000000000000000, 0.000000000000000000, 0.000000000000000000, 0.000000000000000000 ) ;
#146 = AXIS2_PLACEMENT_3D ( 'NONE', #209, #168, #126 ) ;
#147 = ORIENTED_EDGE ( 'NONE', *, *, #197, .T. ) ;
#148 = LINE ( 'NONE', #54, #119 ) ;
#149 = EDGE_CURVE ( 'NONE', #201, #1, #188, .T. ) ;
#150 = DIRECTION ( 'NONE',  ( -0.000000000000000000, -1.000000000000000000, -0.000000000000000000 ) ) ;
#151 = PRODUCT_DEFINITION_FORMATION_WITH_SPECIFIED_SOURCE ( 'ANY', '', #250, .NOT_KNOWN. ) ;
#152 = CARTESIAN_POINT ( 'NONE',  ( 0.000000000000000000, 0.000000000000000000, 0.000000000000000000 ) ) ;
#153 = FACE_OUTER_BOUND ( 'NONE', #280, .T. ) ;
#154 = ADVANCED_FACE ( 'NONE', ( #271 ), #301, .T. ) ;
#155 = DIRECTION ( 'NONE',  ( -6.123233995736763571E-17, 1.000000000000000000, -0.000000000000000000 ) ) ;
#156 = PRESENTATION_LAYER_ASSIGNMENT (  '', '', ( #178 ) ) ;
#157 = DIRECTION ( 'NONE',  ( -6.123233995736763571E-17, 1.000000000000000000, -0.000000000000000000 ) ) ;
#158 = CARTESIAN_POINT ( 'NONE',  ( 0.000000000000000000, 0.000000000000000000, -0.2500000000000000000 ) ) ;
#159 = AXIS2_PLACEMENT_3D ( 'NONE', #283, #16, #110 ) ;
#160 = DIMENSIONAL_EXPONENTS ( 1.000000000000000000, 0.000000000000000000, 0.000000000000000000, 0.000000000000000000, 0.000000000000000000, 0.000000000000000000, 0.000000000000000000 ) ;
#161 = VERTEX_POINT ( 'NONE', #5 ) ;
#162 = FILL_AREA_STYLE_COLOUR ( '', #256 ) ;
#163 = UNCERTAINTY_MEASURE_WITH_UNIT (LENGTH_MEASURE( 1.000000000000000082E-05 ), #67, 'distance_accuracy_value', 'NONE');
#164 = SURFACE_STYLE_FILL_AREA ( #71 ) ;
#165 = DIRECTION ( 'NONE',  ( -1.000000000000000000, 0.000000000000000000, 0.000000000000000000 ) ) ;
#166 = STYLED_ITEM ( 'NONE', ( #66 ), #2 ) ;
#167 = AXIS2_PLACEMENT_3D ( 'NONE', #252, #134, #224 ) ;
#168 = DIRECTION ( 'NONE',  ( -6.123233995736763571E-17, 1.000000000000000000, -0.000000000000000000 ) ) ;
#169 = ADVANCED_FACE ( 'NONE', ( #78 ), #298, .T. ) ;
#170 =( NAMED_UNIT ( * ) SI_UNIT ( $, .STERADIAN. ) SOLID_ANGLE_UNIT ( ) );
#171 =( CONVERSION_BASED_UNIT ( 'INCH', #279 ) LENGTH_UNIT ( ) NAMED_UNIT ( #309 ) );
#172 = FACE_OUTER_BOUND ( 'NONE', #230, .T. ) ;
#173 = PRESENTATION_LAYER_ASSIGNMENT (  '', '', ( #86 ) ) ;
#174 = DIRECTION ( 'NONE',  ( -1.000000000000000000, 0.000000000000000000, 0.000000000000000000 ) ) ;
#175 = EDGE_CURVE ( 'NONE', #161, #260, #48, .T. ) ;
#176 = CARTESIAN_POINT ( 'NONE',  ( 0.000000000000000000, 0.000000000000000000, 0.000000000000000000 ) ) ;
#177 = SURFACE_SIDE_STYLE ('',( #277 ) ) ;
#178 = STYLED_ITEM ( 'NONE', ( #214 ), #94 ) ;
#179 = DIRECTION ( 'NONE',  ( 6.123233995736763571E-17, -1.000000000000000000, 0.000000000000000000 ) ) ;
#180 =( GEOMETRIC_REPRESENTATION_CONTEXT ( 3 ) GLOBAL_UNCERTAINTY_ASSIGNED_CONTEXT ( ( #295 ) ) GLOBAL_UNIT_ASSIGNED_CONTEXT ( ( #92, #82, #258 ) ) REPRESENTATION_CONTEXT ( 'NONE', 'WORKASPACE' ) );
#181 = EDGE_LOOP ( 'NONE', ( #47, #43 ) ) ;
#182 = EDGE_LOOP ( 'NONE', ( #87, #88 ) ) ;
#183 = LENGTH_MEASURE_WITH_UNIT ( LENGTH_MEASURE( 0.02539999999999999897 ), #282 );
#184 = ORIENTED_EDGE ( 'NONE', *, *, #139, .T. ) ;
#185 = PLANE ( 'NONE',  #210 ) ;
#186 = FILL_AREA_STYLE_COLOUR ( '', #261 ) ;
#187 = MECHANICAL_DESIGN_GEOMETRIC_PRESENTATION_REPRESENTATION (  '', ( #166 ), #41 ) ;
#188 = CIRCLE ( 'NONE', #57, 0.2500000000000000000 ) ;
#189 = CARTESIAN_POINT ( 'NONE',  ( -0.2500000000000002776, 4.000000000000000000, 0.000000000000000000 ) ) ;
#190 = DIMENSIONAL_EXPONENTS ( 1.000000000000000000, 0.000000000000000000, 0.000000000000000000, 0.000000000000000000, 0.000000000000000000, 0.000000000000000000, 0.000000000000000000 ) ;
#191 = MANIFOLD_SOLID_BREP ( 'Revolve - Tool Body (Straight Shanked)', #278 ) ;
#192 =( LENGTH_UNIT ( ) NAMED_UNIT ( * ) SI_UNIT ( $, .METRE. ) );
#193 = CARTESIAN_POINT ( 'NONE',  ( 3.061616997868383018E-17, 2.000000000000000000, 0.2500000000000000000 ) ) ;
#194 = PRESENTATION_STYLE_ASSIGNMENT (( #244 ) ) ;
#195 = UNCERTAINTY_MEASURE_WITH_UNIT (LENGTH_MEASURE( 1.000000000000000082E-05 ), #91, 'distance_accuracy_value', 'NONE');
#196 = DIRECTION ( 'NONE',  ( 0.000000000000000000, 0.000000000000000000, -1.000000000000000000 ) ) ;
#197 = EDGE_CURVE ( 'NONE', #1, #306, #138, .T. ) ;
#198 = PLANE ( 'NONE',  #223 ) ;
#199 = CARTESIAN_POINT ( 'NONE',  ( 0.2500000000000000555, 4.000000000000000000, 3.061616997868384251E-17 ) ) ;
#200 = AXIS2_PLACEMENT_3D ( 'NONE', #55, #218, #107 ) ;
#201 = VERTEX_POINT ( 'NONE', #193 ) ;
#202 =( CONVERSION_BASED_UNIT ( 'INCH', #40 ) LENGTH_UNIT ( ) NAMED_UNIT ( #116 ) );
#203 = ORIENTED_EDGE ( 'NONE', *, *, #22, .F. ) ;
#204 = DIRECTION ( 'NONE',  ( 0.000000000000000000, 0.000000000000000000, -1.000000000000000000 ) ) ;
#205 = ORIENTED_EDGE ( 'NONE', *, *, #242, .T. ) ;
#206 = PRESENTATION_LAYER_ASSIGNMENT (  '', '', ( #166 ) ) ;
#207 = VERTEX_POINT ( 'NONE', #199 ) ;
#208 = EDGE_CURVE ( 'NONE', #45, #207, #63, .T. ) ;
#209 = CARTESIAN_POINT ( 'NONE',  ( -1.224646799147352714E-16, 4.000000000000000000, 0.000000000000000000 ) ) ;
#210 = AXIS2_PLACEMENT_3D ( 'NONE', #29, #89, #121 ) ;
#211 = AXIS2_PLACEMENT_3D ( 'NONE', #14, #81, #303 ) ;
#212 = SURFACE_STYLE_FILL_AREA ( #33 ) ;
#213 = DIMENSIONAL_EXPONENTS ( 1.000000000000000000, 0.000000000000000000, 0.000000000000000000, 0.000000000000000000, 0.000000000000000000, 0.000000000000000000, 0.000000000000000000 ) ;
#214 = PRESENTATION_STYLE_ASSIGNMENT (( #95 ) ) ;
#215 = CLOSED_SHELL ( 'NONE', ( #51, #299, #169, #2 ) ) ;
#216 = AXIS2_PLACEMENT_3D ( 'NONE', #292, #96, #52 ) ;
#217 = COLOUR_RGB ( '',0.7921568627450980005, 0.8196078431372548767, 0.9333333333333333481 ) ;
#218 = DIRECTION ( 'NONE',  ( -6.123233995736763571E-17, 1.000000000000000000, -0.000000000000000000 ) ) ;
#219 = CARTESIAN_POINT ( 'NONE',  ( -1.224646799147352714E-16, 4.000000000000000000, 0.000000000000000000 ) ) ;
#220 = EDGE_CURVE ( 'NONE', #260, #161, #17, .T. ) ;
#221 = SURFACE_STYLE_FILL_AREA ( #58 ) ;
#222 =( CONVERSION_BASED_UNIT ( 'INCH', #7 ) LENGTH_UNIT ( ) NAMED_UNIT ( #213 ) );
#223 = AXIS2_PLACEMENT_3D ( 'NONE', #80, #137, #226 ) ;
#224 = DIRECTION ( 'NONE',  ( -1.000000000000000000, 0.000000000000000000, 0.000000000000000000 ) ) ;
#225 =( NAMED_UNIT ( * ) SI_UNIT ( $, .STERADIAN. ) SOLID_ANGLE_UNIT ( ) );
#226 = DIRECTION ( 'NONE',  ( 0.000000000000000000, -0.000000000000000000, 1.000000000000000000 ) ) ;
#227 =( NAMED_UNIT ( * ) PLANE_ANGLE_UNIT ( ) SI_UNIT ( $, .RADIAN. ) );
#228 = DIRECTION ( 'NONE',  ( -0.000000000000000000, -1.000000000000000000, -0.000000000000000000 ) ) ;
#229 = AXIS2_PLACEMENT_3D ( 'NONE', #122, #240, #165 ) ;
#230 = EDGE_LOOP ( 'NONE', ( #26, #255 ) ) ;
#231 = PRODUCT_CONTEXT ( 'NONE', #118, 'mechanical' ) ;
#232 = FACE_OUTER_BOUND ( 'NONE', #115, .T. ) ;
#233 = DIRECTION ( 'NONE',  ( -0.000000000000000000, -1.000000000000000000, -0.000000000000000000 ) ) ;
#234 = ORIENTED_EDGE ( 'NONE', *, *, #267, .F. ) ;
#235 = ORIENTED_EDGE ( 'NONE', *, *, #307, .T. ) ;
#236 = SURFACE_SIDE_STYLE ('',( #49 ) ) ;
#237 = UNCERTAINTY_MEASURE_WITH_UNIT (LENGTH_MEASURE( 1.000000000000000082E-05 ), #222, 'distance_accuracy_value', 'NONE');
#238 = PLANE ( 'NONE',  #124 ) ;
#239 = CYLINDRICAL_SURFACE ( 'NONE', #10, 0.2500000000000000555 ) ;
#240 = DIRECTION ( 'NONE',  ( -6.123233995736763571E-17, 1.000000000000000000, -0.000000000000000000 ) ) ;
#241 = CIRCLE ( 'NONE', #216, 0.2500000000000000000 ) ;
#242 = EDGE_CURVE ( 'NONE', #1, #201, #241, .T. ) ;
#243 = DIRECTION ( 'NONE',  ( 0.000000000000000000, 0.000000000000000000, -1.000000000000000000 ) ) ;
#244 = SURFACE_STYLE_USAGE ( .BOTH. , #247 ) ;
#245 = PRESENTATION_LAYER_ASSIGNMENT (  '', '', ( #99 ) ) ;
#246 = CARTESIAN_POINT ( 'NONE',  ( 0.2499999999999999167, 4.000000000000000000, 3.061616997868383634E-17 ) ) ;
#247 = SURFACE_SIDE_STYLE ('',( #221 ) ) ;
#248 = CARTESIAN_POINT ( 'NONE',  ( 0.000000000000000000, 2.000000000000000000, 0.000000000000000000 ) ) ;
#249 = PLANE ( 'NONE',  #125 ) ;
#250 = PRODUCT ( '81645', '81645', '', ( #231 ) ) ;
#251 =( GEOMETRIC_REPRESENTATION_CONTEXT ( 3 ) GLOBAL_UNCERTAINTY_ASSIGNED_CONTEXT ( ( #195 ) ) GLOBAL_UNIT_ASSIGNED_CONTEXT ( ( #91, #289, #270 ) ) REPRESENTATION_CONTEXT ( 'NONE', 'WORKASPACE' ) );
#252 = CARTESIAN_POINT ( 'NONE',  ( 1.516480271171051896E-32, 2.000000000000000000, 0.000000000000000000 ) ) ;
#253 =( NAMED_UNIT ( * ) SI_UNIT ( $, .STERADIAN. ) SOLID_ANGLE_UNIT ( ) );
#254 = CARTESIAN_POINT ( 'NONE',  ( 0.000000000000000000, 0.000000000000000000, -0.2500000000000000000 ) ) ;
#255 = ORIENTED_EDGE ( 'NONE', *, *, #9, .T. ) ;
#256 = COLOUR_RGB ( '',1.000000000000000000, 0.000000000000000000, 0.000000000000000000 ) ;
#257 = MECHANICAL_DESIGN_GEOMETRIC_PRESENTATION_REPRESENTATION (  '', ( #86 ), #297 ) ;
#258 =( NAMED_UNIT ( * ) SI_UNIT ( $, .STERADIAN. ) SOLID_ANGLE_UNIT ( ) );
#259 = EDGE_LOOP ( 'NONE', ( #284, #184, #68, #234 ) ) ;
#260 = VERTEX_POINT ( 'NONE', #101 ) ;
#261 = COLOUR_RGB ( '',1.000000000000000000, 0.000000000000000000, 0.000000000000000000 ) ;
#262 = FILL_AREA_STYLE ('',( #162 ) ) ;
#263 = PRESENTATION_LAYER_ASSIGNMENT (  '', '', ( #4 ) ) ;
#264 = CARTESIAN_POINT ( 'NONE',  ( 4.686749320818301603E-34, 2.000000000000000000, 0.000000000000000000 ) ) ;
#265 = APPLICATION_CONTEXT ( 'automotive_design' ) ;
#266 = DIRECTION ( 'NONE',  ( -0.000000000000000000, -1.000000000000000000, -0.000000000000000000 ) ) ;
#267 = EDGE_CURVE ( 'NONE', #260, #45, #13, .T. ) ;
#268 = PRESENTATION_STYLE_ASSIGNMENT (( #50 ) ) ;
#269 = DIRECTION ( 'NONE',  ( -1.000000000000000000, -6.123233995736763571E-17, 0.000000000000000000 ) ) ;
#270 =( NAMED_UNIT ( * ) SI_UNIT ( $, .STERADIAN. ) SOLID_ANGLE_UNIT ( ) );
#271 = FACE_OUTER_BOUND ( 'NONE', #259, .T. ) ;
#272 = AXIS2_PLACEMENT_3D ( 'NONE', #53, #266, #243 ) ;
#273 = VECTOR ( 'NONE', #228, 39.37007874015748143 ) ;
#274 = DIRECTION ( 'NONE',  ( -0.000000000000000000, -1.000000000000000000, -0.000000000000000000 ) ) ;
#275 = ADVANCED_FACE ( 'NONE', ( #172 ), #249, .F. ) ;
#276 = ADVANCED_BREP_SHAPE_REPRESENTATION ( '81645', ( #94, #191, #159 ), #180 ) ;
#277 = SURFACE_STYLE_FILL_AREA ( #100 ) ;
#278 = CLOSED_SHELL ( 'NONE', ( #154, #32, #106, #275 ) ) ;
#279 = LENGTH_MEASURE_WITH_UNIT ( LENGTH_MEASURE( 0.02539999999999999897 ), #34 );
#280 = EDGE_LOOP ( 'NONE', ( #205, #114, #144, #84 ) ) ;
#281 = PRODUCT_DEFINITION ( 'UNKNOWN', '', #151, #6 ) ;
#282 =( LENGTH_UNIT ( ) NAMED_UNIT ( * ) SI_UNIT ( $, .METRE. ) );
#283 = CARTESIAN_POINT ( 'NONE',  ( 0.000000000000000000, 0.000000000000000000, 0.000000000000000000 ) ) ;
#284 = ORIENTED_EDGE ( 'NONE', *, *, #220, .T. ) ;
#285 = PRODUCT_RELATED_PRODUCT_CATEGORY ( 'part', '', ( #250 ) ) ;
#286 = DIMENSIONAL_EXPONENTS ( 1.000000000000000000, 0.000000000000000000, 0.000000000000000000, 0.000000000000000000, 0.000000000000000000, 0.000000000000000000, 0.000000000000000000 ) ;
#287 = PRESENTATION_LAYER_ASSIGNMENT (  '', '', ( #293 ) ) ;
#288 = MECHANICAL_DESIGN_GEOMETRIC_PRESENTATION_REPRESENTATION (  '', ( #99 ), #135 ) ;
#289 =( NAMED_UNIT ( * ) PLANE_ANGLE_UNIT ( ) SI_UNIT ( $, .RADIAN. ) );
#290 = LENGTH_MEASURE_WITH_UNIT ( LENGTH_MEASURE( 0.02539999999999999897 ), #28 );
#291 =( NAMED_UNIT ( * ) PLANE_ANGLE_UNIT ( ) SI_UNIT ( $, .RADIAN. ) );
#292 = CARTESIAN_POINT ( 'NONE',  ( 0.000000000000000000, 2.000000000000000000, 0.000000000000000000 ) ) ;
#293 = STYLED_ITEM ( 'NONE', ( #268 ), #51 ) ;
#294 = CARTESIAN_POINT ( 'NONE',  ( -0.2500000000000002220, 4.000000000000000000, 0.000000000000000000 ) ) ;
#295 = UNCERTAINTY_MEASURE_WITH_UNIT (LENGTH_MEASURE( 1.000000000000000082E-05 ), #92, 'distance_accuracy_value', 'NONE');
#296 = SURFACE_STYLE_USAGE ( .BOTH. , #177 ) ;
#297 =( GEOMETRIC_REPRESENTATION_CONTEXT ( 3 ) GLOBAL_UNCERTAINTY_ASSIGNED_CONTEXT ( ( #132 ) ) GLOBAL_UNIT_ASSIGNED_CONTEXT ( ( #8, #133, #61 ) ) REPRESENTATION_CONTEXT ( 'NONE', 'WORKASPACE' ) );
#298 = CYLINDRICAL_SURFACE ( 'NONE', #302, 0.2500000000000000000 ) ;
#299 = ADVANCED_FACE ( 'NONE', ( #38 ), #198, .T. ) ;
#300 =( NAMED_UNIT ( * ) PLANE_ANGLE_UNIT ( ) SI_UNIT ( $, .RADIAN. ) );
#301 = CYLINDRICAL_SURFACE ( 'NONE', #200, 0.2500000000000000555 ) ;
#302 = AXIS2_PLACEMENT_3D ( 'NONE', #176, #59, #37 ) ;
#303 = DIRECTION ( 'NONE',  ( -1.000000000000000000, 0.000000000000000000, 0.000000000000000000 ) ) ;
#304 = ORIENTED_EDGE ( 'NONE', *, *, #139, .F. ) ;
#305 = EDGE_LOOP ( 'NONE', ( #203, #120, #147, #24 ) ) ;
#306 = VERTEX_POINT ( 'NONE', #254 ) ;
#307 = EDGE_CURVE ( 'NONE', #308, #306, #105, .T. ) ;
#308 = VERTEX_POINT ( 'NONE', #140 ) ;
#309 = DIMENSIONAL_EXPONENTS ( 1.000000000000000000, 0.000000000000000000, 0.000000000000000000, 0.000000000000000000, 0.000000000000000000, 0.000000000000000000, 0.000000000000000000 ) ;
ENDSEC;
END-ISO-10303-21;
