ISO-10303-21;
HEADER;
FILE_DESCRIPTION (( 'STEP AP214' ),
    '1' );
FILE_NAME ('Micro_MMBM-003-3.STEP',
    '2021-09-03T16:21:27',
    ( '' ),
    ( '' ),
    'SwSTEP 2.0',
    'SolidWorks 2020',
    '' );
FILE_SCHEMA (( 'AUTOMOTIVE_DESIGN' ));
ENDSEC;

DATA;
#1 = LINE ( 'NONE', #58, #267 ) ;
#2 = CARTESIAN_POINT ( 'NONE',  ( 0.0000000000000000000, 0.0000000000000000000, 0.0000000000000000000 ) ) ;
#3 = EDGE_CURVE ( 'NONE', #342, #39, #299, .T. ) ;
#4 = DIRECTION ( 'NONE',  ( 0.0000000000000000000, 0.0000000000000000000, -1.000000000000000000 ) ) ;
#5 = ORIENTED_EDGE ( 'NONE', *, *, #150, .F. ) ;
#6 =( GEOMETRIC_REPRESENTATION_CONTEXT ( 3 ) GLOBAL_UNCERTAINTY_ASSIGNED_CONTEXT ( ( #163 ) ) GLOBAL_UNIT_ASSIGNED_CONTEXT ( ( #213, #69, #189 ) ) REPRESENTATION_CONTEXT ( 'NONE', 'WORKASPACE' ) );
#7 = DIRECTION ( 'NONE',  ( -1.000000000000000000, 0.0000000000000000000, 0.0000000000000000000 ) ) ;
#8 = ORIENTED_EDGE ( 'NONE', *, *, #87, .T. ) ;
#9 = CARTESIAN_POINT ( 'NONE',  ( 0.0000000000000000000, 0.0000000000000000000, 1.968503999999999809 ) ) ;
#10 = VERTEX_POINT ( 'NONE', #140 ) ;
#11 = CARTESIAN_POINT ( 'NONE',  ( 0.005512000000000010815, 6.990840807048919734E-19, 0.01403930022054169884 ) ) ;
#12 = DIRECTION ( 'NONE',  ( -1.000000000000000000, 0.0000000000000000000, 0.0000000000000000000 ) ) ;
#13 = ORIENTED_EDGE ( 'NONE', *, *, #254, .F. ) ;
#14 = ORIENTED_EDGE ( 'NONE', *, *, #117, .T. ) ;
#15 = ADVANCED_FACE ( 'NONE', ( #191 ), #109, .F. ) ;
#16 =( GEOMETRIC_REPRESENTATION_CONTEXT ( 3 ) GLOBAL_UNCERTAINTY_ASSIGNED_CONTEXT ( ( #291 ) ) GLOBAL_UNIT_ASSIGNED_CONTEXT ( ( #344, #76, #19 ) ) REPRESENTATION_CONTEXT ( 'NONE', 'WORKASPACE' ) );
#17 = FACE_OUTER_BOUND ( 'NONE', #160, .T. ) ;
#18 = DIRECTION ( 'NONE',  ( 1.000000000000000000, 0.0000000000000000000, -0.0000000000000000000 ) ) ;
#19 =( NAMED_UNIT ( * ) SI_UNIT ( $, .STERADIAN. ) SOLID_ANGLE_UNIT ( ) );
#20 = ORIENTED_EDGE ( 'NONE', *, *, #193, .T. ) ;
#21 = DIRECTION ( 'NONE',  ( -1.000000000000000000, 0.0000000000000000000, 0.0000000000000000000 ) ) ;
#22 = AXIS2_PLACEMENT_3D ( 'NONE', #236, #153, #296 ) ;
#23 = DIRECTION ( 'NONE',  ( -0.0000000000000000000, -0.0000000000000000000, -1.000000000000000000 ) ) ;
#24 = CARTESIAN_POINT ( 'NONE',  ( 0.0000000000000000000, 0.0000000000000000000, 1.968503999999999809 ) ) ;
#25 = FACE_OUTER_BOUND ( 'NONE', #302, .T. ) ;
#26 = VECTOR ( 'NONE', #316, 39.37007874015748143 ) ;
#27 = DIRECTION ( 'NONE',  ( -0.0000000000000000000, -0.0000000000000000000, -1.000000000000000000 ) ) ;
#28 = DIRECTION ( 'NONE',  ( -0.0000000000000000000, 0.0000000000000000000, -1.000000000000000000 ) ) ;
#29 = EDGE_CURVE ( 'NONE', #137, #228, #314, .T. ) ;
#30 = DIRECTION ( 'NONE',  ( 1.000000000000000000, 0.0000000000000000000, 0.0000000000000000000 ) ) ;
#31 = ORIENTED_EDGE ( 'NONE', *, *, #55, .F. ) ;
#32 = CARTESIAN_POINT ( 'NONE',  ( -0.005904909450000129893, 0.0000000000000000000, 0.01181100000000002287 ) ) ;
#33 = AXIS2_PLACEMENT_3D ( 'NONE', #260, #311, #43 ) ;
#34 = EDGE_LOOP ( 'NONE', ( #68, #252, #362, #166 ) ) ;
#35 = CARTESIAN_POINT ( 'NONE',  ( 0.0000000000000000000, 0.0000000000000000000, 0.01181100000000002287 ) ) ;
#36 = EDGE_LOOP ( 'NONE', ( #169, #47, #127, #372 ) ) ;
#37 = FACE_OUTER_BOUND ( 'NONE', #34, .T. ) ;
#38 = ORIENTED_EDGE ( 'NONE', *, *, #319, .T. ) ;
#39 = VERTEX_POINT ( 'NONE', #373 ) ;
#40 = AXIS2_PLACEMENT_3D ( 'NONE', #172, #377, #122 ) ;
#41 = STYLED_ITEM ( 'NONE', ( #66 ), #352 ) ;
#42 = CARTESIAN_POINT ( 'NONE',  ( -0.005512000000000010815, 0.0000000000000000000, 0.1181100000000002287 ) ) ;
#43 = DIRECTION ( 'NONE',  ( -1.000000000000000000, 0.0000000000000000000, 0.0000000000000000000 ) ) ;
#44 = FILL_AREA_STYLE ('',( #192 ) ) ;
#45 = EDGE_CURVE ( 'NONE', #375, #39, #345, .T. ) ;
#46 = FACE_BOUND ( 'NONE', #340, .T. ) ;
#47 = ORIENTED_EDGE ( 'NONE', *, *, #222, .T. ) ;
#48 = SURFACE_STYLE_FILL_AREA ( #44 ) ;
#49 = EDGE_LOOP ( 'NONE', ( #115, #226, #79, #282 ) ) ;
#50 = DIRECTION ( 'NONE',  ( -0.0000000000000000000, -0.0000000000000000000, -1.000000000000000000 ) ) ;
#51 = CARTESIAN_POINT ( 'NONE',  ( -0.005904909450000129893, 0.0000000000000000000, 0.0000000000000000000 ) ) ;
#52 = CARTESIAN_POINT ( 'NONE',  ( 0.0000000000000000000, 0.0000000000000000000, 0.0000000000000000000 ) ) ;
#53 = CIRCLE ( 'NONE', #322, 0.005904909450000129893 ) ;
#54 = FACE_OUTER_BOUND ( 'NONE', #49, .T. ) ;
#55 = EDGE_CURVE ( 'NONE', #290, #257, #317, .T. ) ;
#56 = EDGE_CURVE ( 'NONE', #244, #368, #106, .T. ) ;
#57 = DIRECTION ( 'NONE',  ( -0.0000000000000000000, -0.0000000000000000000, -1.000000000000000000 ) ) ;
#58 = CARTESIAN_POINT ( 'NONE',  ( -0.06374000000000018540, 0.0000000000000000000, 1.968503999999999809 ) ) ;
#59 = EDGE_CURVE ( 'NONE', #368, #244, #167, .T. ) ;
#60 = AXIS2_PLACEMENT_3D ( 'NONE', #149, #28, #118 ) ;
#61 = DIRECTION ( 'NONE',  ( -1.000000000000000000, 0.0000000000000000000, 0.0000000000000000000 ) ) ;
#62 = ADVANCED_FACE ( 'NONE', ( #139 ), #343, .T. ) ;
#63 = DIRECTION ( 'NONE',  ( 1.000000000000000000, 0.0000000000000000000, 0.0000000000000000000 ) ) ;
#64 = FILL_AREA_STYLE_COLOUR ( '', #249 ) ;
#65 = ORIENTED_EDGE ( 'NONE', *, *, #319, .F. ) ;
#66 = PRESENTATION_STYLE_ASSIGNMENT (( #133 ) ) ;
#67 = CONICAL_SURFACE ( 'NONE', #207, 0.005904909450000129893, 0.1745329251994324482 ) ;
#68 = ORIENTED_EDGE ( 'NONE', *, *, #222, .F. ) ;
#69 =( NAMED_UNIT ( * ) PLANE_ANGLE_UNIT ( ) SI_UNIT ( $, .RADIAN. ) );
#70 = PRODUCT_DEFINITION_CONTEXT ( 'detailed design', #124, 'design' ) ;
#71 = FILL_AREA_STYLE ('',( #64 ) ) ;
#72 = APPLICATION_PROTOCOL_DEFINITION ( 'draft international standard', 'automotive_design', 1998, #187 ) ;
#73 = EDGE_LOOP ( 'NONE', ( #38, #337 ) ) ;
#74 = VECTOR ( 'NONE', #178, 39.37007874015748143 ) ;
#75 = ADVANCED_FACE ( 'NONE', ( #46, #165 ), #326, .T. ) ;
#76 =( NAMED_UNIT ( * ) PLANE_ANGLE_UNIT ( ) SI_UNIT ( $, .RADIAN. ) );
#77 = ORIENTED_EDGE ( 'NONE', *, *, #29, .F. ) ;
#78 = DIRECTION ( 'NONE',  ( 0.0000000000000000000, 0.0000000000000000000, 1.000000000000000000 ) ) ;
#79 = ORIENTED_EDGE ( 'NONE', *, *, #131, .T. ) ;
#80 = LENGTH_MEASURE_WITH_UNIT ( LENGTH_MEASURE( 0.02539999999999999897 ), #108 );
#81 = VERTEX_POINT ( 'NONE', #234 ) ;
#82 = PRESENTATION_LAYER_ASSIGNMENT (  '', '', ( #41 ) ) ;
#83 = DIRECTION ( 'NONE',  ( 0.0000000000000000000, 0.0000000000000000000, 1.000000000000000000 ) ) ;
#84 = DIRECTION ( 'NONE',  ( -1.000000000000000000, 0.0000000000000000000, 0.0000000000000000000 ) ) ;
#85 = DIRECTION ( 'NONE',  ( -0.0000000000000000000, -0.0000000000000000000, -1.000000000000000000 ) ) ;
#86 = CIRCLE ( 'NONE', #275, 0.005512000000000010815 ) ;
#87 = EDGE_CURVE ( 'NONE', #10, #375, #1, .T. ) ;
#88 = MECHANICAL_DESIGN_GEOMETRIC_PRESENTATION_REPRESENTATION (  '', ( #41 ), #6 ) ;
#89 = DIRECTION ( 'NONE',  ( 1.000000000000000000, 0.0000000000000000000, 0.0000000000000000000 ) ) ;
#90 = CARTESIAN_POINT ( 'NONE',  ( 0.005904909450000129893, 7.231428457197616621E-19, 0.01181100000000002287 ) ) ;
#91 = DIRECTION ( 'NONE',  ( 0.0000000000000000000, 0.0000000000000000000, 1.000000000000000000 ) ) ;
#92 = FACE_OUTER_BOUND ( 'NONE', #144, .T. ) ;
#93 = CIRCLE ( 'NONE', #197, 0.005904909450000129893 ) ;
#94 = SURFACE_STYLE_FILL_AREA ( #71 ) ;
#95 = EDGE_LOOP ( 'NONE', ( #185, #97, #110, #334 ) ) ;
#96 = DIRECTION ( 'NONE',  ( -0.0000000000000000000, -0.0000000000000000000, -1.000000000000000000 ) ) ;
#97 = ORIENTED_EDGE ( 'NONE', *, *, #285, .T. ) ;
#98 = CARTESIAN_POINT ( 'NONE',  ( 0.0000000000000000000, 0.0000000000000000000, 0.0000000000000000000 ) ) ;
#99 = AXIS2_PLACEMENT_3D ( 'NONE', #277, #303, #7 ) ;
#100 = CYLINDRICAL_SURFACE ( 'NONE', #99, 0.005904909450000129893 ) ;
#101 = ORIENTED_EDGE ( 'NONE', *, *, #45, .F. ) ;
#102 = DIRECTION ( 'NONE',  ( 1.000000000000000000, 0.0000000000000000000, 0.0000000000000000000 ) ) ;
#103 = VERTEX_POINT ( 'NONE', #205 ) ;
#104 = DIRECTION ( 'NONE',  ( -0.0000000000000000000, -0.0000000000000000000, -1.000000000000000000 ) ) ;
#105 = AXIS2_PLACEMENT_3D ( 'NONE', #151, #177, #116 ) ;
#106 = CIRCLE ( 'NONE', #229, 0.005512000000000010815 ) ;
#107 =( GEOMETRIC_REPRESENTATION_CONTEXT ( 3 ) GLOBAL_UNCERTAINTY_ASSIGNED_CONTEXT ( ( #274 ) ) GLOBAL_UNIT_ASSIGNED_CONTEXT ( ( #312, #111, #227 ) ) REPRESENTATION_CONTEXT ( 'NONE', 'WORKASPACE' ) );
#108 =( LENGTH_UNIT ( ) NAMED_UNIT ( * ) SI_UNIT ( $, .METRE. ) );
#109 = PLANE ( 'NONE',  #196 ) ;
#110 = ORIENTED_EDGE ( 'NONE', *, *, #45, .T. ) ;
#111 =( NAMED_UNIT ( * ) PLANE_ANGLE_UNIT ( ) SI_UNIT ( $, .RADIAN. ) );
#112 = EDGE_LOOP ( 'NONE', ( #20, #258, #143, #190 ) ) ;
#113 = CIRCLE ( 'NONE', #240, 0.06374000000000018540 ) ;
#114 = AXIS2_PLACEMENT_3D ( 'NONE', #358, #4, #30 ) ;
#115 = ORIENTED_EDGE ( 'NONE', *, *, #147, .F. ) ;
#116 = DIRECTION ( 'NONE',  ( -1.000000000000000000, 0.0000000000000000000, 0.0000000000000000000 ) ) ;
#117 = EDGE_CURVE ( 'NONE', #39, #342, #281, .T. ) ;
#118 = DIRECTION ( 'NONE',  ( -1.000000000000000000, 0.0000000000000000000, 0.0000000000000000000 ) ) ;
#119 = AXIS2_PLACEMENT_3D ( 'NONE', #328, #57, #232 ) ;
#120 = AXIS2_PLACEMENT_3D ( 'NONE', #98, #96, #215 ) ;
#121 = CYLINDRICAL_SURFACE ( 'NONE', #119, 0.005512000000000010815 ) ;
#122 = DIRECTION ( 'NONE',  ( -1.000000000000000000, 0.0000000000000000000, 0.0000000000000000000 ) ) ;
#123 = LINE ( 'NONE', #175, #329 ) ;
#124 = APPLICATION_CONTEXT ( 'automotive_design' ) ;
#125 = AXIS2_PLACEMENT_3D ( 'NONE', #174, #27, #293 ) ;
#126 = SURFACE_SIDE_STYLE ('',( #94 ) ) ;
#127 = ORIENTED_EDGE ( 'NONE', *, *, #233, .F. ) ;
#128 = ADVANCED_FACE ( 'NONE', ( #203 ), #379, .T. ) ;
#129 = DIRECTION ( 'NONE',  ( -0.0000000000000000000, -0.0000000000000000000, -1.000000000000000000 ) ) ;
#130 = EDGE_LOOP ( 'NONE', ( #14, #284 ) ) ;
#131 = EDGE_CURVE ( 'NONE', #367, #368, #206, .T. ) ;
#132 = CARTESIAN_POINT ( 'NONE',  ( 0.0000000000000000000, 0.0000000000000000000, 0.01181100000000002287 ) ) ;
#133 = SURFACE_STYLE_USAGE ( .BOTH. , #126 ) ;
#134 = COLOUR_RGB ( '',0.7921568627450980005, 0.8196078431372548767, 0.9333333333333333481 ) ;
#135 =( LENGTH_UNIT ( ) NAMED_UNIT ( * ) SI_UNIT ( $, .METRE. ) );
#136 = ADVANCED_FACE ( 'NONE', ( #201 ), #298, .T. ) ;
#137 = VERTEX_POINT ( 'NONE', #237 ) ;
#138 = PLANE ( 'NONE',  #262 ) ;
#139 = FACE_OUTER_BOUND ( 'NONE', #159, .T. ) ;
#140 = CARTESIAN_POINT ( 'NONE',  ( -0.06374000000000018540, 0.0000000000000000000, 1.968503999999999809 ) ) ;
#141 = PRESENTATION_LAYER_ASSIGNMENT (  '', '', ( #220 ) ) ;
#142 = DIRECTION ( 'NONE',  ( 1.000000000000000000, 0.0000000000000000000, -0.0000000000000000000 ) ) ;
#143 = ORIENTED_EDGE ( 'NONE', *, *, #59, .F. ) ;
#144 = EDGE_LOOP ( 'NONE', ( #288, #157, #336, #101 ) ) ;
#145 = DIRECTION ( 'NONE',  ( -0.0000000000000000000, -0.0000000000000000000, -1.000000000000000000 ) ) ;
#146 = AXIS2_PLACEMENT_3D ( 'NONE', #250, #333, #273 ) ;
#147 = EDGE_CURVE ( 'NONE', #103, #244, #318, .T. ) ;
#148 = DIRECTION ( 'NONE',  ( -0.0000000000000000000, -0.0000000000000000000, -1.000000000000000000 ) ) ;
#149 = CARTESIAN_POINT ( 'NONE',  ( 0.005512000000000010815, 0.0000000000000000000, 0.1181100000000002287 ) ) ;
#150 = EDGE_CURVE ( 'NONE', #10, #137, #113, .T. ) ;
#151 = CARTESIAN_POINT ( 'NONE',  ( 0.0000000000000000000, 0.0000000000000000000, 1.968503999999999809 ) ) ;
#152 = CARTESIAN_POINT ( 'NONE',  ( 0.07874000000000001831, 9.642868896486260050E-18, 1.953504000000000129 ) ) ;
#153 = DIRECTION ( 'NONE',  ( -0.0000000000000000000, -0.0000000000000000000, -1.000000000000000000 ) ) ;
#154 = FACE_OUTER_BOUND ( 'NONE', #155, .T. ) ;
#155 = EDGE_LOOP ( 'NONE', ( #280, #218, #65, #31 ) ) ;
#156 = CARTESIAN_POINT ( 'NONE',  ( -0.005904909450000129893, 0.0000000000000000000, 0.0000000000000000000 ) ) ;
#157 = ORIENTED_EDGE ( 'NONE', *, *, #171, .T. ) ;
#158 = DIRECTION ( 'NONE',  ( -0.1736481776669298038, 0.0000000000000000000, -0.9848077530122082424 ) ) ;
#159 = EDGE_LOOP ( 'NONE', ( #307, #242, #216, #305 ) ) ;
#160 = EDGE_LOOP ( 'NONE', ( #259, #212 ) ) ;
#161 = CARTESIAN_POINT ( 'NONE',  ( 0.0000000000000000000, 0.0000000000000000000, 1.968503999999999809 ) ) ;
#162 = ORIENTED_EDGE ( 'NONE', *, *, #225, .F. ) ;
#163 = UNCERTAINTY_MEASURE_WITH_UNIT (LENGTH_MEASURE( 1.000000000000000082E-05 ), #213, 'distance_accuracy_value', 'NONE');
#164 = FACE_OUTER_BOUND ( 'NONE', #36, .T. ) ;
#165 = FACE_OUTER_BOUND ( 'NONE', #130, .T. ) ;
#166 = ORIENTED_EDGE ( 'NONE', *, *, #327, .F. ) ;
#167 = CIRCLE ( 'NONE', #33, 0.005512000000000010815 ) ;
#168 = CARTESIAN_POINT ( 'NONE',  ( -0.005512000000000010815, 0.0000000000000000000, 0.01403930022054169884 ) ) ;
#169 = ORIENTED_EDGE ( 'NONE', *, *, #59, .T. ) ;
#170 = CARTESIAN_POINT ( 'NONE',  ( 0.0000000000000000000, 0.0000000000000000000, 0.01403930022054169884 ) ) ;
#171 = EDGE_CURVE ( 'NONE', #228, #342, #123, .T. ) ;
#172 = CARTESIAN_POINT ( 'NONE',  ( 0.0000000000000000000, 0.0000000000000000000, 1.968503999999999809 ) ) ;
#173 = CIRCLE ( 'NONE', #219, 0.005904909450000129893 ) ;
#174 = CARTESIAN_POINT ( 'NONE',  ( 0.0000000000000000000, 0.0000000000000000000, 0.1181100000000002287 ) ) ;
#175 = CARTESIAN_POINT ( 'NONE',  ( 0.07874000000000001831, 9.642868896486260050E-18, 1.968503999999999809 ) ) ;
#176 = DIMENSIONAL_EXPONENTS ( 1.000000000000000000, 0.0000000000000000000, 0.0000000000000000000, 0.0000000000000000000, 0.0000000000000000000, 0.0000000000000000000, 0.0000000000000000000 ) ;
#177 = DIRECTION ( 'NONE',  ( -0.0000000000000000000, -0.0000000000000000000, -1.000000000000000000 ) ) ;
#178 = DIRECTION ( 'NONE',  ( 0.1736481776669298038, 2.126576849575764827E-17, -0.9848077530122082424 ) ) ;
#179 = ADVANCED_FACE ( 'NONE', ( #25 ), #315, .T. ) ;
#180 = DIRECTION ( 'NONE',  ( -0.0000000000000000000, -0.0000000000000000000, -1.000000000000000000 ) ) ;
#181 = EDGE_CURVE ( 'NONE', #137, #10, #309, .T. ) ;
#182 = CARTESIAN_POINT ( 'NONE',  ( 0.0000000000000000000, 0.0000000000000000000, 1.953504000000000129 ) ) ;
#183 = AXIS2_PLACEMENT_3D ( 'NONE', #52, #376, #61 ) ;
#184 = PRODUCT_DEFINITION_FORMATION_WITH_SPECIFIED_SOURCE ( 'ANY', '', #324, .NOT_KNOWN. ) ;
#185 = ORIENTED_EDGE ( 'NONE', *, *, #171, .F. ) ;
#186 = DIRECTION ( 'NONE',  ( -0.0000000000000000000, -0.0000000000000000000, -1.000000000000000000 ) ) ;
#187 = APPLICATION_CONTEXT ( 'automotive_design' ) ;
#188 = EDGE_LOOP ( 'NONE', ( #13, #223, #331, #278 ) ) ;
#189 =( NAMED_UNIT ( * ) SI_UNIT ( $, .STERADIAN. ) SOLID_ANGLE_UNIT ( ) );
#190 = ORIENTED_EDGE ( 'NONE', *, *, #131, .F. ) ;
#191 = FACE_OUTER_BOUND ( 'NONE', #73, .T. ) ;
#192 = FILL_AREA_STYLE_COLOUR ( '', #134 ) ;
#193 = EDGE_CURVE ( 'NONE', #367, #103, #86, .T. ) ;
#194 = DIRECTION ( 'NONE',  ( -1.000000000000000000, 0.0000000000000000000, 0.0000000000000000000 ) ) ;
#195 = CARTESIAN_POINT ( 'NONE',  ( 0.06374000000000018540, 7.805898697765251255E-18, 1.968503999999999809 ) ) ;
#196 = AXIS2_PLACEMENT_3D ( 'NONE', #231, #83, #18 ) ;
#197 = AXIS2_PLACEMENT_3D ( 'NONE', #35, #330, #241 ) ;
#198 = SURFACE_STYLE_USAGE ( .BOTH. , #224 ) ;
#199 = DIRECTION ( 'NONE',  ( -0.0000000000000000000, -0.0000000000000000000, -1.000000000000000000 ) ) ;
#200 = CARTESIAN_POINT ( 'NONE',  ( 0.0000000000000000000, 0.0000000000000000000, 1.968503999999999809 ) ) ;
#201 = FACE_OUTER_BOUND ( 'NONE', #188, .T. ) ;
#202 = AXIS2_PLACEMENT_3D ( 'NONE', #9, #129, #361 ) ;
#203 = FACE_OUTER_BOUND ( 'NONE', #95, .T. ) ;
#204 = ADVANCED_BREP_SHAPE_REPRESENTATION ( 'Micro_MMBM-003-3', ( #352, #356 ), #16 ) ;
#205 = CARTESIAN_POINT ( 'NONE',  ( 0.005512000000000010815, 6.750253156900224774E-19, 0.1181100000000002287 ) ) ;
#206 = LINE ( 'NONE', #263, #248 ) ;
#207 = AXIS2_PLACEMENT_3D ( 'NONE', #132, #50, #289 ) ;
#208 = CARTESIAN_POINT ( 'NONE',  ( 0.07874000000000001831, 9.642868896486260050E-18, 0.1181100000000002287 ) ) ;
#209 = ADVANCED_FACE ( 'NONE', ( #54 ), #121, .T. ) ;
#210 = DIRECTION ( 'NONE',  ( 0.0000000000000000000, 0.0000000000000000000, -1.000000000000000000 ) ) ;
#211 = CARTESIAN_POINT ( 'NONE',  ( 0.0000000000000000000, 0.0000000000000000000, 0.0000000000000000000 ) ) ;
#212 = ORIENTED_EDGE ( 'NONE', *, *, #181, .T. ) ;
#213 =( CONVERSION_BASED_UNIT ( 'INCH', #364 ) LENGTH_UNIT ( ) NAMED_UNIT ( #270 ) );
#214 = VERTEX_POINT ( 'NONE', #351 ) ;
#215 = DIRECTION ( 'NONE',  ( -1.000000000000000000, 0.0000000000000000000, 0.0000000000000000000 ) ) ;
#216 = ORIENTED_EDGE ( 'NONE', *, *, #271, .F. ) ;
#217 = PRODUCT_CONTEXT ( 'NONE', #187, 'mechanical' ) ;
#218 = ORIENTED_EDGE ( 'NONE', *, *, #254, .T. ) ;
#219 = AXIS2_PLACEMENT_3D ( 'NONE', #265, #353, #300 ) ;
#220 = STYLED_ITEM ( 'NONE', ( #369 ), #204 ) ;
#221 = CARTESIAN_POINT ( 'NONE',  ( 0.0000000000000000000, 0.0000000000000000000, 1.968503999999999809 ) ) ;
#222 = EDGE_CURVE ( 'NONE', #244, #214, #297, .T. ) ;
#223 = ORIENTED_EDGE ( 'NONE', *, *, #327, .T. ) ;
#224 = SURFACE_SIDE_STYLE ('',( #48 ) ) ;
#225 = EDGE_CURVE ( 'NONE', #103, #367, #294, .T. ) ;
#226 = ORIENTED_EDGE ( 'NONE', *, *, #225, .T. ) ;
#227 =( NAMED_UNIT ( * ) SI_UNIT ( $, .STERADIAN. ) SOLID_ANGLE_UNIT ( ) );
#228 = VERTEX_POINT ( 'NONE', #152 ) ;
#229 = AXIS2_PLACEMENT_3D ( 'NONE', #170, #292, #21 ) ;
#230 = CONICAL_SURFACE ( 'NONE', #146, 0.005904909450000129893, 0.1745329251994324482 ) ;
#231 = CARTESIAN_POINT ( 'NONE',  ( 0.0000000000000000000, 0.0000000000000000000, 0.0000000000000000000 ) ) ;
#232 = DIRECTION ( 'NONE',  ( -1.000000000000000000, 0.0000000000000000000, 0.0000000000000000000 ) ) ;
#233 = EDGE_CURVE ( 'NONE', #290, #214, #173, .T. ) ;
#234 = CARTESIAN_POINT ( 'NONE',  ( 0.005904909450000129893, 7.231428457197616621E-19, 0.0000000000000000000 ) ) ;
#235 = AXIS2_PLACEMENT_3D ( 'NONE', #182, #210, #63 ) ;
#236 = CARTESIAN_POINT ( 'NONE',  ( 0.0000000000000000000, 0.0000000000000000000, 0.1181100000000002287 ) ) ;
#237 = CARTESIAN_POINT ( 'NONE',  ( 0.06374000000000018540, 8.724383797125754882E-18, 1.968503999999999809 ) ) ;
#238 = CYLINDRICAL_SURFACE ( 'NONE', #202, 0.07874000000000001831 ) ;
#239 = EDGE_CURVE ( 'NONE', #81, #257, #53, .T. ) ;
#240 = AXIS2_PLACEMENT_3D ( 'NONE', #200, #269, #350 ) ;
#241 = DIRECTION ( 'NONE',  ( -1.000000000000000000, 0.0000000000000000000, 0.0000000000000000000 ) ) ;
#242 = ORIENTED_EDGE ( 'NONE', *, *, #29, .T. ) ;
#243 = FACE_OUTER_BOUND ( 'NONE', #112, .T. ) ;
#244 = VERTEX_POINT ( 'NONE', #11 ) ;
#245 =( LENGTH_UNIT ( ) NAMED_UNIT ( * ) SI_UNIT ( $, .METRE. ) );
#246 = DIMENSIONAL_EXPONENTS ( 1.000000000000000000, 0.0000000000000000000, 0.0000000000000000000, 0.0000000000000000000, 0.0000000000000000000, 0.0000000000000000000, 0.0000000000000000000 ) ;
#247 = CLOSED_SHELL ( 'NONE', ( #308, #264, #360, #62, #332, #128, #374, #179, #75, #347, #209, #136, #15 ) ) ;
#248 = VECTOR ( 'NONE', #85, 39.37007874015748143 ) ;
#249 = COLOUR_RGB ( '',0.7921568627450980005, 0.8196078431372548767, 0.9333333333333333481 ) ;
#250 = CARTESIAN_POINT ( 'NONE',  ( 0.0000000000000000000, 0.0000000000000000000, 0.01181100000000002287 ) ) ;
#251 = PRODUCT_RELATED_PRODUCT_CATEGORY ( 'part', '', ( #324 ) ) ;
#252 = ORIENTED_EDGE ( 'NONE', *, *, #56, .T. ) ;
#253 = CARTESIAN_POINT ( 'NONE',  ( 0.0000000000000000000, 0.0000000000000000000, 0.1181100000000002287 ) ) ;
#254 = EDGE_CURVE ( 'NONE', #214, #81, #301, .T. ) ;
#255 = VECTOR ( 'NONE', #23, 39.37007874015748143 ) ;
#256 = CIRCLE ( 'NONE', #120, 0.005904909450000129893 ) ;
#257 = VERTEX_POINT ( 'NONE', #156 ) ;
#258 = ORIENTED_EDGE ( 'NONE', *, *, #147, .T. ) ;
#259 = ORIENTED_EDGE ( 'NONE', *, *, #150, .T. ) ;
#260 = CARTESIAN_POINT ( 'NONE',  ( 0.0000000000000000000, 0.0000000000000000000, 0.01403930022054169884 ) ) ;
#261 = AXIS2_PLACEMENT_3D ( 'NONE', #253, #145, #194 ) ;
#262 = AXIS2_PLACEMENT_3D ( 'NONE', #161, #78, #142 ) ;
#263 = CARTESIAN_POINT ( 'NONE',  ( -0.005512000000000010815, 0.0000000000000000000, 0.0000000000000000000 ) ) ;
#264 = ADVANCED_FACE ( 'NONE', ( #243 ), #354, .T. ) ;
#265 = CARTESIAN_POINT ( 'NONE',  ( 0.0000000000000000000, 0.0000000000000000000, 0.01181100000000002287 ) ) ;
#266 = DIRECTION ( 'NONE',  ( -1.000000000000000000, 0.0000000000000000000, 0.0000000000000000000 ) ) ;
#267 = VECTOR ( 'NONE', #348, 39.37007874015748143 ) ;
#268 = AXIS2_PLACEMENT_3D ( 'NONE', #211, #180, #12 ) ;
#269 = DIRECTION ( 'NONE',  ( 0.0000000000000000000, 0.0000000000000000000, 1.000000000000000000 ) ) ;
#270 = DIMENSIONAL_EXPONENTS ( 1.000000000000000000, 0.0000000000000000000, 0.0000000000000000000, 0.0000000000000000000, 0.0000000000000000000, 0.0000000000000000000, 0.0000000000000000000 ) ;
#271 = EDGE_CURVE ( 'NONE', #375, #228, #323, .T. ) ;
#272 = CARTESIAN_POINT ( 'NONE',  ( 0.005512000000000010815, 6.750253156900224774E-19, 0.0000000000000000000 ) ) ;
#273 = DIRECTION ( 'NONE',  ( -1.000000000000000000, 0.0000000000000000000, 0.0000000000000000000 ) ) ;
#274 = UNCERTAINTY_MEASURE_WITH_UNIT (LENGTH_MEASURE( 1.000000000000000082E-05 ), #312, 'distance_accuracy_value', 'NONE');
#275 = AXIS2_PLACEMENT_3D ( 'NONE', #325, #148, #266 ) ;
#276 = VECTOR ( 'NONE', #158, 39.37007874015748143 ) ;
#277 = CARTESIAN_POINT ( 'NONE',  ( 0.0000000000000000000, 0.0000000000000000000, 0.0000000000000000000 ) ) ;
#278 = ORIENTED_EDGE ( 'NONE', *, *, #239, .F. ) ;
#279 = CARTESIAN_POINT ( 'NONE',  ( 0.005904909450000129893, 7.231428457197616621E-19, 0.0000000000000000000 ) ) ;
#280 = ORIENTED_EDGE ( 'NONE', *, *, #233, .T. ) ;
#281 = CIRCLE ( 'NONE', #22, 0.07874000000000001831 ) ;
#282 = ORIENTED_EDGE ( 'NONE', *, *, #56, .F. ) ;
#283 = CARTESIAN_POINT ( 'NONE',  ( -0.07874000000000001831, 0.0000000000000000000, 1.968503999999999809 ) ) ;
#284 = ORIENTED_EDGE ( 'NONE', *, *, #3, .T. ) ;
#285 = EDGE_CURVE ( 'NONE', #228, #375, #365, .T. ) ;
#286 = AXIS2_PLACEMENT_3D ( 'NONE', #221, #339, #313 ) ;
#287 = DIRECTION ( 'NONE',  ( 0.0000000000000000000, 0.0000000000000000000, 1.000000000000000000 ) ) ;
#288 = ORIENTED_EDGE ( 'NONE', *, *, #271, .T. ) ;
#289 = DIRECTION ( 'NONE',  ( -1.000000000000000000, 0.0000000000000000000, 0.0000000000000000000 ) ) ;
#290 = VERTEX_POINT ( 'NONE', #306 ) ;
#291 = UNCERTAINTY_MEASURE_WITH_UNIT (LENGTH_MEASURE( 1.000000000000000082E-05 ), #344, 'distance_accuracy_value', 'NONE');
#292 = DIRECTION ( 'NONE',  ( -0.0000000000000000000, -0.0000000000000000000, -1.000000000000000000 ) ) ;
#293 = DIRECTION ( 'NONE',  ( -1.000000000000000000, 0.0000000000000000000, 0.0000000000000000000 ) ) ;
#294 = CIRCLE ( 'NONE', #125, 0.005512000000000010815 ) ;
#295 = EDGE_CURVE ( 'NONE', #368, #290, #304, .T. ) ;
#296 = DIRECTION ( 'NONE',  ( -1.000000000000000000, 0.0000000000000000000, 0.0000000000000000000 ) ) ;
#297 = LINE ( 'NONE', #90, #74 ) ;
#298 = CYLINDRICAL_SURFACE ( 'NONE', #183, 0.005904909450000129893 ) ;
#299 = CIRCLE ( 'NONE', #261, 0.07874000000000001831 ) ;
#300 = DIRECTION ( 'NONE',  ( -1.000000000000000000, 0.0000000000000000000, 0.0000000000000000000 ) ) ;
#301 = LINE ( 'NONE', #279, #320 ) ;
#302 = EDGE_LOOP ( 'NONE', ( #77, #5, #8, #370 ) ) ;
#303 = DIRECTION ( 'NONE',  ( -0.0000000000000000000, -0.0000000000000000000, -1.000000000000000000 ) ) ;
#304 = LINE ( 'NONE', #32, #276 ) ;
#305 = ORIENTED_EDGE ( 'NONE', *, *, #87, .F. ) ;
#306 = CARTESIAN_POINT ( 'NONE',  ( -0.005904909450000129893, 0.0000000000000000000, 0.01181100000000002287 ) ) ;
#307 = ORIENTED_EDGE ( 'NONE', *, *, #181, .F. ) ;
#308 = ADVANCED_FACE ( 'NONE', ( #154 ), #100, .T. ) ;
#309 = CIRCLE ( 'NONE', #355, 0.06374000000000018540 ) ;
#310 = SHAPE_DEFINITION_REPRESENTATION ( #363, #204 ) ;
#311 = DIRECTION ( 'NONE',  ( -0.0000000000000000000, -0.0000000000000000000, -1.000000000000000000 ) ) ;
#312 =( CONVERSION_BASED_UNIT ( 'INCH', #80 ) LENGTH_UNIT ( ) NAMED_UNIT ( #176 ) );
#313 = DIRECTION ( 'NONE',  ( -1.000000000000000000, 0.0000000000000000000, 0.0000000000000000000 ) ) ;
#314 = LINE ( 'NONE', #195, #26 ) ;
#315 = CONICAL_SURFACE ( 'NONE', #40, 0.06374000000000018540, 0.7853981633974528309 ) ;
#316 = DIRECTION ( 'NONE',  ( 0.7071067811865507924, 8.659560562354973534E-17, -0.7071067811865443531 ) ) ;
#317 = LINE ( 'NONE', #51, #378 ) ;
#318 = LINE ( 'NONE', #272, #255 ) ;
#319 = EDGE_CURVE ( 'NONE', #257, #81, #256, .T. ) ;
#320 = VECTOR ( 'NONE', #186, 39.37007874015748143 ) ;
#321 = DIRECTION ( 'NONE',  ( -0.0000000000000000000, -0.0000000000000000000, -1.000000000000000000 ) ) ;
#322 = AXIS2_PLACEMENT_3D ( 'NONE', #2, #346, #84 ) ;
#323 = CIRCLE ( 'NONE', #114, 0.07874000000000001831 ) ;
#324 = PRODUCT ( 'Micro_MMBM-003-3', 'Micro_MMBM-003-3', '', ( #217 ) ) ;
#325 = CARTESIAN_POINT ( 'NONE',  ( 0.0000000000000000000, 0.0000000000000000000, 0.1181100000000002287 ) ) ;
#326 = PLANE ( 'NONE',  #60 ) ;
#327 = EDGE_CURVE ( 'NONE', #214, #290, #93, .T. ) ;
#328 = CARTESIAN_POINT ( 'NONE',  ( 0.0000000000000000000, 0.0000000000000000000, 0.0000000000000000000 ) ) ;
#329 = VECTOR ( 'NONE', #321, 39.37007874015748143 ) ;
#330 = DIRECTION ( 'NONE',  ( -0.0000000000000000000, -0.0000000000000000000, -1.000000000000000000 ) ) ;
#331 = ORIENTED_EDGE ( 'NONE', *, *, #55, .T. ) ;
#332 = ADVANCED_FACE ( 'NONE', ( #92 ), #238, .T. ) ;
#333 = DIRECTION ( 'NONE',  ( -0.0000000000000000000, -0.0000000000000000000, -1.000000000000000000 ) ) ;
#334 = ORIENTED_EDGE ( 'NONE', *, *, #3, .F. ) ;
#335 = MECHANICAL_DESIGN_GEOMETRIC_PRESENTATION_REPRESENTATION (  '', ( #220 ), #107 ) ;
#336 = ORIENTED_EDGE ( 'NONE', *, *, #117, .F. ) ;
#337 = ORIENTED_EDGE ( 'NONE', *, *, #239, .T. ) ;
#338 = APPLICATION_PROTOCOL_DEFINITION ( 'draft international standard', 'automotive_design', 1998, #124 ) ;
#339 = DIRECTION ( 'NONE',  ( 0.0000000000000000000, 0.0000000000000000000, -1.000000000000000000 ) ) ;
#340 = EDGE_LOOP ( 'NONE', ( #359, #162 ) ) ;
#341 = LENGTH_MEASURE_WITH_UNIT ( LENGTH_MEASURE( 0.02539999999999999897 ), #135 );
#342 = VERTEX_POINT ( 'NONE', #208 ) ;
#343 = CONICAL_SURFACE ( 'NONE', #286, 0.06374000000000018540, 0.7853981633974528309 ) ;
#344 =( CONVERSION_BASED_UNIT ( 'INCH', #341 ) LENGTH_UNIT ( ) NAMED_UNIT ( #246 ) );
#345 = LINE ( 'NONE', #283, #349 ) ;
#346 = DIRECTION ( 'NONE',  ( -0.0000000000000000000, -0.0000000000000000000, -1.000000000000000000 ) ) ;
#347 = ADVANCED_FACE ( 'NONE', ( #37 ), #230, .T. ) ;
#348 = DIRECTION ( 'NONE',  ( -0.7071067811865507924, 0.0000000000000000000, -0.7071067811865443531 ) ) ;
#349 = VECTOR ( 'NONE', #199, 39.37007874015748143 ) ;
#350 = DIRECTION ( 'NONE',  ( 1.000000000000000000, 0.0000000000000000000, 0.0000000000000000000 ) ) ;
#351 = CARTESIAN_POINT ( 'NONE',  ( 0.005904909450000129893, 7.231428457197616621E-19, 0.01181100000000002287 ) ) ;
#352 = MANIFOLD_SOLID_BREP ( 'Cut-Revolve1', #247 ) ;
#353 = DIRECTION ( 'NONE',  ( -0.0000000000000000000, -0.0000000000000000000, -1.000000000000000000 ) ) ;
#354 = CYLINDRICAL_SURFACE ( 'NONE', #268, 0.005512000000000010815 ) ;
#355 = AXIS2_PLACEMENT_3D ( 'NONE', #24, #91, #89 ) ;
#356 = AXIS2_PLACEMENT_3D ( 'NONE', #366, #287, #102 ) ;
#357 = PRODUCT_DEFINITION ( 'UNKNOWN', '', #184, #70 ) ;
#358 = CARTESIAN_POINT ( 'NONE',  ( 0.0000000000000000000, 0.0000000000000000000, 1.953504000000000129 ) ) ;
#359 = ORIENTED_EDGE ( 'NONE', *, *, #193, .F. ) ;
#360 = ADVANCED_FACE ( 'NONE', ( #164 ), #67, .T. ) ;
#361 = DIRECTION ( 'NONE',  ( -1.000000000000000000, 0.0000000000000000000, 0.0000000000000000000 ) ) ;
#362 = ORIENTED_EDGE ( 'NONE', *, *, #295, .T. ) ;
#363 = PRODUCT_DEFINITION_SHAPE ( 'NONE', 'NONE',  #357 ) ;
#364 = LENGTH_MEASURE_WITH_UNIT ( LENGTH_MEASURE( 0.02539999999999999897 ), #245 );
#365 = CIRCLE ( 'NONE', #235, 0.07874000000000001831 ) ;
#366 = CARTESIAN_POINT ( 'NONE',  ( 0.0000000000000000000, 0.0000000000000000000, 0.0000000000000000000 ) ) ;
#367 = VERTEX_POINT ( 'NONE', #42 ) ;
#368 = VERTEX_POINT ( 'NONE', #168 ) ;
#369 = PRESENTATION_STYLE_ASSIGNMENT (( #198 ) ) ;
#370 = ORIENTED_EDGE ( 'NONE', *, *, #285, .F. ) ;
#371 = CARTESIAN_POINT ( 'NONE',  ( -0.07874000000000001831, 0.0000000000000000000, 1.953504000000000129 ) ) ;
#372 = ORIENTED_EDGE ( 'NONE', *, *, #295, .F. ) ;
#373 = CARTESIAN_POINT ( 'NONE',  ( -0.07874000000000001831, 0.0000000000000000000, 0.1181100000000002287 ) ) ;
#374 = ADVANCED_FACE ( 'NONE', ( #17 ), #138, .T. ) ;
#375 = VERTEX_POINT ( 'NONE', #371 ) ;
#376 = DIRECTION ( 'NONE',  ( -0.0000000000000000000, -0.0000000000000000000, -1.000000000000000000 ) ) ;
#377 = DIRECTION ( 'NONE',  ( 0.0000000000000000000, 0.0000000000000000000, -1.000000000000000000 ) ) ;
#378 = VECTOR ( 'NONE', #104, 39.37007874015748143 ) ;
#379 = CYLINDRICAL_SURFACE ( 'NONE', #105, 0.07874000000000001831 ) ;
ENDSEC;
END-ISO-10303-21;
