ISO-10303-21;
HEADER;
FILE_DESCRIPTION (( 'STEP AP214' ),
    '1' );
FILE_NAME ('Micro_GEM-093-4.STEP',
    '2021-09-01T19:20:14',
    ( '' ),
    ( '' ),
    'SwSTEP 2.0',
    'SolidWorks 2020',
    '' );
FILE_SCHEMA (( 'AUTOMOTIVE_DESIGN' ));
ENDSEC;

DATA;
#1 = LINE ( 'NONE', #175, #212 ) ;
#2 = AXIS2_PLACEMENT_3D ( 'NONE', #163, #49, #176 ) ;
#3 = EDGE_LOOP ( 'NONE', ( #61, #201, #289, #66 ) ) ;
#4 = DIRECTION ( 'NONE',  ( -1.224646799147353700E-16, -0.0000000000000000000, -1.000000000000000000 ) ) ;
#5 = ORIENTED_EDGE ( 'NONE', *, *, #202, .T. ) ;
#6 = CONICAL_SURFACE ( 'NONE', #2, 0.04750000000000064587, 0.7853981633974466137 ) ;
#7 = DIRECTION ( 'NONE',  ( 0.0000000000000000000, 0.0000000000000000000, 1.000000000000000000 ) ) ;
#8 = CARTESIAN_POINT ( 'NONE',  ( 0.06250000000000008327, 7.654042494670966789E-18, 0.4637379795033760299 ) ) ;
#9 = CARTESIAN_POINT ( 'NONE',  ( 0.0000000000000000000, 0.0000000000000000000, 1.500000000000000222 ) ) ;
#10 = DIMENSIONAL_EXPONENTS ( 1.000000000000000000, 0.0000000000000000000, 0.0000000000000000000, 0.0000000000000000000, 0.0000000000000000000, 0.0000000000000000000, 0.0000000000000000000 ) ;
#11 = CIRCLE ( 'NONE', #285, 0.04750000000000064587 ) ;
#12 = DIRECTION ( 'NONE',  ( -1.000000000000000000, 0.0000000000000000000, 1.224646799147353700E-16 ) ) ;
#13 = SURFACE_STYLE_FILL_AREA ( #195 ) ;
#14 = VERTEX_POINT ( 'NONE', #180 ) ;
#15 = CONICAL_SURFACE ( 'NONE', #294, 0.04750000000000064587, 0.7853981633974466137 ) ;
#16 =( LENGTH_UNIT ( ) NAMED_UNIT ( * ) SI_UNIT ( $, .METRE. ) );
#17 =( NAMED_UNIT ( * ) PLANE_ANGLE_UNIT ( ) SI_UNIT ( $, .RADIAN. ) );
#18 = ORIENTED_EDGE ( 'NONE', *, *, #279, .F. ) ;
#19 = ADVANCED_FACE ( 'NONE', ( #24 ), #6, .T. ) ;
#20 = SURFACE_SIDE_STYLE ('',( #149 ) ) ;
#21 = EDGE_LOOP ( 'NONE', ( #237, #298, #194, #18 ) ) ;
#22 = ORIENTED_EDGE ( 'NONE', *, *, #255, .T. ) ;
#23 = EDGE_CURVE ( 'NONE', #291, #89, #1, .T. ) ;
#24 = FACE_OUTER_BOUND ( 'NONE', #244, .T. ) ;
#25 = LINE ( 'NONE', #118, #157 ) ;
#26 = ORIENTED_EDGE ( 'NONE', *, *, #64, .T. ) ;
#27 = ORIENTED_EDGE ( 'NONE', *, *, #93, .T. ) ;
#28 = DIRECTION ( 'NONE',  ( 0.0000000000000000000, 0.0000000000000000000, -1.000000000000000000 ) ) ;
#29 = CARTESIAN_POINT ( 'NONE',  ( 0.0000000000000000000, 0.0000000000000000000, 1.500000000000000222 ) ) ;
#30 = FACE_OUTER_BOUND ( 'NONE', #241, .T. ) ;
#31 = LINE ( 'NONE', #164, #184 ) ;
#32 = DIRECTION ( 'NONE',  ( 1.000000000000000000, 0.0000000000000000000, 0.0000000000000000000 ) ) ;
#33 = CIRCLE ( 'NONE', #296, 0.06250000000000002776 ) ;
#34 = DIRECTION ( 'NONE',  ( -1.000000000000000000, 0.0000000000000000000, 0.0000000000000000000 ) ) ;
#35 = FILL_AREA_STYLE_COLOUR ( '', #48 ) ;
#36 = VERTEX_POINT ( 'NONE', #265 ) ;
#37 = ORIENTED_EDGE ( 'NONE', *, *, #116, .T. ) ;
#38 = CARTESIAN_POINT ( 'NONE',  ( 5.679152322418705982E-17, 0.0000000000000000000, 0.4637379795033760299 ) ) ;
#39 = FACE_OUTER_BOUND ( 'NONE', #21, .T. ) ;
#40 = ADVANCED_FACE ( 'NONE', ( #39 ), #15, .T. ) ;
#41 =( CONVERSION_BASED_UNIT ( 'INCH', #181 ) LENGTH_UNIT ( ) NAMED_UNIT ( #10 ) );
#42 = EDGE_LOOP ( 'NONE', ( #109, #5, #117, #140 ) ) ;
#43 = CARTESIAN_POINT ( 'NONE',  ( 7.026839507303433011E-34, 0.0000000000000000000, 5.737849894513087439E-18 ) ) ;
#44 = CARTESIAN_POINT ( 'NONE',  ( -0.06250000000000002776, 0.0000000000000000000, 1.485000000000000764 ) ) ;
#45 = VECTOR ( 'NONE', #174, 39.37007874015748854 ) ;
#46 = AXIS2_PLACEMENT_3D ( 'NONE', #235, #230, #75 ) ;
#47 = ADVANCED_FACE ( 'NONE', ( #228 ), #71, .T. ) ;
#48 = COLOUR_RGB ( '',0.7921568627450980005, 0.8196078431372548767, 0.9333333333333333481 ) ;
#49 = DIRECTION ( 'NONE',  ( 0.0000000000000000000, 0.0000000000000000000, -1.000000000000000000 ) ) ;
#50 = CARTESIAN_POINT ( 'NONE',  ( -0.04685309999999995312, 5.737849894513085128E-18, 0.3750000000000000555 ) ) ;
#51 = CARTESIAN_POINT ( 'NONE',  ( 0.0000000000000000000, 0.0000000000000000000, 0.0000000000000000000 ) ) ;
#52 = VECTOR ( 'NONE', #127, 39.37007874015747433 ) ;
#53 = CARTESIAN_POINT ( 'NONE',  ( 4.592425496802576684E-17, 0.0000000000000000000, 0.3750000000000000555 ) ) ;
#54 = CARTESIAN_POINT ( 'NONE',  ( 0.0000000000000000000, 0.0000000000000000000, 1.500000000000000222 ) ) ;
#55 = UNCERTAINTY_MEASURE_WITH_UNIT (LENGTH_MEASURE( 1.000000000000000082E-05 ), #41, 'distance_accuracy_value', 'NONE');
#56 = DIRECTION ( 'NONE',  ( 1.000000000000000000, 0.0000000000000000000, 0.0000000000000000000 ) ) ;
#57 = APPLICATION_PROTOCOL_DEFINITION ( 'draft international standard', 'automotive_design', 1998, #287 ) ;
#58 = ORIENTED_EDGE ( 'NONE', *, *, #209, .F. ) ;
#59 = DIRECTION ( 'NONE',  ( 1.000000000000000000, 0.0000000000000000000, 0.0000000000000000000 ) ) ;
#60 = AXIS2_PLACEMENT_3D ( 'NONE', #9, #249, #252 ) ;
#61 = ORIENTED_EDGE ( 'NONE', *, *, #153, .F. ) ;
#62 = ORIENTED_EDGE ( 'NONE', *, *, #299, .T. ) ;
#63 = CARTESIAN_POINT ( 'NONE',  ( 0.04685310000000004332, 0.0000000000000000000, 0.3750000000000000555 ) ) ;
#64 = EDGE_CURVE ( 'NONE', #133, #121, #122, .T. ) ;
#65 = DIRECTION ( 'NONE',  ( -1.000000000000000000, 0.0000000000000000000, 1.224646799147353700E-16 ) ) ;
#66 = ORIENTED_EDGE ( 'NONE', *, *, #64, .F. ) ;
#67 = EDGE_CURVE ( 'NONE', #248, #36, #171, .T. ) ;
#68 = CLOSED_SHELL ( 'NONE', ( #276, #166, #19, #196, #173, #192, #40, #47, #158, #227 ) ) ;
#69 = DIRECTION ( 'NONE',  ( 1.224646799147353700E-16, 0.0000000000000000000, 1.000000000000000000 ) ) ;
#70 = ORIENTED_EDGE ( 'NONE', *, *, #128, .T. ) ;
#71 = CONICAL_SURFACE ( 'NONE', #139, 0.04685310000000000169, 0.1745329251994338915 ) ;
#72 = MECHANICAL_DESIGN_GEOMETRIC_PRESENTATION_REPRESENTATION (  '', ( #242 ), #98 ) ;
#73 = DIRECTION ( 'NONE',  ( -1.224646799147353700E-16, -0.0000000000000000000, -1.000000000000000000 ) ) ;
#74 = DIMENSIONAL_EXPONENTS ( 1.000000000000000000, 0.0000000000000000000, 0.0000000000000000000, 0.0000000000000000000, 0.0000000000000000000, 0.0000000000000000000, 0.0000000000000000000 ) ;
#75 = DIRECTION ( 'NONE',  ( 1.000000000000000000, 0.0000000000000000000, 0.0000000000000000000 ) ) ;
#76 = CARTESIAN_POINT ( 'NONE',  ( 0.0000000000000000000, 0.0000000000000000000, 1.485000000000000764 ) ) ;
#77 = CIRCLE ( 'NONE', #219, 0.06250000000000002776 ) ;
#78 =( GEOMETRIC_REPRESENTATION_CONTEXT ( 3 ) GLOBAL_UNCERTAINTY_ASSIGNED_CONTEXT ( ( #55 ) ) GLOBAL_UNIT_ASSIGNED_CONTEXT ( ( #41, #268, #224 ) ) REPRESENTATION_CONTEXT ( 'NONE', 'WORKASPACE' ) );
#79 = CARTESIAN_POINT ( 'NONE',  ( 0.0000000000000000000, 0.0000000000000000000, 0.0000000000000000000 ) ) ;
#80 = CARTESIAN_POINT ( 'NONE',  ( 0.04685310000000000169, 5.737849894513085128E-18, 0.0000000000000000000 ) ) ;
#81 = FACE_OUTER_BOUND ( 'NONE', #161, .T. ) ;
#82 = AXIS2_PLACEMENT_3D ( 'NONE', #29, #275, #189 ) ;
#83 = CARTESIAN_POINT ( 'NONE',  ( -0.06249999999999996531, 0.0000000000000000000, 0.4637379795033760299 ) ) ;
#84 = CYLINDRICAL_SURFACE ( 'NONE', #247, 0.04685310000000000169 ) ;
#85 = LENGTH_MEASURE_WITH_UNIT ( LENGTH_MEASURE( 0.02539999999999999897 ), #218 );
#86 = CIRCLE ( 'NONE', #162, 0.06250000000000002776 ) ;
#87 = DIRECTION ( 'NONE',  ( 0.0000000000000000000, 0.0000000000000000000, -1.000000000000000000 ) ) ;
#88 = MECHANICAL_DESIGN_GEOMETRIC_PRESENTATION_REPRESENTATION (  '', ( #257 ), #78 ) ;
#89 = VERTEX_POINT ( 'NONE', #44 ) ;
#90 = ORIENTED_EDGE ( 'NONE', *, *, #220, .T. ) ;
#91 = AXIS2_PLACEMENT_3D ( 'NONE', #126, #73, #277 ) ;
#92 = DIRECTION ( 'NONE',  ( -0.0000000000000000000, -0.0000000000000000000, -1.000000000000000000 ) ) ;
#93 = EDGE_CURVE ( 'NONE', #89, #295, #25, .T. ) ;
#94 = EDGE_LOOP ( 'NONE', ( #141, #207, #70, #159 ) ) ;
#95 = DIRECTION ( 'NONE',  ( 0.1736481776669313859, 0.0000000000000000000, 0.9848077530122077983 ) ) ;
#96 = LINE ( 'NONE', #185, #214 ) ;
#97 = CIRCLE ( 'NONE', #82, 0.04750000000000064587 ) ;
#98 =( GEOMETRIC_REPRESENTATION_CONTEXT ( 3 ) GLOBAL_UNCERTAINTY_ASSIGNED_CONTEXT ( ( #102 ) ) GLOBAL_UNIT_ASSIGNED_CONTEXT ( ( #259, #293, #154 ) ) REPRESENTATION_CONTEXT ( 'NONE', 'WORKASPACE' ) );
#99 = DIRECTION ( 'NONE',  ( -0.0000000000000000000, -0.0000000000000000000, -1.000000000000000000 ) ) ;
#100 = CARTESIAN_POINT ( 'NONE',  ( 0.0000000000000000000, 0.0000000000000000000, 1.500000000000000222 ) ) ;
#101 = DIRECTION ( 'NONE',  ( -1.224646799147353700E-16, -0.0000000000000000000, -1.000000000000000000 ) ) ;
#102 = UNCERTAINTY_MEASURE_WITH_UNIT (LENGTH_MEASURE( 1.000000000000000082E-05 ), #259, 'distance_accuracy_value', 'NONE');
#103 = VECTOR ( 'NONE', #269, 39.37007874015748143 ) ;
#104 = EDGE_CURVE ( 'NONE', #133, #248, #178, .T. ) ;
#105 = DIRECTION ( 'NONE',  ( -0.0000000000000000000, -0.0000000000000000000, -1.000000000000000000 ) ) ;
#106 = DIRECTION ( 'NONE',  ( 1.000000000000000000, 0.0000000000000000000, 0.0000000000000000000 ) ) ;
#107 = UNCERTAINTY_MEASURE_WITH_UNIT (LENGTH_MEASURE( 1.000000000000000082E-05 ), #290, 'distance_accuracy_value', 'NONE');
#108 = SURFACE_SIDE_STYLE ('',( #13 ) ) ;
#109 = ORIENTED_EDGE ( 'NONE', *, *, #134, .T. ) ;
#110 = AXIS2_PLACEMENT_3D ( 'NONE', #51, #250, #12 ) ;
#111 = PRESENTATION_LAYER_ASSIGNMENT (  '', '', ( #242 ) ) ;
#112 = ORIENTED_EDGE ( 'NONE', *, *, #23, .F. ) ;
#113 = PRESENTATION_STYLE_ASSIGNMENT (( #197 ) ) ;
#114 = ORIENTED_EDGE ( 'NONE', *, *, #153, .T. ) ;
#115 = AXIS2_PLACEMENT_3D ( 'NONE', #43, #4, #278 ) ;
#116 = EDGE_CURVE ( 'NONE', #36, #248, #131, .T. ) ;
#117 = ORIENTED_EDGE ( 'NONE', *, *, #142, .F. ) ;
#118 = CARTESIAN_POINT ( 'NONE',  ( -0.06250000000000002776, 0.0000000000000000000, 1.500000000000000222 ) ) ;
#119 = EDGE_CURVE ( 'NONE', #14, #295, #186, .T. ) ;
#120 = VECTOR ( 'NONE', #95, 39.37007874015748143 ) ;
#121 = VERTEX_POINT ( 'NONE', #8 ) ;
#122 = LINE ( 'NONE', #63, #120 ) ;
#123 = CARTESIAN_POINT ( 'NONE',  ( 7.026839507303433011E-34, 0.0000000000000000000, 5.737849894513087439E-18 ) ) ;
#124 = ADVANCED_BREP_SHAPE_REPRESENTATION ( 'Micro_GEM-093-4', ( #281, #177 ), #200 ) ;
#125 = CARTESIAN_POINT ( 'NONE',  ( 4.592425496802576684E-17, 0.0000000000000000000, 0.3750000000000000555 ) ) ;
#126 = CARTESIAN_POINT ( 'NONE',  ( 4.592425496802576684E-17, 0.0000000000000000000, 0.3750000000000000555 ) ) ;
#127 = DIRECTION ( 'NONE',  ( -0.1736481776669311916, 2.126576849575783316E-17, 0.9848077530122080203 ) ) ;
#128 = EDGE_CURVE ( 'NONE', #14, #36, #31, .T. ) ;
#129 = DIRECTION ( 'NONE',  ( 0.0000000000000000000, 0.0000000000000000000, 1.000000000000000000 ) ) ;
#130 = CARTESIAN_POINT ( 'NONE',  ( 0.0000000000000000000, 0.0000000000000000000, 1.500000000000000222 ) ) ;
#131 = CIRCLE ( 'NONE', #115, 0.04685310000000000169 ) ;
#132 = DIRECTION ( 'NONE',  ( -1.224646799147353700E-16, -0.0000000000000000000, -1.000000000000000000 ) ) ;
#133 = VERTEX_POINT ( 'NONE', #213 ) ;
#134 = EDGE_CURVE ( 'NONE', #89, #137, #77, .T. ) ;
#135 = ORIENTED_EDGE ( 'NONE', *, *, #128, .F. ) ;
#136 = EDGE_LOOP ( 'NONE', ( #37, #148 ) ) ;
#137 = VERTEX_POINT ( 'NONE', #143 ) ;
#138 = DIRECTION ( 'NONE',  ( 1.000000000000000000, 0.0000000000000000000, 0.0000000000000000000 ) ) ;
#139 = AXIS2_PLACEMENT_3D ( 'NONE', #225, #69, #160 ) ;
#140 = ORIENTED_EDGE ( 'NONE', *, *, #93, .F. ) ;
#141 = ORIENTED_EDGE ( 'NONE', *, *, #104, .F. ) ;
#142 = EDGE_CURVE ( 'NONE', #295, #121, #267, .T. ) ;
#143 = CARTESIAN_POINT ( 'NONE',  ( 0.06250000000000002776, 7.654042494670959086E-18, 1.485000000000000764 ) ) ;
#144 = FACE_OUTER_BOUND ( 'NONE', #3, .T. ) ;
#145 = FACE_OUTER_BOUND ( 'NONE', #94, .T. ) ;
#146 = PLANE ( 'NONE',  #190 ) ;
#147 = FACE_OUTER_BOUND ( 'NONE', #223, .T. ) ;
#148 = ORIENTED_EDGE ( 'NONE', *, *, #67, .T. ) ;
#149 = SURFACE_STYLE_FILL_AREA ( #288 ) ;
#150 = AXIS2_PLACEMENT_3D ( 'NONE', #130, #105, #34 ) ;
#151 = CARTESIAN_POINT ( 'NONE',  ( -0.04750000000000064587, 0.0000000000000000000, 1.500000000000000222 ) ) ;
#152 = VERTEX_POINT ( 'NONE', #165 ) ;
#153 = EDGE_CURVE ( 'NONE', #14, #133, #262, .T. ) ;
#154 =( NAMED_UNIT ( * ) SI_UNIT ( $, .STERADIAN. ) SOLID_ANGLE_UNIT ( ) );
#155 = APPLICATION_CONTEXT ( 'automotive_design' ) ;
#156 = ORIENTED_EDGE ( 'NONE', *, *, #202, .F. ) ;
#157 = VECTOR ( 'NONE', #92, 39.37007874015748143 ) ;
#158 = ADVANCED_FACE ( 'NONE', ( #145 ), #216, .T. ) ;
#159 = ORIENTED_EDGE ( 'NONE', *, *, #67, .F. ) ;
#160 = DIRECTION ( 'NONE',  ( 1.000000000000000000, 0.0000000000000000000, 0.0000000000000000000 ) ) ;
#161 = EDGE_LOOP ( 'NONE', ( #114, #243, #226, #135 ) ) ;
#162 = AXIS2_PLACEMENT_3D ( 'NONE', #217, #87, #59 ) ;
#163 = CARTESIAN_POINT ( 'NONE',  ( 0.0000000000000000000, 0.0000000000000000000, 1.500000000000000222 ) ) ;
#164 = CARTESIAN_POINT ( 'NONE',  ( -0.04685310000000000169, 0.0000000000000000000, 5.737849894513087439E-18 ) ) ;
#165 = CARTESIAN_POINT ( 'NONE',  ( 0.04750000000000064587, 6.735557395310483192E-18, 1.500000000000000222 ) ) ;
#166 = ADVANCED_FACE ( 'NONE', ( #144 ), #238, .T. ) ;
#167 = DIRECTION ( 'NONE',  ( -1.000000000000000000, 0.0000000000000000000, 0.0000000000000000000 ) ) ;
#168 = AXIS2_PLACEMENT_3D ( 'NONE', #123, #266, #65 ) ;
#169 = CYLINDRICAL_SURFACE ( 'NONE', #251, 0.06250000000000002776 ) ;
#170 = LINE ( 'NONE', #256, #45 ) ;
#171 = CIRCLE ( 'NONE', #168, 0.04685310000000000169 ) ;
#172 = CARTESIAN_POINT ( 'NONE',  ( 0.0000000000000000000, 0.0000000000000000000, 0.0000000000000000000 ) ) ;
#173 = ADVANCED_FACE ( 'NONE', ( #147 ), #169, .T. ) ;
#174 = DIRECTION ( 'NONE',  ( 0.7071067811865462405, 8.659560562354916834E-17, -0.7071067811865486830 ) ) ;
#175 = CARTESIAN_POINT ( 'NONE',  ( -0.04750000000000064587, 0.0000000000000000000, 1.500000000000000222 ) ) ;
#176 = DIRECTION ( 'NONE',  ( -1.000000000000000000, 0.0000000000000000000, 0.0000000000000000000 ) ) ;
#177 = AXIS2_PLACEMENT_3D ( 'NONE', #179, #270, #138 ) ;
#178 = LINE ( 'NONE', #206, #103 ) ;
#179 = CARTESIAN_POINT ( 'NONE',  ( 0.0000000000000000000, 0.0000000000000000000, 0.0000000000000000000 ) ) ;
#180 = CARTESIAN_POINT ( 'NONE',  ( -0.04685309999999995312, 6.695946194592023262E-18, 0.3750000000000000555 ) ) ;
#181 = LENGTH_MEASURE_WITH_UNIT ( LENGTH_MEASURE( 0.02539999999999999897 ), #297 );
#182 = PRODUCT_RELATED_PRODUCT_CATEGORY ( 'part', '', ( #284 ) ) ;
#183 = ORIENTED_EDGE ( 'NONE', *, *, #236, .T. ) ;
#184 = VECTOR ( 'NONE', #233, 39.37007874015748143 ) ;
#185 = CARTESIAN_POINT ( 'NONE',  ( 0.06250000000000002776, 7.654042494670959086E-18, 1.500000000000000222 ) ) ;
#186 = LINE ( 'NONE', #50, #52 ) ;
#187 = CYLINDRICAL_SURFACE ( 'NONE', #150, 0.06250000000000002776 ) ;
#188 = PRODUCT_DEFINITION_SHAPE ( 'NONE', 'NONE',  #292 ) ;
#189 = DIRECTION ( 'NONE',  ( 1.000000000000000000, 0.0000000000000000000, 0.0000000000000000000 ) ) ;
#190 = AXIS2_PLACEMENT_3D ( 'NONE', #79, #7, #254 ) ;
#191 = DIRECTION ( 'NONE',  ( -1.000000000000000000, 0.0000000000000000000, 0.0000000000000000000 ) ) ;
#192 = ADVANCED_FACE ( 'NONE', ( #30 ), #210, .T. ) ;
#193 = SURFACE_STYLE_USAGE ( .BOTH. , #108 ) ;
#194 = ORIENTED_EDGE ( 'NONE', *, *, #23, .T. ) ;
#195 = FILL_AREA_STYLE ('',( #35 ) ) ;
#196 = ADVANCED_FACE ( 'NONE', ( #208 ), #187, .T. ) ;
#197 = SURFACE_STYLE_USAGE ( .BOTH. , #20 ) ;
#198 = LENGTH_MEASURE_WITH_UNIT ( LENGTH_MEASURE( 0.02539999999999999897 ), #16 );
#199 = ORIENTED_EDGE ( 'NONE', *, *, #119, .F. ) ;
#200 =( GEOMETRIC_REPRESENTATION_CONTEXT ( 3 ) GLOBAL_UNCERTAINTY_ASSIGNED_CONTEXT ( ( #107 ) ) GLOBAL_UNIT_ASSIGNED_CONTEXT ( ( #290, #17, #261 ) ) REPRESENTATION_CONTEXT ( 'NONE', 'WORKASPACE' ) );
#201 = ORIENTED_EDGE ( 'NONE', *, *, #119, .T. ) ;
#202 = EDGE_CURVE ( 'NONE', #137, #121, #96, .T. ) ;
#203 = CARTESIAN_POINT ( 'NONE',  ( 0.0000000000000000000, 0.0000000000000000000, 1.500000000000000222 ) ) ;
#204 = PRODUCT_CONTEXT ( 'NONE', #287, 'mechanical' ) ;
#205 = ORIENTED_EDGE ( 'NONE', *, *, #134, .F. ) ;
#206 = CARTESIAN_POINT ( 'NONE',  ( 0.04685310000000000169, 5.737849894513085128E-18, -5.737849894513087439E-18 ) ) ;
#207 = ORIENTED_EDGE ( 'NONE', *, *, #209, .T. ) ;
#208 = FACE_OUTER_BOUND ( 'NONE', #42, .T. ) ;
#209 = EDGE_CURVE ( 'NONE', #133, #14, #274, .T. ) ;
#210 = PLANE ( 'NONE',  #60 ) ;
#211 = DIRECTION ( 'NONE',  ( -0.0000000000000000000, -0.0000000000000000000, -1.000000000000000000 ) ) ;
#212 = VECTOR ( 'NONE', #271, 39.37007874015748854 ) ;
#213 = CARTESIAN_POINT ( 'NONE',  ( 0.04685310000000004332, 0.0000000000000000000, 0.3750000000000000555 ) ) ;
#214 = VECTOR ( 'NONE', #99, 39.37007874015748143 ) ;
#215 = PRESENTATION_LAYER_ASSIGNMENT (  '', '', ( #257 ) ) ;
#216 = CYLINDRICAL_SURFACE ( 'NONE', #110, 0.04685310000000000169 ) ;
#217 = CARTESIAN_POINT ( 'NONE',  ( 0.0000000000000000000, 0.0000000000000000000, 1.485000000000000764 ) ) ;
#218 =( LENGTH_UNIT ( ) NAMED_UNIT ( * ) SI_UNIT ( $, .METRE. ) );
#219 = AXIS2_PLACEMENT_3D ( 'NONE', #76, #232, #56 ) ;
#220 = EDGE_CURVE ( 'NONE', #291, #152, #97, .T. ) ;
#221 = AXIS2_PLACEMENT_3D ( 'NONE', #53, #101, #191 ) ;
#222 = COLOUR_RGB ( '',0.7921568627450980005, 0.8196078431372548767, 0.9333333333333333481 ) ;
#223 = EDGE_LOOP ( 'NONE', ( #156, #258, #27, #239 ) ) ;
#224 =( NAMED_UNIT ( * ) SI_UNIT ( $, .STERADIAN. ) SOLID_ANGLE_UNIT ( ) );
#225 = CARTESIAN_POINT ( 'NONE',  ( 4.592425496802576684E-17, 0.0000000000000000000, 0.3750000000000000555 ) ) ;
#226 = ORIENTED_EDGE ( 'NONE', *, *, #116, .F. ) ;
#227 = ADVANCED_FACE ( 'NONE', ( #280 ), #146, .F. ) ;
#228 = FACE_OUTER_BOUND ( 'NONE', #273, .T. ) ;
#229 = ORIENTED_EDGE ( 'NONE', *, *, #236, .F. ) ;
#230 = DIRECTION ( 'NONE',  ( -1.224646799147353700E-16, -0.0000000000000000000, -1.000000000000000000 ) ) ;
#231 = DIRECTION ( 'NONE',  ( 1.224646799147353700E-16, 0.0000000000000000000, 1.000000000000000000 ) ) ;
#232 = DIRECTION ( 'NONE',  ( 0.0000000000000000000, 0.0000000000000000000, -1.000000000000000000 ) ) ;
#233 = DIRECTION ( 'NONE',  ( -1.224646799147353700E-16, -0.0000000000000000000, -1.000000000000000000 ) ) ;
#234 = AXIS2_PLACEMENT_3D ( 'NONE', #125, #231, #32 ) ;
#235 = CARTESIAN_POINT ( 'NONE',  ( 5.679152322418705982E-17, 0.0000000000000000000, 0.4637379795033760299 ) ) ;
#236 = EDGE_CURVE ( 'NONE', #152, #291, #11, .T. ) ;
#237 = ORIENTED_EDGE ( 'NONE', *, *, #255, .F. ) ;
#238 = CONICAL_SURFACE ( 'NONE', #234, 0.04685310000000000169, 0.1745329251994338915 ) ;
#239 = ORIENTED_EDGE ( 'NONE', *, *, #299, .F. ) ;
#240 = DIRECTION ( 'NONE',  ( -1.224646799147353700E-16, -0.0000000000000000000, -1.000000000000000000 ) ) ;
#241 = EDGE_LOOP ( 'NONE', ( #90, #183 ) ) ;
#242 = STYLED_ITEM ( 'NONE', ( #113 ), #281 ) ;
#243 = ORIENTED_EDGE ( 'NONE', *, *, #104, .T. ) ;
#244 = EDGE_LOOP ( 'NONE', ( #229, #22, #205, #112 ) ) ;
#245 = SHAPE_DEFINITION_REPRESENTATION ( #188, #124 ) ;
#246 = DIRECTION ( 'NONE',  ( -1.000000000000000000, 0.0000000000000000000, 0.0000000000000000000 ) ) ;
#247 = AXIS2_PLACEMENT_3D ( 'NONE', #172, #240, #260 ) ;
#248 = VERTEX_POINT ( 'NONE', #80 ) ;
#249 = DIRECTION ( 'NONE',  ( 0.0000000000000000000, 0.0000000000000000000, 1.000000000000000000 ) ) ;
#250 = DIRECTION ( 'NONE',  ( -1.224646799147353700E-16, -0.0000000000000000000, -1.000000000000000000 ) ) ;
#251 = AXIS2_PLACEMENT_3D ( 'NONE', #100, #211, #167 ) ;
#252 = DIRECTION ( 'NONE',  ( 1.000000000000000000, 0.0000000000000000000, -0.0000000000000000000 ) ) ;
#253 = DIMENSIONAL_EXPONENTS ( 1.000000000000000000, 0.0000000000000000000, 0.0000000000000000000, 0.0000000000000000000, 0.0000000000000000000, 0.0000000000000000000, 0.0000000000000000000 ) ;
#254 = DIRECTION ( 'NONE',  ( 1.000000000000000000, 0.0000000000000000000, -0.0000000000000000000 ) ) ;
#255 = EDGE_CURVE ( 'NONE', #152, #137, #170, .T. ) ;
#256 = CARTESIAN_POINT ( 'NONE',  ( 0.04750000000000064587, 5.817072295950006528E-18, 1.500000000000000222 ) ) ;
#257 = STYLED_ITEM ( 'NONE', ( #286 ), #124 ) ;
#258 = ORIENTED_EDGE ( 'NONE', *, *, #279, .T. ) ;
#259 =( CONVERSION_BASED_UNIT ( 'INCH', #198 ) LENGTH_UNIT ( ) NAMED_UNIT ( #74 ) );
#260 = DIRECTION ( 'NONE',  ( -1.000000000000000000, 0.0000000000000000000, 1.224646799147353700E-16 ) ) ;
#261 =( NAMED_UNIT ( * ) SI_UNIT ( $, .STERADIAN. ) SOLID_ANGLE_UNIT ( ) );
#262 = CIRCLE ( 'NONE', #91, 0.04685310000000000169 ) ;
#263 = PRODUCT_DEFINITION_FORMATION_WITH_SPECIFIED_SOURCE ( 'ANY', '', #284, .NOT_KNOWN. ) ;
#264 = FILL_AREA_STYLE_COLOUR ( '', #222 ) ;
#265 = CARTESIAN_POINT ( 'NONE',  ( -0.04685310000000000169, 0.0000000000000000000, 1.147569978902617488E-17 ) ) ;
#266 = DIRECTION ( 'NONE',  ( -1.224646799147353700E-16, -0.0000000000000000000, -1.000000000000000000 ) ) ;
#267 = CIRCLE ( 'NONE', #46, 0.06250000000000002776 ) ;
#268 =( NAMED_UNIT ( * ) PLANE_ANGLE_UNIT ( ) SI_UNIT ( $, .RADIAN. ) );
#269 = DIRECTION ( 'NONE',  ( -1.224646799147353700E-16, -0.0000000000000000000, -1.000000000000000000 ) ) ;
#270 = DIRECTION ( 'NONE',  ( 0.0000000000000000000, 0.0000000000000000000, 1.000000000000000000 ) ) ;
#271 = DIRECTION ( 'NONE',  ( -0.7071067811865462405, 0.0000000000000000000, -0.7071067811865486830 ) ) ;
#272 = APPLICATION_PROTOCOL_DEFINITION ( 'draft international standard', 'automotive_design', 1998, #155 ) ;
#273 = EDGE_LOOP ( 'NONE', ( #199, #58, #26, #62 ) ) ;
#274 = CIRCLE ( 'NONE', #221, 0.04685310000000000169 ) ;
#275 = DIRECTION ( 'NONE',  ( 0.0000000000000000000, 0.0000000000000000000, 1.000000000000000000 ) ) ;
#276 = ADVANCED_FACE ( 'NONE', ( #81 ), #84, .T. ) ;
#277 = DIRECTION ( 'NONE',  ( -1.000000000000000000, 0.0000000000000000000, 0.0000000000000000000 ) ) ;
#278 = DIRECTION ( 'NONE',  ( -1.000000000000000000, 0.0000000000000000000, 1.224646799147353700E-16 ) ) ;
#279 = EDGE_CURVE ( 'NONE', #137, #89, #86, .T. ) ;
#280 = FACE_OUTER_BOUND ( 'NONE', #136, .T. ) ;
#281 = MANIFOLD_SOLID_BREP ( 'Cut-Revolve1', #68 ) ;
#282 = DIRECTION ( 'NONE',  ( 1.000000000000000000, 0.0000000000000000000, 0.0000000000000000000 ) ) ;
#283 = PRODUCT_DEFINITION_CONTEXT ( 'detailed design', #155, 'design' ) ;
#284 = PRODUCT ( 'Micro_GEM-093-4', 'Micro_GEM-093-4', '', ( #204 ) ) ;
#285 = AXIS2_PLACEMENT_3D ( 'NONE', #54, #129, #282 ) ;
#286 = PRESENTATION_STYLE_ASSIGNMENT (( #193 ) ) ;
#287 = APPLICATION_CONTEXT ( 'automotive_design' ) ;
#288 = FILL_AREA_STYLE ('',( #264 ) ) ;
#289 = ORIENTED_EDGE ( 'NONE', *, *, #142, .T. ) ;
#290 =( CONVERSION_BASED_UNIT ( 'INCH', #85 ) LENGTH_UNIT ( ) NAMED_UNIT ( #253 ) );
#291 = VERTEX_POINT ( 'NONE', #151 ) ;
#292 = PRODUCT_DEFINITION ( 'UNKNOWN', '', #263, #283 ) ;
#293 =( NAMED_UNIT ( * ) PLANE_ANGLE_UNIT ( ) SI_UNIT ( $, .RADIAN. ) );
#294 = AXIS2_PLACEMENT_3D ( 'NONE', #203, #28, #246 ) ;
#295 = VERTEX_POINT ( 'NONE', #83 ) ;
#296 = AXIS2_PLACEMENT_3D ( 'NONE', #38, #132, #106 ) ;
#297 =( LENGTH_UNIT ( ) NAMED_UNIT ( * ) SI_UNIT ( $, .METRE. ) );
#298 = ORIENTED_EDGE ( 'NONE', *, *, #220, .F. ) ;
#299 = EDGE_CURVE ( 'NONE', #121, #295, #33, .T. ) ;
ENDSEC;
END-ISO-10303-21;
